  0
SECTION
  2
HEADER
  9
$ACADVER
  1
AC1009
  9
$INSBASE
 10
0.0
 20
0.0
 30
0.0
  9
$EXTMIN
 10
-23.018558126405399
 20
-5.4268878192411121
 30
0.0
  9
$EXTMAX
 10
4650.0000000000009
 20
1990.1418959118289
 30
0.0015258207003583
  9
$LIMMIN
 10
0.0
 20
0.0
  9
$LIMMAX
 10
420.0
 20
297.0
  9
$ORTHOMODE
 70
     0
  9
$REGENMODE
 70
     1
  9
$FILLMODE
 70
     1
  9
$QTEXTMODE
 70
     0
  9
$MIRRTEXT
 70
     0
  9
$DRAGMODE
 70
     2
  9
$LTSCALE
 40
1.0
  9
$OSMODE
 70
     0
  9
$ATTMODE
 70
     1
  9
$TEXTSIZE
 40
2.5
  9
$TRACEWID
 40
1.0
  9
$TEXTSTYLE
  7
STANDARD
  9
$CLAYER
  8
0
  9
$CELTYPE
  6
BYLAYER
  9
$CECOLOR
 62
   256
  9
$DIMSCALE
 40
1.0
  9
$DIMASZ
 40
2.5
  9
$DIMEXO
 40
0.625
  9
$DIMDLI
 40
3.75
  9
$DIMRND
 40
0.0
  9
$DIMDLE
 40
0.0
  9
$DIMEXE
 40
1.25
  9
$DIMTP
 40
0.0
  9
$DIMTM
 40
0.0
  9
$DIMTXT
 40
2.5
  9
$DIMCEN
 40
2.5
  9
$DIMTSZ
 40
0.0
  9
$DIMTOL
 70
     0
  9
$DIMLIM
 70
     0
  9
$DIMTIH
 70
     0
  9
$DIMTOH
 70
     0
  9
$DIMSE1
 70
     0
  9
$DIMSE2
 70
     0
  9
$DIMTAD
 70
     1
  9
$DIMZIN
 70
     8
  9
$DIMBLK
  1

  9
$DIMASO
 70
     1
  9
$DIMSHO
 70
     1
  9
$DIMPOST
  1

  9
$DIMAPOST
  1

  9
$DIMALT
 70
     0
  9
$DIMALTD
 70
     3
  9
$DIMALTF
 40
0.03937007874016
  9
$DIMLFAC
 40
1.0
  9
$DIMTOFL
 70
     1
  9
$DIMTVP
 40
0.0
  9
$DIMTIX
 70
     0
  9
$DIMSOXD
 70
     0
  9
$DIMSAH
 70
     0
  9
$DIMBLK1
  1

  9
$DIMBLK2
  1

  9
$DIMSTYLE
  2
ISO-25
  9
$DIMCLRD
 70
     0
  9
$DIMCLRE
 70
     0
  9
$DIMCLRT
 70
     0
  9
$DIMTFAC
 40
1.0
  9
$DIMGAP
 40
0.625
  9
$LUNITS
 70
     2
  9
$LUPREC
 70
     1
  9
$SKETCHINC
 40
1.0
  9
$FILLETRAD
 40
0.0
  9
$AUNITS
 70
     1
  9
$AUPREC
 70
     4
  9
$MENU
  1
.
  9
$ELEVATION
 40
0.0
  9
$PELEVATION
 40
0.0
  9
$THICKNESS
 40
0.0
  9
$LIMCHECK
 70
     0
  9
$BLIPMODE
 70
     0
  9
$CHAMFERA
 40
0.0
  9
$CHAMFERB
 40
0.0
  9
$SKPOLY
 70
     0
  9
$TDCREATE
 40
2455179.9870173731
  9
$TDUPDATE
 40
2455182.7393003819
  9
$TDINDWG
 40
0.0111804745
  9
$TDUSRTIMER
 40
0.0111804514
  9
$USRTIMER
 70
     1
  9
$ANGBASE
 50
0.0
  9
$ANGDIR
 70
     0
  9
$PDMODE
 70
     0
  9
$PDSIZE
 40
0.0
  9
$PLINEWID
 40
0.0
  9
$COORDS
 70
     1
  9
$SPLFRAME
 70
     0
  9
$SPLINETYPE
 70
     6
  9
$SPLINESEGS
 70
     8
  9
$ATTDIA
 70
     0
  9
$ATTREQ
 70
     0
  9
$HANDLING
 70
     1
  9
$HANDSEED
  5
5AC
  9
$SURFTAB1
 70
     6
  9
$SURFTAB2
 70
     6
  9
$SURFTYPE
 70
     6
  9
$SURFU
 70
     6
  9
$SURFV
 70
     6
  9
$UCSNAME
  2

  9
$UCSORG
 10
0.0
 20
0.0
 30
0.0
  9
$UCSXDIR
 10
1.0
 20
0.0
 30
0.0
  9
$UCSYDIR
 10
0.0
 20
1.0
 30
0.0
  9
$PUCSNAME
  2

  9
$PUCSORG
 10
0.0
 20
0.0
 30
0.0
  9
$PUCSXDIR
 10
1.0
 20
0.0
 30
0.0
  9
$PUCSYDIR
 10
0.0
 20
1.0
 30
0.0
  9
$USERI1
 70
     0
  9
$USERI2
 70
     0
  9
$USERI3
 70
     0
  9
$USERI4
 70
     0
  9
$USERI5
 70
     0
  9
$USERR1
 40
0.0
  9
$USERR2
 40
0.0
  9
$USERR3
 40
0.0
  9
$USERR4
 40
0.0
  9
$USERR5
 40
0.0
  9
$WORLDVIEW
 70
     1
  9
$SHADEDGE
 70
     3
  9
$SHADEDIF
 70
    70
  9
$TILEMODE
 70
     0
  9
$MAXACTVP
 70
    64
  9
$PLIMCHECK
 70
     0
  9
$PEXTMIN
 10
28.687182617187489
 20
19.99191756248473
 30
0.0
  9
$PEXTMAX
 10
258.18464355468751
 20
179.92725806236271
 30
0.0
  9
$PLIMMIN
 10
-5.027069091796875
 20
-5.027082920074462
  9
$PLIMMAX
 10
291.89892578125
 20
204.94624471664429
  9
$UNITMODE
 70
     0
  9
$VISRETAIN
 70
     1
  9
$PLINEGEN
 70
     0
  9
$PSLTSCALE
 70
     1
  0
ENDSEC
  0
SECTION
  2
TABLES
  0
TABLE
  2
VPORT
 70
     1
  0
VPORT
  2
*ACTIVE
 70
     0
 10
0.0
 20
0.0
 11
1.0
 21
1.0
 12
2313.4346251765219
 22
992.34215919212056
 13
0.0
 23
0.0
 14
1.0
 24
1.0
 15
10.0
 25
10.0
 16
0.0
 26
0.0
 36
1.0
 17
0.0
 27
0.0
 37
0.0
 40
2509.4181612524212
 41
1.8682926829268289
 42
50.0
 43
0.0
 44
0.0
 50
0.0
 51
0.0
 71
     0
 72
  1000
 73
     1
 74
     3
 75
     0
 76
     0
 77
     0
 78
     0
  0
ENDTAB
  0
TABLE
  2
LTYPE
 70
     2
  0
LTYPE
  2
CONTINUOUS
 70
     0
  3
Solid line
 72
    65
 73
     0
 40
0.0
  0
ENDTAB
  0
TABLE
  2
LAYER
 70
     5
  0
LAYER
  2
0
 70
     0
 62
     7
  6
CONTINUOUS
  0
LAYER
  2
DEFPOINTS
 70
     0
 62
   211
  6
CONTINUOUS
  0
LAYER
  2
HURRICANE_09_274_5329_03_3
 70
     0
 62
     7
  6
CONTINUOUS
  0
ENDTAB
  0
TABLE
  2
STYLE
 70
     2
  0
STYLE
  2
STANDARD
 70
     0
 40
0.0
 41
1.0
 50
0.0
 71
     0
 42
2.5
  3
txt
  4

  0
STYLE
  2
ARIAL
 70
     0
 40
0.0
 41
1.0
 50
0.0
 71
     0
 42
2.0
  3
txt
  4

  0
ENDTAB
  0
TABLE
  2
VIEW
 70
     1
  0
ENDTAB
  0
TABLE
  2
UCS
 70
     0
  0
ENDTAB
  0
TABLE
  2
APPID
 70
     9
  0
APPID
  2
ACAD
 70
     0
  0
APPID
  2
ACAD_PSEXT
 70
     0
  0
APPID
  2
ACADANNOTATIVE
 70
     0
  0
APPID
  2
ACAD_DSTYLE_DIMJAG
 70
     0
  0
APPID
  2
ACAD_DSTYLE_DIMTALN
 70
     0
  0
APPID
  2
REVIT
 70
     0
  0
APPID
  2
PE_URL
 70
     0
  0
APPID
  2
ACAD_MLEADERVER
 70
     0
  0
APPID
  2
ACAD_EXEMPT_FROM_CAD_STANDARDS
 70
     0
  0
ENDTAB
  0
TABLE
  2
DIMSTYLE
 70
     2
  0
DIMSTYLE
  2
ISO-25
 70
     0
  3

  4

  5

  6

  7

 40
1.0
 41
2.5
 42
0.625
 43
3.75
 44
1.25
 45
0.0
 46
0.0
 47
0.0
 48
0.0
140
2.5
141
2.5
142
0.0
143
0.03937007874016
144
1.0
145
0.0
146
1.0
147
0.625
 71
     0
 72
     0
 73
     0
 74
     0
 75
     0
 76
     0
 77
     1
 78
     8
170
     0
171
     3
172
     1
173
     0
174
     0
175
     0
176
     0
177
     0
178
     0
  0
ENDTAB
  0
ENDSEC
  0
SECTION
  2
BLOCKS
  0
BLOCK
  8
0
  2
$MODEL_SPACE
 70
     0
 10
0.0
 20
0.0
 30
0.0
  3
$MODEL_SPACE
  1

  0
ENDBLK
  5
13
  8
0
  0
BLOCK
 67
     1
  8
0
  2
$PAPER_SPACE
 70
     0
 10
0.0
 20
0.0
 30
0.0
  3
$PAPER_SPACE
  1

  0
ENDBLK
  5
50B
 67
     1
  8
0
  0
BLOCK
  8
0
  2
HURRICANE
 70
     0
 10
0.0
 20
0.0
 30
0.0
  3
HURRICANE
  1

  0
TEXT
  5
4F0
  8
HURRICANE_09_274_5329_03_3
 10
-10.79948840381992
 20
-5.0420310661715337
 30
0.0
 40
1.3
  1
Web: www.hurricane.co.nz
  7
ARIAL
 72
     1
 11
0.0
 21
-5.426887821481273
 31
0.0
 73
     1
1001
PE_URL
1000
http://www.hurricane.co.nz
1002
{
1000
http://www.hurricane.co.nz
1002
{
1071
        1
1002
}
1002
}
  0
INSERT
  5
4F1
  8
0
  2
*U2
 10
0.0
 20
0.0
 30
0.0
  0
TEXT
  5
4F2
  8
HURRICANE_09_274_5329_03_3
 10
-12.1256480218281
 20
-2.8693341911033929
 30
0.0
 40
1.3
  1
Email: mesh@hurricane.co.nz
  7
ARIAL
 72
     1
 11
0.0
 21
-3.2541909464131318
 31
0.0
 73
     1
1001
PE_URL
1000
mailto:mesh@hurricane.co.nz
1002
{
1000
mailto:mesh@hurricane.co.nz
1002
{
1071
        1
1002
}
1002
}
  0
ENDBLK
  5
4F5
  8
0
  0
BLOCK
  8
0
  2
*U2
 70
     1
 10
0.0
 20
0.0
 30
0.0
  3
*U2
  1

  0
TEXT
  5
59E
  8
HURRICANE_09_274_5329_03_3
 10
-20.393321115279679
 20
9.7559690298548531
 30
0.0
 40
2.5000300000000002
  1
Hurricane Wire - Auckland
  7
ARIAL
  0
TEXT
  5
59F
  8
HURRICANE_09_274_5329_03_3
 10
-8.9207880594272506
 20
6.6819287924116519
 30
0.0
 40
1.7999965997
  1
Ph 09 274 5329
  7
ARIAL
  0
TEXT
  5
5A0
  8
HURRICANE_09_274_5329_03_3
 10
-23.018558126405399
 20
3.1059480396541592
 30
0.0
 40
2.50001527732333
  1
Hurricane Wire - Christchurch
  7
ARIAL
  0
TEXT
  5
5A1
  8
HURRICANE_09_274_5329_03_3
 10
-8.9207355249063731
 20
0.0319233533339156
 30
0.0
 40
1.799985999520024
  1
Ph 03 344 3619
  7
ARIAL
  0
ENDBLK
  5
5A3
  8
0
  0
ENDSEC
  0
SECTION
  2
ENTITIES
  0
LINE
  5
63
  8
0
 10
0.0
 20
1973.2918959118199
 30
0.0015258207003583
 11
0.0
 21
1966.9918959118199
 31
0.0015258207003583
  0
LINE
  5
65
  8
0
 10
4650.0
 20
1966.9918959118199
 30
0.0015258207003583
 11
4650.0
 21
1973.2918959118199
 31
0.0015258207003583
  0
LINE
  5
66
  8
0
 10
4571.8499999999867
 20
0.1418959114802139
 30
0.0015258207003583
 11
4578.1499999999878
 21
0.1418959114802023
 31
0.0015258207003583
  0
LINE
  5
67
  8
0
 10
4578.1499999999915
 20
1990.1418959114801
 30
0.0015258207003583
 11
4571.8499999999913
 21
1990.1418959114801
 31
0.0015258207003583
  0
LINE
  5
68
  8
0
 10
4421.8499999999867
 20
0.1418959114932175
 30
0.0015258207003583
 11
4428.1499999999878
 21
0.1418959114932059
 31
0.0015258207003583
  0
LINE
  5
69
  8
0
 10
4428.1499999999915
 20
1990.1418959114931
 30
0.0015258207003583
 11
4421.8499999999913
 21
1990.1418959114931
 31
0.0015258207003583
  0
LINE
  5
6A
  8
0
 10
4271.8499999999894
 20
0.1418959115040554
 30
0.0015258207003583
 11
4278.1499999999878
 21
0.1418959115040438
 31
0.0015258207003583
  0
LINE
  5
6B
  8
0
 10
4278.1499999999924
 20
1990.141895911504
 30
0.0015258207003583
 11
4271.8499999999922
 21
1990.141895911504
 31
0.0015258207003583
  0
LINE
  5
6C
  8
0
 10
4121.8499999999894
 20
0.1418959115148932
 30
0.0015258207003583
 11
4128.1499999999887
 21
0.1418959115148816
 31
0.0015258207003583
  0
LINE
  5
6D
  8
0
 10
4128.1499999999924
 20
1990.1418959115149
 30
0.0015258207003583
 11
4121.849999999994
 21
1990.1418959115149
 31
0.0015258207003583
  0
LINE
  5
6E
  8
0
 10
0.0
 20
1823.291895911821
 30
0.0015258207003583
 11
0.0
 21
1816.9918959118199
 31
0.0015258207003583
  0
LINE
  5
6F
  8
0
 10
4650.0
 20
1816.9918959118199
 30
0.0015258207003583
 11
4650.0
 21
1823.2918959118199
 31
0.0015258207003583
  0
LINE
  5
70
  8
0
 10
3971.849999999989
 20
0.1418959115278968
 30
0.0015258207003583
 11
3978.1499999999901
 21
0.1418959115278853
 31
0.0015258207003583
  0
LINE
  5
71
  8
0
 10
3978.1499999999928
 20
1990.1418959115269
 30
0.0015258207003583
 11
3971.849999999994
 21
1990.1418959115269
 31
0.0015258207003583
  0
LINE
  5
72
  8
0
 10
0.0
 20
1673.291895911821
 30
0.0015258207003583
 11
0.0
 21
1666.9918959118199
 31
0.0015258207003583
  0
LINE
  5
73
  8
0
 10
4650.0
 20
1666.9918959118199
 30
0.0015258207003583
 11
4650.0
 21
1673.2918959118199
 31
0.0015258207003583
  0
LINE
  5
74
  8
0
 10
0.0
 20
1523.291895911821
 30
0.0015258207003583
 11
0.0
 21
1516.9918959118199
 31
0.0015258207003583
  0
LINE
  5
75
  8
0
 10
4650.0
 20
1516.9918959118199
 30
0.0015258207003583
 11
4650.0
 21
1523.2918959118199
 31
0.0015258207003583
  0
LINE
  5
76
  8
0
 10
0.0
 20
1373.291895911821
 30
0.0015258207003583
 11
0.0
 21
1366.9918959118211
 31
0.0015258207003583
  0
LINE
  5
77
  8
0
 10
4650.0
 20
1366.9918959118211
 30
0.0015258207003583
 11
4650.0
 21
1373.291895911821
 31
0.0015258207003583
  0
LINE
  5
78
  8
0
 10
0.0
 20
1223.291895911821
 30
0.0015258207003583
 11
0.0
 21
1216.9918959118211
 31
0.0015258207003583
  0
LINE
  5
79
  8
0
 10
4650.0
 20
1216.9918959118199
 30
0.0015258207003583
 11
4650.0
 21
1223.291895911821
 31
0.0015258207003583
  0
LINE
  5
7A
  8
0
 10
0.0
 20
1073.291895911821
 30
0.0015258207003583
 11
0.0
 21
1066.9918959118211
 31
0.0015258207003583
  0
LINE
  5
7B
  8
0
 10
4650.0
 20
1066.9918959118199
 30
0.0015258207003583
 11
4650.0
 21
1073.291895911821
 31
0.0015258207003583
  0
LINE
  5
7C
  8
0
 10
0.0
 20
923.29189591182114
 30
0.0015258207003583
 11
0.0
 21
916.9918959118213
 31
0.0015258207003583
  0
LINE
  5
7D
  8
0
 10
4650.0
 20
916.99189591182085
 30
0.0015258207003583
 11
4650.0
 21
923.2918959118208
 31
0.0015258207003583
  0
LINE
  5
7E
  8
0
 10
0.0
 20
773.29189591182114
 30
0.0015258207003583
 11
0.0
 21
766.9918959118213
 31
0.0015258207003583
  0
LINE
  5
7F
  8
0
 10
4650.0
 20
766.99189591182085
 30
0.0015258207003583
 11
4650.0
 21
773.2918959118208
 31
0.0015258207003583
  0
LINE
  5
80
  8
0
 10
0.0
 20
623.29189591182114
 30
0.0015258207003583
 11
0.0
 21
616.99189591182119
 31
0.0015258207003583
  0
LINE
  5
81
  8
0
 10
4650.0
 20
616.99189591182085
 30
0.0015258207003583
 11
4650.0
 21
623.2918959118208
 31
0.0015258207003583
  0
LINE
  5
82
  8
0
 10
0.0
 20
473.29189591182143
 30
0.0015258207003583
 11
0.0
 21
466.9918959118213
 31
0.0015258207003583
  0
LINE
  5
83
  8
0
 10
4650.0
 20
466.99189591182102
 30
0.0015258207003583
 11
4650.0
 21
473.29189591182109
 31
0.0015258207003583
  0
LINE
  5
84
  8
0
 10
0.0
 20
323.29189591182143
 30
0.0015258207003583
 11
0.0
 21
316.99189591182142
 31
0.0015258207003583
  0
LINE
  5
85
  8
0
 10
4650.0
 20
316.99189591182108
 30
0.0015258207003583
 11
4650.0
 21
323.2918959118212
 31
0.0015258207003583
  0
LINE
  5
86
  8
0
 10
0.0
 20
173.2918959118216
 30
0.0015258207003583
 11
0.0
 21
166.9918959118217
 31
0.0015258207003583
  0
LINE
  5
87
  8
0
 10
4650.0000000000009
 20
166.99189591182139
 30
0.0015258207003583
 11
4650.0000000000009
 21
173.29189591182131
 31
0.0015258207003583
  0
LINE
  5
88
  8
0
 10
3821.8499999999899
 20
0.1418959115387347
 30
0.0015258207003583
 11
3828.1499999999901
 21
0.1418959115387231
 31
0.0015258207003583
  0
LINE
  5
89
  8
0
 10
3828.1499999999942
 20
1990.1418959115381
 30
0.0015258207003583
 11
3821.849999999994
 21
1990.1418959115381
 31
0.0015258207003583
  0
LINE
  5
8A
  8
0
 10
3671.8499999999908
 20
0.1418959115495725
 30
0.0015258207003583
 11
3678.149999999991
 21
0.141895911549561
 31
0.0015258207003583
  0
LINE
  5
8B
  8
0
 10
3678.1499999999951
 20
1990.141895911549
 30
0.0015258207003583
 11
3671.849999999994
 21
1990.141895911549
 31
0.0015258207003583
  0
LINE
  5
8C
  8
0
 10
3521.8499999999922
 20
0.1418959115625761
 30
0.0015258207003583
 11
3528.1499999999919
 21
0.1418959115625646
 31
0.0015258207003583
  0
LINE
  5
8D
  8
0
 10
3528.1499999999951
 20
1990.141895911562
 30
0.0015258207003583
 11
3521.8499999999949
 21
1990.141895911562
 31
0.0015258207003583
  0
LINE
  5
8E
  8
0
 10
3371.8499999999922
 20
0.1418959115723311
 30
0.0015258207003583
 11
3378.1499999999928
 21
0.1418959115723195
 31
0.0015258207003583
  0
LINE
  5
8F
  8
0
 10
3378.149999999996
 20
1990.141895911572
 30
0.0015258207003583
 11
3371.8499999999958
 21
1990.141895911572
 31
0.0015258207003583
  0
LINE
  5
90
  8
0
 10
3221.8499999999922
 20
0.1418959115842518
 30
0.0015258207003583
 11
3228.1499999999919
 21
0.1418959115842402
 31
0.0015258207003583
  0
LINE
  5
91
  8
0
 10
3228.149999999996
 20
1990.141895911584
 30
0.0015258207003583
 11
3221.8499999999958
 21
1990.141895911584
 31
0.0015258207003583
  0
LINE
  5
92
  8
0
 10
3071.8499999999931
 20
0.1418959115961726
 30
0.0015258207003583
 11
3078.1499999999942
 21
0.141895911596161
 31
0.0015258207003583
  0
LINE
  5
93
  8
0
 10
3078.1499999999969
 20
1990.1418959115961
 30
0.0015258207003583
 11
3071.8499999999972
 21
1990.1418959115961
 31
0.0015258207003583
  0
LINE
  5
94
  8
0
 10
2921.8499999999931
 20
0.1418959116070104
 30
0.0015258207003583
 11
2928.1499999999928
 21
0.1418959116069989
 31
0.0015258207003583
  0
LINE
  5
95
  8
0
 10
2928.1499999999969
 20
1990.1418959116061
 30
0.0015258207003583
 11
2921.8499999999972
 21
1990.1418959116061
 31
0.0015258207003583
  0
LINE
  5
96
  8
0
 10
2771.849999999994
 20
0.1418959116189311
 30
0.0015258207003583
 11
2778.1499999999942
 21
0.1418959116189196
 31
0.0015258207003583
  0
LINE
  5
97
  8
0
 10
2778.1499999999978
 20
1990.141895911619
 30
0.0015258207003583
 11
2771.8499999999981
 21
1990.141895911619
 31
0.0015258207003583
  0
LINE
  5
98
  8
0
 10
2621.8499999999949
 20
0.1418959116308518
 30
0.0015258207003583
 11
2628.1499999999951
 21
0.1418959116308403
 31
0.0015258207003583
  0
LINE
  5
99
  8
0
 10
2628.1499999999978
 20
1990.1418959116299
 30
0.0015258207003583
 11
2621.8499999999981
 21
1990.1418959116299
 31
0.0015258207003583
  0
LINE
  5
9A
  8
0
 10
2471.8499999999949
 20
0.1418959116427726
 30
0.0015258207003583
 11
2478.1499999999951
 21
0.141895911642761
 31
0.0015258207003583
  0
LINE
  5
9B
  8
0
 10
2478.1499999999992
 20
1990.141895911642
 30
0.0015258207003583
 11
2471.8499999999981
 21
1990.141895911642
 31
0.0015258207003583
  0
LINE
  5
9C
  8
0
 10
2321.8499999999949
 20
0.1418959116536105
 30
0.0015258207003583
 11
2328.1499999999951
 21
0.1418959116535988
 31
0.0015258207003583
  0
LINE
  5
9D
  8
0
 10
2328.1499999999992
 20
1990.1418959116529
 30
0.0015258207003583
 11
2321.849999999999
 21
1990.1418959116529
 31
0.0015258207003583
  0
LINE
  5
9E
  8
0
 10
2171.8499999999958
 20
0.1418959116655312
 30
0.0015258207003583
 11
2178.149999999996
 21
0.1418959116655196
 31
0.0015258207003583
  0
LINE
  5
9F
  8
0
 10
2178.1499999999992
 20
1990.141895911665
 30
0.0015258207003583
 11
2171.8499999999999
 21
1990.141895911665
 31
0.0015258207003583
  0
LINE
  5
A0
  8
0
 10
2021.849999999997
 20
0.1418959116785348
 30
0.0015258207003583
 11
2028.149999999996
 21
0.1418959116785232
 31
0.0015258207003583
  0
LINE
  5
A1
  8
0
 10
2028.1500000000001
 20
1990.1418959116779
 30
0.0015258207003583
 11
2021.8499999999999
 21
1990.1418959116779
 31
0.0015258207003583
  0
LINE
  5
A2
  8
0
 10
1871.849999999997
 20
0.1418959116904555
 30
0.0015258207003583
 11
1878.149999999996
 21
0.1418959116904439
 31
0.0015258207003583
  0
LINE
  5
A3
  8
0
 10
1878.1500000000001
 20
1990.14189591169
 30
0.0015258207003583
 11
1871.850000000001
 21
1990.14189591169
 31
0.0015258207003583
  0
LINE
  5
A4
  8
0
 10
1721.8499999999981
 20
0.1418959117002104
 30
0.0015258207003583
 11
1728.1499999999969
 21
0.1418959117001989
 31
0.0015258207003583
  0
LINE
  5
A5
  8
0
 10
1728.150000000001
 20
1990.1418959117
 30
0.0015258207003583
 11
1721.850000000001
 21
1990.1418959117
 31
0.0015258207003583
  0
LINE
  5
A6
  8
0
 10
1571.8499999999981
 20
0.141895911713214
 30
0.0015258207003583
 11
1578.149999999998
 21
0.1418959117132025
 31
0.0015258207003583
  0
LINE
  5
A7
  8
0
 10
1578.150000000001
 20
1990.1418959117129
 30
0.0015258207003583
 11
1571.850000000002
 21
1990.1418959117129
 31
0.0015258207003583
  0
LINE
  5
A8
  8
0
 10
1421.8499999999981
 20
0.1418959117245933
 30
0.0015258207003583
 11
1428.149999999998
 21
0.1418959117245818
 31
0.0015258207003583
  0
LINE
  5
A9
  8
0
 10
1428.1500000000019
 20
1990.1418959117241
 30
0.0015258207003583
 11
1421.850000000002
 21
1990.1418959117241
 31
0.0015258207003583
  0
LINE
  5
AA
  8
0
 10
1271.849999999999
 20
0.1418959117359726
 30
0.0015258207003583
 11
1278.149999999999
 21
0.141895911735961
 31
0.0015258207003583
  0
LINE
  5
AB
  8
0
 10
1278.1500000000019
 20
1990.1418959117359
 30
0.0015258207003583
 11
1271.8500000000031
 21
1990.1418959117359
 31
0.0015258207003583
  0
LINE
  5
AC
  8
0
 10
1121.849999999999
 20
0.1418959117473519
 30
0.0015258207003583
 11
1128.149999999999
 21
0.1418959117473403
 31
0.0015258207003583
  0
LINE
  5
AD
  8
0
 10
1128.150000000003
 20
1990.141895911747
 30
0.0015258207003583
 11
1121.8500000000031
 21
1990.141895911747
 31
0.0015258207003583
  0
LINE
  5
AE
  8
0
 10
971.85000000000036
 20
0.1418959117590019
 30
0.0015258207003583
 11
978.14999999999952
 21
0.1418959117589904
 31
0.0015258207003583
  0
LINE
  5
AF
  8
0
 10
978.15000000000362
 20
1990.1418959117591
 30
0.0015258207003583
 11
971.85000000000389
 21
1990.1418959117591
 31
0.0015258207003583
  0
LINE
  5
B0
  8
0
 10
821.8500000000007
 20
0.1418959117701105
 30
0.0015258207003583
 11
828.15000000000043
 21
0.1418959117700989
 31
0.0015258207003583
  0
LINE
  5
B1
  8
0
 10
828.15000000000418
 20
1990.14189591177
 30
0.0015258207003583
 11
821.85000000000446
 21
1990.14189591177
 31
0.0015258207003583
  0
LINE
  5
B2
  8
0
 10
671.85000000000127
 20
0.1418959117817605
 30
0.0015258207003583
 11
678.150000000001
 21
0.1418959117817489
 31
0.0015258207003583
  0
LINE
  5
B3
  8
0
 10
678.15000000000464
 20
1990.1418959117809
 30
0.0015258207003583
 11
671.85000000000491
 21
1990.1418959117809
 31
0.0015258207003583
  0
LINE
  5
B4
  8
0
 10
521.85000000000207
 20
0.1418959117928691
 30
0.0015258207003583
 11
528.15000000000146
 21
0.1418959117928575
 31
0.0015258207003583
  0
LINE
  5
B5
  8
0
 10
528.15000000000498
 20
1990.1418959117921
 30
0.0015258207003583
 11
521.85000000000582
 21
1990.1418959117921
 31
0.0015258207003583
  0
LINE
  5
B6
  8
0
 10
371.85000000000218
 20
0.1418959118064141
 30
0.0015258207003583
 11
378.15000000000242
 21
0.1418959118064025
 31
0.0015258207003583
  0
LINE
  5
B7
  8
0
 10
378.150000000006
 20
1990.1418959118059
 30
0.0015258207003583
 11
371.85000000000582
 21
1990.1418959118059
 31
0.0015258207003583
  0
LINE
  5
B8
  8
0
 10
221.85000000000309
 20
0.1418959118177934
 30
0.0015258207003583
 11
228.15000000000239
 21
0.1418959118177818
 31
0.0015258207003583
  0
LINE
  5
B9
  8
0
 10
228.150000000006
 20
1990.1418959118171
 30
0.0015258207003583
 11
221.8500000000067
 21
1990.1418959118171
 31
0.0015258207003583
  0
LINE
  5
BA
  8
0
 10
71.850000000003092
 20
0.1418959118291727
 30
0.0015258207003583
 11
78.150000000003274
 21
0.1418959118291611
 31
0.0015258207003583
  0
LINE
  5
BB
  8
0
 10
78.150000000006912
 20
1990.1418959118289
 30
0.0015258207003583
 11
71.85000000000673
 21
1990.1418959118289
 31
0.0015258207003583
  0
LINE
  5
BC
  8
0
 10
0.0
 20
23.291895911821641
 30
0.0015258207003583
 11
0.0
 21
16.991895911821651
 31
0.0015258207003583
  0
LINE
  5
BD
  8
0
 10
4650.0
 20
16.991895911821359
 30
0.0015258207003583
 11
4650.0
 21
23.29189591182136
 31
0.0015258207003583
  0
LINE
  5
BE
  8
DEFPOINTS
 10
74.999999999999091
 20
1770.1418959118309
 30
0.0015258207003583
 11
74.999999999999091
 21
20.14189591182814
 31
0.0015258207003583
1001
REVIT
1002
{
1070
     3
1000
-2009512
1002
}
  0
LINE
  5
C2
  8
DEFPOINTS
 10
4374.9999999999891
 20
1770.1418959118309
 30
0.0015258207003583
 11
74.999999999999091
 21
1770.1418959118309
 31
0.0015258207003583
1001
REVIT
1002
{
1070
     3
1000
-2009512
1002
}
  0
LINE
  5
C3
  8
DEFPOINTS
 10
4374.9999999999891
 20
20.14189591182781
 30
0.0015258207003583
 11
4374.9999999999891
 21
1770.1418959118309
 31
0.0015258207003583
1001
REVIT
1002
{
1070
     3
1000
-2009512
1002
}
  0
LINE
  5
C4
  8
DEFPOINTS
 10
74.999999999999091
 20
20.141895911828069
 30
0.0015258207003583
 11
4374.9999999999891
 21
20.14189591182781
 31
0.0015258207003583
1001
REVIT
1002
{
1070
     3
1000
-2009512
1002
}
  0
LINE
  5
C5
  8
0
 10
4578.1499999999915
 20
1973.291895911819
 30
0.0015258207003583
 11
4578.1499999999915
 21
1990.1418959114801
 31
0.0015258207003583
  0
LINE
  5
C6
  8
0
 10
4578.1499999999915
 20
1823.291895911821
 30
0.0015258207003583
 11
4578.1499999999915
 21
1966.9918959118199
 31
0.0015258207003583
  0
LINE
  5
C7
  8
0
 10
4578.1499999999915
 20
1673.2918959118199
 30
0.0015258207003583
 11
4578.1499999999915
 21
1816.9918959118199
 31
0.0015258207003583
  0
LINE
  5
C8
  8
0
 10
4578.1499999999915
 20
1523.2918959118199
 30
0.0015258207003583
 11
4578.1499999999915
 21
1666.9918959118199
 31
0.0015258207003583
  0
LINE
  5
C9
  8
0
 10
4578.1499999999887
 20
1373.2918959118219
 30
0.0015258207003583
 11
4578.1499999999915
 21
1516.991895911819
 31
0.0015258207003583
  0
LINE
  5
CA
  8
0
 10
4578.1499999999887
 20
1223.291895911821
 30
0.0015258207003583
 11
4578.1499999999887
 21
1366.9918959118211
 31
0.0015258207003583
  0
LINE
  5
CB
  8
0
 10
4578.1499999999887
 20
1073.291895911821
 30
0.0015258207003583
 11
4578.1499999999887
 21
1216.9918959118199
 31
0.0015258207003583
  0
LINE
  5
CC
  8
0
 10
4578.1499999999887
 20
923.29189591182035
 30
0.0015258207003583
 11
4578.1499999999887
 21
1066.991895911822
 31
0.0015258207003583
  0
LINE
  5
CD
  8
0
 10
4578.1499999999887
 20
773.29189591182183
 30
0.0015258207003583
 11
4578.1499999999887
 21
916.99189591182164
 31
0.0015258207003583
  0
LINE
  5
CE
  8
0
 10
4578.1499999999887
 20
623.29189591182126
 30
0.0015258207003583
 11
4578.1499999999887
 21
766.99189591182096
 31
0.0015258207003583
  0
LINE
  5
CF
  8
0
 10
4578.1499999999887
 20
473.29189591182069
 30
0.0015258207003583
 11
4578.1499999999887
 21
616.99189591182062
 31
0.0015258207003583
  0
LINE
  5
D0
  8
0
 10
4578.1499999999878
 20
323.29189591182251
 30
0.0015258207003583
 11
4578.1499999999887
 21
466.99189591182233
 31
0.0015258207003583
  0
LINE
  5
D1
  8
0
 10
4578.1499999999878
 20
173.29189591182191
 30
0.0015258207003583
 11
4578.1499999999878
 21
316.99189591182181
 31
0.0015258207003583
  0
LINE
  5
D2
  8
0
 10
4578.1499999999878
 20
23.291895911821442
 30
0.0015258207003583
 11
4578.1499999999878
 21
166.99189591182119
 31
0.0015258207003583
  0
LINE
  5
D3
  8
0
 10
4578.1499999999878
 20
0.1418959114802023
 30
0.0015258207003583
 11
4578.1499999999878
 21
16.99189591182288
 31
0.0015258207003583
  0
LINE
  5
D4
  8
0
 10
4571.8499999999867
 20
16.991895911823001
 30
0.0015258207003583
 11
4571.8499999999867
 21
0.1418959114802139
 31
0.0015258207003583
  0
LINE
  5
D5
  8
0
 10
4571.8499999999867
 20
166.9918959118211
 30
0.0015258207003583
 11
4571.8499999999867
 21
23.291895911821371
 31
0.0015258207003583
  0
LINE
  5
D6
  8
0
 10
4571.8499999999876
 20
316.99189591182159
 30
0.0015258207003583
 11
4571.8499999999867
 21
173.29189591182191
 31
0.0015258207003583
  0
LINE
  5
D7
  8
0
 10
4571.8499999999876
 20
466.99189591182193
 30
0.0015258207003583
 11
4571.8499999999876
 21
323.29189591182222
 31
0.0015258207003583
  0
LINE
  5
D8
  8
0
 10
4571.8499999999876
 20
616.99189591182017
 30
0.0015258207003583
 11
4571.8499999999876
 21
473.29189591182052
 31
0.0015258207003583
  0
LINE
  5
D9
  8
0
 10
4571.8499999999876
 20
766.99189591182062
 30
0.0015258207003583
 11
4571.8499999999876
 21
623.2918959118208
 31
0.0015258207003583
  0
LINE
  5
DA
  8
0
 10
4571.8499999999894
 20
916.9918959118213
 30
0.0015258207003583
 11
4571.8499999999876
 21
773.29189591182137
 31
0.0015258207003583
  0
LINE
  5
DB
  8
0
 10
4571.8499999999894
 20
1066.991895911822
 30
0.0015258207003583
 11
4571.8499999999894
 21
923.29189591181989
 31
0.0015258207003583
  0
LINE
  5
DC
  8
0
 10
4571.8499999999894
 20
1216.9918959118199
 30
0.0015258207003583
 11
4571.8499999999894
 21
1073.2918959118199
 31
0.0015258207003583
  0
LINE
  5
DD
  8
0
 10
4571.8499999999904
 20
1366.9918959118211
 30
0.0015258207003583
 11
4571.8499999999894
 21
1223.291895911821
 31
0.0015258207003583
  0
LINE
  5
DE
  8
0
 10
4571.8499999999904
 20
1516.991895911819
 30
0.0015258207003583
 11
4571.8499999999904
 21
1373.291895911821
 31
0.0015258207003583
  0
LINE
  5
DF
  8
0
 10
4571.8499999999904
 20
1666.991895911819
 30
0.0015258207003583
 11
4571.8499999999904
 21
1523.291895911819
 31
0.0015258207003583
  0
LINE
  5
E0
  8
0
 10
4571.8499999999913
 20
1816.9918959118199
 30
0.0015258207003583
 11
4571.8499999999904
 21
1673.2918959118199
 31
0.0015258207003583
  0
LINE
  5
E1
  8
0
 10
4571.8499999999913
 20
1966.9918959118199
 30
0.0015258207003583
 11
4571.8499999999913
 21
1823.291895911821
 31
0.0015258207003583
  0
LINE
  5
E2
  8
0
 10
4571.8499999999913
 20
1990.1418959114801
 30
0.0015258207003583
 11
4571.8499999999913
 21
1973.291895911819
 31
0.0015258207003583
  0
LINE
  5
E3
  8
0
 10
4428.1499999999915
 20
1973.291895911819
 30
0.0015258207003583
 11
4428.1499999999915
 21
1990.1418959114931
 31
0.0015258207003583
  0
LINE
  5
E4
  8
0
 10
4428.1499999999915
 20
1823.291895911821
 30
0.0015258207003583
 11
4428.1499999999915
 21
1966.9918959118211
 31
0.0015258207003583
  0
LINE
  5
E5
  8
0
 10
4428.1499999999915
 20
1673.2918959118199
 30
0.0015258207003583
 11
4428.1499999999915
 21
1816.9918959118199
 31
0.0015258207003583
  0
LINE
  5
E6
  8
0
 10
4428.1499999999896
 20
1523.2918959118199
 30
0.0015258207003583
 11
4428.1499999999915
 21
1666.9918959118199
 31
0.0015258207003583
  0
LINE
  5
E7
  8
0
 10
4428.1499999999896
 20
1373.2918959118219
 30
0.0015258207003583
 11
4428.1499999999896
 21
1516.991895911819
 31
0.0015258207003583
  0
LINE
  5
E8
  8
0
 10
4428.1499999999896
 20
1223.291895911821
 30
0.0015258207003583
 11
4428.1499999999896
 21
1366.9918959118211
 31
0.0015258207003583
  0
LINE
  5
E9
  8
0
 10
4428.1499999999896
 20
1073.291895911821
 30
0.0015258207003583
 11
4428.1499999999896
 21
1216.9918959118199
 31
0.0015258207003583
  0
LINE
  5
EA
  8
0
 10
4428.1499999999887
 20
923.29189591182035
 30
0.0015258207003583
 11
4428.1499999999887
 21
1066.991895911822
 31
0.0015258207003583
  0
LINE
  5
EB
  8
0
 10
4428.1499999999887
 20
773.29189591182194
 30
0.0015258207003583
 11
4428.1499999999887
 21
916.99189591182176
 31
0.0015258207003583
  0
LINE
  5
EC
  8
0
 10
4428.1499999999887
 20
623.29189591182126
 30
0.0015258207003583
 11
4428.1499999999887
 21
766.99189591182119
 31
0.0015258207003583
  0
LINE
  5
ED
  8
0
 10
4428.1499999999878
 20
473.2918959118208
 30
0.0015258207003583
 11
4428.1499999999887
 21
616.99189591182062
 31
0.0015258207003583
  0
LINE
  5
EE
  8
0
 10
4428.1499999999878
 20
323.29189591182251
 30
0.0015258207003583
 11
4428.1499999999878
 21
466.99189591182233
 31
0.0015258207003583
  0
LINE
  5
EF
  8
0
 10
4428.1499999999878
 20
173.29189591182191
 30
0.0015258207003583
 11
4428.1499999999878
 21
316.9918959118217
 31
0.0015258207003583
  0
LINE
  5
F0
  8
0
 10
4428.1499999999878
 20
23.291895911821459
 30
0.0015258207003583
 11
4428.1499999999878
 21
166.99189591182119
 31
0.0015258207003583
  0
LINE
  5
F1
  8
0
 10
4428.1499999999878
 20
0.1418959114932059
 30
0.0015258207003583
 11
4428.1499999999878
 21
16.99189591182289
 31
0.0015258207003583
  0
LINE
  5
F2
  8
0
 10
4421.8499999999867
 20
16.991895911822962
 30
0.0015258207003583
 11
4421.8499999999867
 21
0.1418959114932175
 31
0.0015258207003583
  0
LINE
  5
F3
  8
0
 10
4421.8499999999876
 20
166.99189591182099
 30
0.0015258207003583
 11
4421.8499999999876
 21
23.291895911821548
 31
0.0015258207003583
  0
LINE
  5
F4
  8
0
 10
4421.8499999999876
 20
316.99189591182147
 30
0.0015258207003583
 11
4421.8499999999876
 21
173.2918959118218
 31
0.0015258207003583
  0
LINE
  5
F5
  8
0
 10
4421.8499999999876
 20
466.99189591182181
 30
0.0015258207003583
 11
4421.8499999999876
 21
323.29189591182222
 31
0.0015258207003583
  0
LINE
  5
F6
  8
0
 10
4421.8499999999894
 20
616.99189591182017
 30
0.0015258207003583
 11
4421.8499999999876
 21
473.29189591182052
 31
0.0015258207003583
  0
LINE
  5
F7
  8
0
 10
4421.8499999999894
 20
766.99189591182062
 30
0.0015258207003583
 11
4421.8499999999894
 21
623.29189591182114
 31
0.0015258207003583
  0
LINE
  5
F8
  8
0
 10
4421.8499999999894
 20
916.99189591182153
 30
0.0015258207003583
 11
4421.8499999999894
 21
773.29189591182137
 31
0.0015258207003583
  0
LINE
  5
F9
  8
0
 10
4421.8499999999913
 20
1066.991895911822
 30
0.0015258207003583
 11
4421.8499999999894
 21
923.29189591182012
 31
0.0015258207003583
  0
LINE
  5
FA
  8
0
 10
4421.8499999999913
 20
1216.9918959118199
 30
0.0015258207003583
 11
4421.8499999999913
 21
1073.2918959118199
 31
0.0015258207003583
  0
LINE
  5
FB
  8
0
 10
4421.8499999999913
 20
1366.9918959118211
 30
0.0015258207003583
 11
4421.8499999999913
 21
1223.291895911821
 31
0.0015258207003583
  0
LINE
  5
FC
  8
0
 10
4421.8499999999913
 20
1516.991895911819
 30
0.0015258207003583
 11
4421.8499999999913
 21
1373.291895911821
 31
0.0015258207003583
  0
LINE
  5
FD
  8
0
 10
4421.8499999999913
 20
1666.9918959118199
 30
0.0015258207003583
 11
4421.8499999999913
 21
1523.2918959118199
 31
0.0015258207003583
  0
LINE
  5
FE
  8
0
 10
4421.8499999999913
 20
1816.9918959118199
 30
0.0015258207003583
 11
4421.8499999999913
 21
1673.2918959118199
 31
0.0015258207003583
  0
LINE
  5
FF
  8
0
 10
4421.8499999999913
 20
1966.9918959118199
 30
0.0015258207003583
 11
4421.8499999999913
 21
1823.291895911821
 31
0.0015258207003583
  0
LINE
  5
100
  8
0
 10
4421.8499999999913
 20
1990.1418959114931
 30
0.0015258207003583
 11
4421.8499999999913
 21
1973.291895911819
 31
0.0015258207003583
  0
LINE
  5
101
  8
0
 10
4278.1499999999924
 20
1973.291895911819
 30
0.0015258207003583
 11
4278.1499999999924
 21
1990.141895911504
 31
0.0015258207003583
  0
LINE
  5
102
  8
0
 10
4278.1499999999924
 20
1823.291895911821
 30
0.0015258207003583
 11
4278.1499999999924
 21
1966.9918959118211
 31
0.0015258207003583
  0
LINE
  5
103
  8
0
 10
4278.1499999999924
 20
1673.2918959118199
 30
0.0015258207003583
 11
4278.1499999999924
 21
1816.9918959118199
 31
0.0015258207003583
  0
LINE
  5
104
  8
0
 10
4278.1499999999924
 20
1523.2918959118199
 30
0.0015258207003583
 11
4278.1499999999924
 21
1666.9918959118199
 31
0.0015258207003583
  0
LINE
  5
105
  8
0
 10
4278.1499999999924
 20
1373.2918959118219
 30
0.0015258207003583
 11
4278.1499999999924
 21
1516.991895911819
 31
0.0015258207003583
  0
LINE
  5
106
  8
0
 10
4278.1499999999915
 20
1223.291895911821
 30
0.0015258207003583
 11
4278.1499999999924
 21
1366.9918959118211
 31
0.0015258207003583
  0
LINE
  5
107
  8
0
 10
4278.1499999999915
 20
1073.291895911821
 30
0.0015258207003583
 11
4278.1499999999915
 21
1216.9918959118199
 31
0.0015258207003583
  0
LINE
  5
108
  8
0
 10
4278.1499999999915
 20
923.29189591182057
 30
0.0015258207003583
 11
4278.1499999999915
 21
1066.991895911822
 31
0.0015258207003583
  0
LINE
  5
109
  8
0
 10
4278.1499999999915
 20
773.29189591182205
 30
0.0015258207003583
 11
4278.1499999999915
 21
916.99189591182176
 31
0.0015258207003583
  0
LINE
  5
10A
  8
0
 10
4278.1499999999887
 20
623.29189591182137
 30
0.0015258207003583
 11
4278.1499999999915
 21
766.9918959118213
 31
0.0015258207003583
  0
LINE
  5
10B
  8
0
 10
4278.1499999999887
 20
473.29189591182097
 30
0.0015258207003583
 11
4278.1499999999887
 21
616.99189591182073
 31
0.0015258207003583
  0
LINE
  5
10C
  8
0
 10
4278.1499999999887
 20
323.29189591182262
 30
0.0015258207003583
 11
4278.1499999999887
 21
466.99189591182233
 31
0.0015258207003583
  0
LINE
  5
10D
  8
0
 10
4278.1499999999878
 20
173.291895911822
 30
0.0015258207003583
 11
4278.1499999999878
 21
316.99189591182181
 31
0.0015258207003583
  0
LINE
  5
10E
  8
0
 10
4278.1499999999878
 20
23.29189591182147
 30
0.0015258207003583
 11
4278.1499999999878
 21
166.9918959118213
 31
0.0015258207003583
  0
LINE
  5
10F
  8
0
 10
4278.1499999999878
 20
0.1418959115040438
 30
0.0015258207003583
 11
4278.1499999999878
 21
16.991895911822901
 31
0.0015258207003583
  0
LINE
  5
110
  8
0
 10
4271.8499999999894
 20
16.991895911822979
 30
0.0015258207003583
 11
4271.8499999999894
 21
0.1418959115040554
 31
0.0015258207003583
  0
LINE
  5
111
  8
0
 10
4271.8499999999894
 20
166.9918959118211
 30
0.0015258207003583
 11
4271.8499999999894
 21
23.29189591182158
 31
0.0015258207003583
  0
LINE
  5
112
  8
0
 10
4271.8499999999894
 20
316.99189591182181
 30
0.0015258207003583
 11
4271.8499999999894
 21
173.291895911822
 31
0.0015258207003583
  0
LINE
  5
113
  8
0
 10
4271.8499999999894
 20
466.9918959118221
 30
0.0015258207003583
 11
4271.8499999999894
 21
323.29189591182228
 31
0.0015258207003583
  0
LINE
  5
114
  8
0
 10
4271.8499999999894
 20
616.99189591182062
 30
0.0015258207003583
 11
4271.8499999999894
 21
473.29189591182069
 31
0.0015258207003583
  0
LINE
  5
115
  8
0
 10
4271.8499999999904
 20
766.99189591182119
 30
0.0015258207003583
 11
4271.8499999999894
 21
623.29189591182137
 31
0.0015258207003583
  0
LINE
  5
116
  8
0
 10
4271.8499999999904
 20
916.99189591182176
 30
0.0015258207003583
 11
4271.8499999999904
 21
773.29189591182194
 31
0.0015258207003583
  0
LINE
  5
117
  8
0
 10
4271.8499999999904
 20
1066.991895911822
 30
0.0015258207003583
 11
4271.8499999999904
 21
923.29189591182035
 31
0.0015258207003583
  0
LINE
  5
118
  8
0
 10
4271.8499999999913
 20
1216.9918959118199
 30
0.0015258207003583
 11
4271.8499999999904
 21
1073.291895911821
 31
0.0015258207003583
  0
LINE
  5
119
  8
0
 10
4271.8499999999913
 20
1366.9918959118211
 30
0.0015258207003583
 11
4271.8499999999913
 21
1223.291895911821
 31
0.0015258207003583
  0
LINE
  5
11A
  8
0
 10
4271.8499999999913
 20
1516.991895911819
 30
0.0015258207003583
 11
4271.8499999999913
 21
1373.291895911821
 31
0.0015258207003583
  0
LINE
  5
11B
  8
0
 10
4271.8499999999922
 20
1666.991895911819
 30
0.0015258207003583
 11
4271.8499999999913
 21
1523.291895911819
 31
0.0015258207003583
  0
LINE
  5
11C
  8
0
 10
4271.8499999999922
 20
1816.9918959118199
 30
0.0015258207003583
 11
4271.8499999999922
 21
1673.2918959118199
 31
0.0015258207003583
  0
LINE
  5
11D
  8
0
 10
4271.8499999999922
 20
1966.9918959118199
 30
0.0015258207003583
 11
4271.8499999999922
 21
1823.291895911821
 31
0.0015258207003583
  0
LINE
  5
11E
  8
0
 10
4271.8499999999922
 20
1990.141895911504
 30
0.0015258207003583
 11
4271.8499999999922
 21
1973.291895911819
 31
0.0015258207003583
  0
LINE
  5
11F
  8
0
 10
4128.1499999999924
 20
1973.291895911819
 30
0.0015258207003583
 11
4128.1499999999924
 21
1990.1418959115149
 31
0.0015258207003583
  0
LINE
  5
120
  8
0
 10
4128.1499999999924
 20
1823.291895911821
 30
0.0015258207003583
 11
4128.1499999999924
 21
1966.9918959118211
 31
0.0015258207003583
  0
LINE
  5
121
  8
0
 10
4128.1499999999924
 20
1673.2918959118199
 30
0.0015258207003583
 11
4128.1499999999924
 21
1816.9918959118199
 31
0.0015258207003583
  0
LINE
  5
122
  8
0
 10
4128.1499999999924
 20
1523.2918959118199
 30
0.0015258207003583
 11
4128.1499999999924
 21
1666.9918959118199
 31
0.0015258207003583
  0
LINE
  5
123
  8
0
 10
4128.1499999999915
 20
1373.2918959118219
 30
0.0015258207003583
 11
4128.1499999999924
 21
1516.991895911819
 31
0.0015258207003583
  0
LINE
  5
124
  8
0
 10
4128.1499999999915
 20
1223.291895911821
 30
0.0015258207003583
 11
4128.1499999999915
 21
1366.9918959118211
 31
0.0015258207003583
  0
LINE
  5
125
  8
0
 10
4128.1499999999915
 20
1073.291895911821
 30
0.0015258207003583
 11
4128.1499999999915
 21
1216.9918959118199
 31
0.0015258207003583
  0
LINE
  5
126
  8
0
 10
4128.1499999999896
 20
923.29189591182012
 30
0.0015258207003583
 11
4128.1499999999915
 21
1066.991895911822
 31
0.0015258207003583
  0
LINE
  5
127
  8
0
 10
4128.1499999999896
 20
773.29189591182183
 30
0.0015258207003583
 11
4128.1499999999896
 21
916.99189591182164
 31
0.0015258207003583
  0
LINE
  5
128
  8
0
 10
4128.1499999999896
 20
623.29189591182126
 30
0.0015258207003583
 11
4128.1499999999896
 21
766.99189591182119
 31
0.0015258207003583
  0
LINE
  5
129
  8
0
 10
4128.1499999999896
 20
473.2918959118208
 30
0.0015258207003583
 11
4128.1499999999896
 21
616.99189591182062
 31
0.0015258207003583
  0
LINE
  5
12A
  8
0
 10
4128.1499999999887
 20
323.29189591182262
 30
0.0015258207003583
 11
4128.1499999999896
 21
466.99189591182233
 31
0.0015258207003583
  0
LINE
  5
12B
  8
0
 10
4128.1499999999887
 20
173.291895911822
 30
0.0015258207003583
 11
4128.1499999999887
 21
316.99189591182181
 31
0.0015258207003583
  0
LINE
  5
12C
  8
0
 10
4128.1499999999887
 20
23.291895911821481
 30
0.0015258207003583
 11
4128.1499999999887
 21
166.9918959118213
 31
0.0015258207003583
  0
LINE
  5
12D
  8
0
 10
4128.1499999999887
 20
0.1418959115148816
 30
0.0015258207003583
 11
4128.1499999999887
 21
16.991895911822908
 31
0.0015258207003583
  0
LINE
  5
12E
  8
0
 10
4121.8499999999894
 20
16.991895911823001
 30
0.0015258207003583
 11
4121.8499999999894
 21
0.1418959115148932
 31
0.0015258207003583
  0
LINE
  5
12F
  8
0
 10
4121.8499999999894
 20
166.99189591182119
 30
0.0015258207003583
 11
4121.8499999999894
 21
23.291895911821602
 31
0.0015258207003583
  0
LINE
  5
130
  8
0
 10
4121.8499999999894
 20
316.99189591182193
 30
0.0015258207003583
 11
4121.8499999999894
 21
173.291895911822
 31
0.0015258207003583
  0
LINE
  5
131
  8
0
 10
4121.8499999999894
 20
466.99189591182233
 30
0.0015258207003583
 11
4121.8499999999894
 21
323.29189591182239
 31
0.0015258207003583
  0
LINE
  5
132
  8
0
 10
4121.8499999999904
 20
616.99189591182062
 30
0.0015258207003583
 11
4121.8499999999894
 21
473.2918959118208
 31
0.0015258207003583
  0
LINE
  5
133
  8
0
 10
4121.8499999999904
 20
766.99189591182085
 30
0.0015258207003583
 11
4121.8499999999904
 21
623.29189591182126
 31
0.0015258207003583
  0
LINE
  5
134
  8
0
 10
4121.8499999999913
 20
916.9918959118213
 30
0.0015258207003583
 11
4121.8499999999904
 21
773.2918959118216
 31
0.0015258207003583
  0
LINE
  5
135
  8
0
 10
4121.8499999999913
 20
1066.991895911822
 30
0.0015258207003583
 11
4121.8499999999913
 21
923.29189591181989
 31
0.0015258207003583
  0
LINE
  5
136
  8
0
 10
4121.8499999999913
 20
1216.9918959118199
 30
0.0015258207003583
 11
4121.8499999999913
 21
1073.2918959118199
 31
0.0015258207003583
  0
LINE
  5
137
  8
0
 10
4121.8499999999922
 20
1366.9918959118211
 30
0.0015258207003583
 11
4121.8499999999913
 21
1223.291895911821
 31
0.0015258207003583
  0
LINE
  5
138
  8
0
 10
4121.8499999999922
 20
1516.9918959118179
 30
0.0015258207003583
 11
4121.8499999999922
 21
1373.291895911821
 31
0.0015258207003583
  0
LINE
  5
139
  8
0
 10
4121.8499999999922
 20
1666.991895911819
 30
0.0015258207003583
 11
4121.8499999999922
 21
1523.291895911819
 31
0.0015258207003583
  0
LINE
  5
13A
  8
0
 10
4121.8499999999922
 20
1816.9918959118199
 30
0.0015258207003583
 11
4121.8499999999922
 21
1673.2918959118199
 31
0.0015258207003583
  0
LINE
  5
13B
  8
0
 10
4121.849999999994
 20
1966.9918959118199
 30
0.0015258207003583
 11
4121.8499999999922
 21
1823.2918959118199
 31
0.0015258207003583
  0
LINE
  5
13C
  8
0
 10
4121.849999999994
 20
1990.1418959115149
 30
0.0015258207003583
 11
4121.849999999994
 21
1973.291895911819
 31
0.0015258207003583
  0
LINE
  5
13D
  8
0
 10
3978.1499999999928
 20
1973.291895911819
 30
0.0015258207003583
 11
3978.1499999999928
 21
1990.1418959115269
 31
0.0015258207003583
  0
LINE
  5
13E
  8
0
 10
3978.1499999999928
 20
1823.291895911821
 30
0.0015258207003583
 11
3978.1499999999928
 21
1966.9918959118211
 31
0.0015258207003583
  0
LINE
  5
13F
  8
0
 10
3978.1499999999919
 20
1673.2918959118199
 30
0.0015258207003583
 11
3978.1499999999928
 21
1816.9918959118199
 31
0.0015258207003583
  0
LINE
  5
140
  8
0
 10
3978.1499999999919
 20
1523.2918959118199
 30
0.0015258207003583
 11
3978.1499999999919
 21
1666.9918959118199
 31
0.0015258207003583
  0
LINE
  5
141
  8
0
 10
3978.1499999999919
 20
1373.291895911821
 30
0.0015258207003583
 11
3978.1499999999919
 21
1516.991895911819
 31
0.0015258207003583
  0
LINE
  5
142
  8
0
 10
3978.1499999999919
 20
1223.291895911821
 30
0.0015258207003583
 11
3978.1499999999919
 21
1366.9918959118211
 31
0.0015258207003583
  0
LINE
  5
143
  8
0
 10
3978.1499999999919
 20
1073.2918959118199
 30
0.0015258207003583
 11
3978.1499999999919
 21
1216.9918959118199
 31
0.0015258207003583
  0
LINE
  5
144
  8
0
 10
3978.1499999999919
 20
923.29189591182012
 30
0.0015258207003583
 11
3978.1499999999919
 21
1066.991895911822
 31
0.0015258207003583
  0
LINE
  5
145
  8
0
 10
3978.149999999991
 20
773.29189591182194
 30
0.0015258207003583
 11
3978.1499999999919
 21
916.99189591182164
 31
0.0015258207003583
  0
LINE
  5
146
  8
0
 10
3978.149999999991
 20
623.29189591182137
 30
0.0015258207003583
 11
3978.149999999991
 21
766.99189591182119
 31
0.0015258207003583
  0
LINE
  5
147
  8
0
 10
3978.149999999991
 20
473.2918959118208
 30
0.0015258207003583
 11
3978.149999999991
 21
616.99189591182062
 31
0.0015258207003583
  0
LINE
  5
148
  8
0
 10
3978.149999999991
 20
323.29189591182251
 30
0.0015258207003583
 11
3978.149999999991
 21
466.99189591182233
 31
0.0015258207003583
  0
LINE
  5
149
  8
0
 10
3978.1499999999901
 20
173.29189591182191
 30
0.0015258207003583
 11
3978.149999999991
 21
316.99189591182181
 31
0.0015258207003583
  0
LINE
  5
14A
  8
0
 10
3978.1499999999901
 20
23.291895911821481
 30
0.0015258207003583
 11
3978.1499999999901
 21
166.99189591182119
 31
0.0015258207003583
  0
LINE
  5
14B
  8
0
 10
3978.1499999999901
 20
0.1418959115278853
 30
0.0015258207003583
 11
3978.1499999999901
 21
16.991895911822919
 31
0.0015258207003583
  0
LINE
  5
14C
  8
0
 10
3971.849999999989
 20
16.991895911822979
 30
0.0015258207003583
 11
3971.849999999989
 21
0.1418959115278968
 31
0.0015258207003583
  0
LINE
  5
14D
  8
0
 10
3971.8499999999899
 20
166.9918959118215
 30
0.0015258207003583
 11
3971.849999999989
 21
23.29189591182158
 31
0.0015258207003583
  0
LINE
  5
14E
  8
0
 10
3971.8499999999908
 20
316.99189591182193
 30
0.0015258207003583
 11
3971.8499999999899
 21
173.29189591182211
 31
0.0015258207003583
  0
LINE
  5
14F
  8
0
 10
3971.8499999999908
 20
466.99189591182233
 30
0.0015258207003583
 11
3971.8499999999908
 21
323.29189591182268
 31
0.0015258207003583
  0
LINE
  5
150
  8
0
 10
3971.8499999999908
 20
616.99189591182085
 30
0.0015258207003583
 11
3971.8499999999908
 21
473.29189591182097
 31
0.0015258207003583
  0
LINE
  5
151
  8
0
 10
3971.8499999999908
 20
766.99189591182142
 30
0.0015258207003583
 11
3971.8499999999908
 21
623.29189591182148
 31
0.0015258207003583
  0
LINE
  5
152
  8
0
 10
3971.8499999999908
 20
916.99189591182176
 30
0.0015258207003583
 11
3971.8499999999908
 21
773.29189591182205
 31
0.0015258207003583
  0
LINE
  5
153
  8
0
 10
3971.8499999999922
 20
1066.991895911822
 30
0.0015258207003583
 11
3971.8499999999908
 21
923.29189591182046
 31
0.0015258207003583
  0
LINE
  5
154
  8
0
 10
3971.8499999999922
 20
1216.9918959118211
 30
0.0015258207003583
 11
3971.8499999999922
 21
1073.291895911821
 31
0.0015258207003583
  0
LINE
  5
155
  8
0
 10
3971.8499999999922
 20
1366.9918959118211
 30
0.0015258207003583
 11
3971.8499999999922
 21
1223.291895911821
 31
0.0015258207003583
  0
LINE
  5
156
  8
0
 10
3971.8499999999931
 20
1516.991895911819
 30
0.0015258207003583
 11
3971.8499999999922
 21
1373.2918959118219
 31
0.0015258207003583
  0
LINE
  5
157
  8
0
 10
3971.8499999999931
 20
1666.9918959118199
 30
0.0015258207003583
 11
3971.8499999999931
 21
1523.2918959118199
 31
0.0015258207003583
  0
LINE
  5
158
  8
0
 10
3971.849999999994
 20
1816.9918959118199
 30
0.0015258207003583
 11
3971.8499999999931
 21
1673.291895911821
 31
0.0015258207003583
  0
LINE
  5
159
  8
0
 10
3971.849999999994
 20
1966.9918959118211
 30
0.0015258207003583
 11
3971.849999999994
 21
1823.291895911821
 31
0.0015258207003583
  0
LINE
  5
15A
  8
0
 10
3971.849999999994
 20
1990.1418959115269
 30
0.0015258207003583
 11
3971.849999999994
 21
1973.291895911819
 31
0.0015258207003583
  0
LINE
  5
15B
  8
0
 10
3828.1499999999942
 20
1973.291895911819
 30
0.0015258207003583
 11
3828.1499999999942
 21
1990.1418959115381
 31
0.0015258207003583
  0
LINE
  5
15C
  8
0
 10
3828.1499999999942
 20
1823.291895911821
 30
0.0015258207003583
 11
3828.1499999999942
 21
1966.9918959118211
 31
0.0015258207003583
  0
LINE
  5
15D
  8
0
 10
3828.1499999999928
 20
1673.2918959118199
 30
0.0015258207003583
 11
3828.1499999999942
 21
1816.9918959118199
 31
0.0015258207003583
  0
LINE
  5
15E
  8
0
 10
3828.1499999999928
 20
1523.2918959118199
 30
0.0015258207003583
 11
3828.1499999999928
 21
1666.9918959118199
 31
0.0015258207003583
  0
LINE
  5
15F
  8
0
 10
3828.1499999999928
 20
1373.291895911821
 30
0.0015258207003583
 11
3828.1499999999928
 21
1516.991895911819
 31
0.0015258207003583
  0
LINE
  5
160
  8
0
 10
3828.1499999999919
 20
1223.291895911821
 30
0.0015258207003583
 11
3828.1499999999928
 21
1366.9918959118211
 31
0.0015258207003583
  0
LINE
  5
161
  8
0
 10
3828.1499999999919
 20
1073.2918959118199
 30
0.0015258207003583
 11
3828.1499999999919
 21
1216.9918959118199
 31
0.0015258207003583
  0
LINE
  5
162
  8
0
 10
3828.1499999999919
 20
923.29189591181989
 30
0.0015258207003583
 11
3828.1499999999919
 21
1066.991895911822
 31
0.0015258207003583
  0
LINE
  5
163
  8
0
 10
3828.1499999999919
 20
773.29189591182183
 30
0.0015258207003583
 11
3828.1499999999919
 21
916.99189591182153
 31
0.0015258207003583
  0
LINE
  5
164
  8
0
 10
3828.1499999999919
 20
623.29189591182126
 30
0.0015258207003583
 11
3828.1499999999919
 21
766.99189591182096
 31
0.0015258207003583
  0
LINE
  5
165
  8
0
 10
3828.149999999991
 20
473.29189591182069
 30
0.0015258207003583
 11
3828.1499999999919
 21
616.99189591182051
 31
0.0015258207003583
  0
LINE
  5
166
  8
0
 10
3828.149999999991
 20
323.29189591182251
 30
0.0015258207003583
 11
3828.149999999991
 21
466.99189591182221
 31
0.0015258207003583
  0
LINE
  5
167
  8
0
 10
3828.149999999991
 20
173.291895911822
 30
0.0015258207003583
 11
3828.149999999991
 21
316.99189591182181
 31
0.0015258207003583
  0
LINE
  5
168
  8
0
 10
3828.1499999999901
 20
23.291895911821499
 30
0.0015258207003583
 11
3828.149999999991
 21
166.9918959118213
 31
0.0015258207003583
  0
LINE
  5
169
  8
0
 10
3828.1499999999901
 20
0.1418959115387231
 30
0.0015258207003583
 11
3828.1499999999901
 21
16.991895911822919
 31
0.0015258207003583
  0
LINE
  5
16A
  8
0
 10
3821.8499999999899
 20
16.991895911822979
 30
0.0015258207003583
 11
3821.8499999999899
 21
0.1418959115387347
 31
0.0015258207003583
  0
LINE
  5
16B
  8
0
 10
3821.8499999999899
 20
166.99189591182139
 30
0.0015258207003583
 11
3821.8499999999899
 21
23.29189591182158
 31
0.0015258207003583
  0
LINE
  5
16C
  8
0
 10
3821.8499999999899
 20
316.99189591182181
 30
0.0015258207003583
 11
3821.8499999999899
 21
173.29189591182191
 31
0.0015258207003583
  0
LINE
  5
16D
  8
0
 10
3821.8499999999922
 20
466.9918959118221
 30
0.0015258207003583
 11
3821.8499999999899
 21
323.29189591182262
 31
0.0015258207003583
  0
LINE
  5
16E
  8
0
 10
3821.8499999999922
 20
616.99189591182062
 30
0.0015258207003583
 11
3821.8499999999922
 21
473.29189591182069
 31
0.0015258207003583
  0
LINE
  5
16F
  8
0
 10
3821.8499999999922
 20
766.99189591182119
 30
0.0015258207003583
 11
3821.8499999999922
 21
623.29189591182126
 31
0.0015258207003583
  0
LINE
  5
170
  8
0
 10
3821.8499999999922
 20
916.99189591182176
 30
0.0015258207003583
 11
3821.8499999999922
 21
773.29189591182183
 31
0.0015258207003583
  0
LINE
  5
171
  8
0
 10
3821.8499999999922
 20
1066.991895911822
 30
0.0015258207003583
 11
3821.8499999999922
 21
923.29189591182035
 31
0.0015258207003583
  0
LINE
  5
172
  8
0
 10
3821.8499999999922
 20
1216.9918959118199
 30
0.0015258207003583
 11
3821.8499999999922
 21
1073.291895911821
 31
0.0015258207003583
  0
LINE
  5
173
  8
0
 10
3821.8499999999931
 20
1366.9918959118211
 30
0.0015258207003583
 11
3821.8499999999922
 21
1223.291895911821
 31
0.0015258207003583
  0
LINE
  5
174
  8
0
 10
3821.849999999994
 20
1516.9918959118199
 30
0.0015258207003583
 11
3821.8499999999931
 21
1373.2918959118219
 31
0.0015258207003583
  0
LINE
  5
175
  8
0
 10
3821.849999999994
 20
1666.9918959118199
 30
0.0015258207003583
 11
3821.849999999994
 21
1523.2918959118199
 31
0.0015258207003583
  0
LINE
  5
176
  8
0
 10
3821.849999999994
 20
1816.9918959118199
 30
0.0015258207003583
 11
3821.849999999994
 21
1673.291895911821
 31
0.0015258207003583
  0
LINE
  5
177
  8
0
 10
3821.849999999994
 20
1966.9918959118211
 30
0.0015258207003583
 11
3821.849999999994
 21
1823.291895911821
 31
0.0015258207003583
  0
LINE
  5
178
  8
0
 10
3821.849999999994
 20
1990.1418959115381
 30
0.0015258207003583
 11
3821.849999999994
 21
1973.291895911819
 31
0.0015258207003583
  0
LINE
  5
179
  8
0
 10
3678.1499999999951
 20
1973.2918959118199
 30
0.0015258207003583
 11
3678.1499999999951
 21
1990.141895911549
 31
0.0015258207003583
  0
LINE
  5
17A
  8
0
 10
3678.1499999999951
 20
1823.291895911821
 30
0.0015258207003583
 11
3678.1499999999951
 21
1966.9918959118211
 31
0.0015258207003583
  0
LINE
  5
17B
  8
0
 10
3678.1499999999951
 20
1673.2918959118199
 30
0.0015258207003583
 11
3678.1499999999951
 21
1816.9918959118199
 31
0.0015258207003583
  0
LINE
  5
17C
  8
0
 10
3678.1499999999942
 20
1523.2918959118199
 30
0.0015258207003583
 11
3678.1499999999951
 21
1666.9918959118199
 31
0.0015258207003583
  0
LINE
  5
17D
  8
0
 10
3678.1499999999928
 20
1373.2918959118219
 30
0.0015258207003583
 11
3678.1499999999942
 21
1516.991895911819
 31
0.0015258207003583
  0
LINE
  5
17E
  8
0
 10
3678.1499999999928
 20
1223.291895911821
 30
0.0015258207003583
 11
3678.1499999999928
 21
1366.9918959118211
 31
0.0015258207003583
  0
LINE
  5
17F
  8
0
 10
3678.1499999999928
 20
1073.2918959118199
 30
0.0015258207003583
 11
3678.1499999999928
 21
1216.9918959118199
 31
0.0015258207003583
  0
LINE
  5
180
  8
0
 10
3678.1499999999919
 20
923.29189591182035
 30
0.0015258207003583
 11
3678.1499999999928
 21
1066.991895911822
 31
0.0015258207003583
  0
LINE
  5
181
  8
0
 10
3678.1499999999919
 20
773.29189591182171
 30
0.0015258207003583
 11
3678.1499999999919
 21
916.99189591182176
 31
0.0015258207003583
  0
LINE
  5
182
  8
0
 10
3678.1499999999919
 20
623.29189591182137
 30
0.0015258207003583
 11
3678.1499999999919
 21
766.99189591182119
 31
0.0015258207003583
  0
LINE
  5
183
  8
0
 10
3678.1499999999919
 20
473.29189591182069
 30
0.0015258207003583
 11
3678.1499999999919
 21
616.99189591182062
 31
0.0015258207003583
  0
LINE
  5
184
  8
0
 10
3678.1499999999919
 20
323.29189591182251
 30
0.0015258207003583
 11
3678.1499999999919
 21
466.99189591182221
 31
0.0015258207003583
  0
LINE
  5
185
  8
0
 10
3678.149999999991
 20
173.291895911822
 30
0.0015258207003583
 11
3678.149999999991
 21
316.99189591182181
 31
0.0015258207003583
  0
LINE
  5
186
  8
0
 10
3678.149999999991
 20
23.291895911821509
 30
0.0015258207003583
 11
3678.149999999991
 21
166.9918959118213
 31
0.0015258207003583
  0
LINE
  5
187
  8
0
 10
3678.149999999991
 20
0.141895911549561
 30
0.0015258207003583
 11
3678.149999999991
 21
16.99189591182294
 31
0.0015258207003583
  0
LINE
  5
188
  8
0
 10
3671.8499999999908
 20
16.99189591182299
 30
0.0015258207003583
 11
3671.8499999999908
 21
0.1418959115495725
 31
0.0015258207003583
  0
LINE
  5
189
  8
0
 10
3671.8499999999922
 20
166.99189591182119
 30
0.0015258207003583
 11
3671.8499999999908
 21
23.291895911821591
 31
0.0015258207003583
  0
LINE
  5
18A
  8
0
 10
3671.8499999999922
 20
316.99189591182193
 30
0.0015258207003583
 11
3671.8499999999922
 21
173.291895911822
 31
0.0015258207003583
  0
LINE
  5
18B
  8
0
 10
3671.8499999999922
 20
466.99189591182233
 30
0.0015258207003583
 11
3671.8499999999922
 21
323.29189591182268
 31
0.0015258207003583
  0
LINE
  5
18C
  8
0
 10
3671.8499999999922
 20
616.99189591182085
 30
0.0015258207003583
 11
3671.8499999999922
 21
473.29189591182097
 31
0.0015258207003583
  0
LINE
  5
18D
  8
0
 10
3671.8499999999922
 20
766.99189591182142
 30
0.0015258207003583
 11
3671.8499999999922
 21
623.29189591182148
 31
0.0015258207003583
  0
LINE
  5
18E
  8
0
 10
3671.8499999999922
 20
916.99189591182176
 30
0.0015258207003583
 11
3671.8499999999922
 21
773.29189591182205
 31
0.0015258207003583
  0
LINE
  5
18F
  8
0
 10
3671.8499999999931
 20
1066.991895911822
 30
0.0015258207003583
 11
3671.8499999999922
 21
923.29189591182046
 31
0.0015258207003583
  0
LINE
  5
190
  8
0
 10
3671.849999999994
 20
1216.9918959118199
 30
0.0015258207003583
 11
3671.8499999999931
 21
1073.291895911821
 31
0.0015258207003583
  0
LINE
  5
191
  8
0
 10
3671.849999999994
 20
1366.9918959118211
 30
0.0015258207003583
 11
3671.849999999994
 21
1223.291895911821
 31
0.0015258207003583
  0
LINE
  5
192
  8
0
 10
3671.849999999994
 20
1516.991895911819
 30
0.0015258207003583
 11
3671.849999999994
 21
1373.2918959118219
 31
0.0015258207003583
  0
LINE
  5
193
  8
0
 10
3671.849999999994
 20
1666.9918959118199
 30
0.0015258207003583
 11
3671.849999999994
 21
1523.2918959118199
 31
0.0015258207003583
  0
LINE
  5
194
  8
0
 10
3671.849999999994
 20
1816.9918959118199
 30
0.0015258207003583
 11
3671.849999999994
 21
1673.291895911821
 31
0.0015258207003583
  0
LINE
  5
195
  8
0
 10
3671.849999999994
 20
1966.9918959118211
 30
0.0015258207003583
 11
3671.849999999994
 21
1823.291895911821
 31
0.0015258207003583
  0
LINE
  5
196
  8
0
 10
3671.849999999994
 20
1990.141895911549
 30
0.0015258207003583
 11
3671.849999999994
 21
1973.291895911819
 31
0.0015258207003583
  0
LINE
  5
197
  8
0
 10
3528.1499999999951
 20
1973.2918959118199
 30
0.0015258207003583
 11
3528.1499999999951
 21
1990.141895911562
 31
0.0015258207003583
  0
LINE
  5
198
  8
0
 10
3528.1499999999951
 20
1823.291895911821
 30
0.0015258207003583
 11
3528.1499999999951
 21
1966.9918959118211
 31
0.0015258207003583
  0
LINE
  5
199
  8
0
 10
3528.1499999999951
 20
1673.291895911821
 30
0.0015258207003583
 11
3528.1499999999951
 21
1816.9918959118199
 31
0.0015258207003583
  0
LINE
  5
19A
  8
0
 10
3528.1499999999942
 20
1523.2918959118199
 30
0.0015258207003583
 11
3528.1499999999951
 21
1666.9918959118199
 31
0.0015258207003583
  0
LINE
  5
19B
  8
0
 10
3528.1499999999928
 20
1373.2918959118219
 30
0.0015258207003583
 11
3528.1499999999942
 21
1516.991895911819
 31
0.0015258207003583
  0
LINE
  5
19C
  8
0
 10
3528.1499999999928
 20
1223.291895911821
 30
0.0015258207003583
 11
3528.1499999999928
 21
1366.9918959118211
 31
0.0015258207003583
  0
LINE
  5
19D
  8
0
 10
3528.1499999999928
 20
1073.291895911821
 30
0.0015258207003583
 11
3528.1499999999928
 21
1216.9918959118199
 31
0.0015258207003583
  0
LINE
  5
19E
  8
0
 10
3528.1499999999928
 20
923.29189591182046
 30
0.0015258207003583
 11
3528.1499999999928
 21
1066.991895911822
 31
0.0015258207003583
  0
LINE
  5
19F
  8
0
 10
3528.1499999999928
 20
773.29189591182205
 30
0.0015258207003583
 11
3528.1499999999928
 21
916.99189591182176
 31
0.0015258207003583
  0
LINE
  5
1A0
  8
0
 10
3528.1499999999928
 20
623.29189591182137
 30
0.0015258207003583
 11
3528.1499999999928
 21
766.9918959118213
 31
0.0015258207003583
  0
LINE
  5
1A1
  8
0
 10
3528.1499999999928
 20
473.2918959118208
 30
0.0015258207003583
 11
3528.1499999999928
 21
616.99189591182073
 31
0.0015258207003583
  0
LINE
  5
1A2
  8
0
 10
3528.1499999999919
 20
323.29189591182262
 30
0.0015258207003583
 11
3528.1499999999928
 21
466.99189591182233
 31
0.0015258207003583
  0
LINE
  5
1A3
  8
0
 10
3528.1499999999919
 20
173.291895911822
 30
0.0015258207003583
 11
3528.1499999999919
 21
316.99189591182181
 31
0.0015258207003583
  0
LINE
  5
1A4
  8
0
 10
3528.1499999999919
 20
23.291895911821509
 30
0.0015258207003583
 11
3528.1499999999919
 21
166.9918959118213
 31
0.0015258207003583
  0
LINE
  5
1A5
  8
0
 10
3528.1499999999919
 20
0.1418959115625646
 30
0.0015258207003583
 11
3528.1499999999919
 21
16.99189591182294
 31
0.0015258207003583
  0
LINE
  5
1A6
  8
0
 10
3521.8499999999922
 20
16.991895911822951
 30
0.0015258207003583
 11
3521.8499999999922
 21
0.1418959115625761
 31
0.0015258207003583
  0
LINE
  5
1A7
  8
0
 10
3521.8499999999922
 20
166.9918959118213
 30
0.0015258207003583
 11
3521.8499999999922
 21
23.291895911821541
 31
0.0015258207003583
  0
LINE
  5
1A8
  8
0
 10
3521.8499999999922
 20
316.99189591182181
 30
0.0015258207003583
 11
3521.8499999999922
 21
173.29189591182191
 31
0.0015258207003583
  0
LINE
  5
1A9
  8
0
 10
3521.8499999999922
 20
466.99189591182238
 30
0.0015258207003583
 11
3521.8499999999922
 21
323.29189591182262
 31
0.0015258207003583
  0
LINE
  5
1AA
  8
0
 10
3521.8499999999922
 20
616.99189591182085
 30
0.0015258207003583
 11
3521.8499999999922
 21
473.29189591182092
 31
0.0015258207003583
  0
LINE
  5
1AB
  8
0
 10
3521.8499999999931
 20
766.99189591182142
 30
0.0015258207003583
 11
3521.8499999999931
 21
623.29189591182148
 31
0.0015258207003583
  0
LINE
  5
1AC
  8
0
 10
3521.8499999999931
 20
916.99189591182176
 30
0.0015258207003583
 11
3521.8499999999931
 21
773.29189591182205
 31
0.0015258207003583
  0
LINE
  5
1AD
  8
0
 10
3521.8499999999931
 20
1066.991895911822
 30
0.0015258207003583
 11
3521.8499999999931
 21
923.29189591182046
 31
0.0015258207003583
  0
LINE
  5
1AE
  8
0
 10
3521.8499999999931
 20
1216.9918959118199
 30
0.0015258207003583
 11
3521.8499999999931
 21
1073.291895911821
 31
0.0015258207003583
  0
LINE
  5
1AF
  8
0
 10
3521.8499999999931
 20
1366.9918959118211
 30
0.0015258207003583
 11
3521.8499999999931
 21
1223.291895911821
 31
0.0015258207003583
  0
LINE
  5
1B0
  8
0
 10
3521.849999999994
 20
1516.991895911819
 30
0.0015258207003583
 11
3521.849999999994
 21
1373.2918959118219
 31
0.0015258207003583
  0
LINE
  5
1B1
  8
0
 10
3521.849999999994
 20
1666.9918959118199
 30
0.0015258207003583
 11
3521.849999999994
 21
1523.2918959118199
 31
0.0015258207003583
  0
LINE
  5
1B2
  8
0
 10
3521.849999999994
 20
1816.9918959118199
 30
0.0015258207003583
 11
3521.849999999994
 21
1673.291895911821
 31
0.0015258207003583
  0
LINE
  5
1B3
  8
0
 10
3521.8499999999949
 20
1966.9918959118211
 30
0.0015258207003583
 11
3521.849999999994
 21
1823.291895911821
 31
0.0015258207003583
  0
LINE
  5
1B4
  8
0
 10
3521.8499999999949
 20
1990.141895911562
 30
0.0015258207003583
 11
3521.8499999999949
 21
1973.291895911819
 31
0.0015258207003583
  0
LINE
  5
1B5
  8
0
 10
3378.149999999996
 20
1973.2918959118199
 30
0.0015258207003583
 11
3378.149999999996
 21
1990.141895911572
 31
0.0015258207003583
  0
LINE
  5
1B6
  8
0
 10
3378.1499999999951
 20
1823.2918959118219
 30
0.0015258207003583
 11
3378.149999999996
 21
1966.991895911822
 31
0.0015258207003583
  0
LINE
  5
1B7
  8
0
 10
3378.1499999999951
 20
1673.291895911821
 30
0.0015258207003583
 11
3378.1499999999951
 21
1816.9918959118211
 31
0.0015258207003583
  0
LINE
  5
1B8
  8
0
 10
3378.1499999999951
 20
1523.291895911821
 30
0.0015258207003583
 11
3378.1499999999951
 21
1666.9918959118199
 31
0.0015258207003583
  0
LINE
  5
1B9
  8
0
 10
3378.1499999999942
 20
1373.2918959118219
 30
0.0015258207003583
 11
3378.1499999999951
 21
1516.9918959118199
 31
0.0015258207003583
  0
LINE
  5
1BA
  8
0
 10
3378.1499999999942
 20
1223.291895911821
 30
0.0015258207003583
 11
3378.1499999999942
 21
1366.9918959118211
 31
0.0015258207003583
  0
LINE
  5
1BB
  8
0
 10
3378.1499999999942
 20
1073.291895911821
 30
0.0015258207003583
 11
3378.1499999999942
 21
1216.9918959118211
 31
0.0015258207003583
  0
LINE
  5
1BC
  8
0
 10
3378.1499999999942
 20
923.29189591182035
 30
0.0015258207003583
 11
3378.1499999999942
 21
1066.991895911822
 31
0.0015258207003583
  0
LINE
  5
1BD
  8
0
 10
3378.1499999999928
 20
773.29189591182171
 30
0.0015258207003583
 11
3378.1499999999942
 21
916.99189591182176
 31
0.0015258207003583
  0
LINE
  5
1BE
  8
0
 10
3378.1499999999928
 20
623.29189591182103
 30
0.0015258207003583
 11
3378.1499999999928
 21
766.99189591182096
 31
0.0015258207003583
  0
LINE
  5
1BF
  8
0
 10
3378.1499999999928
 20
473.29189591182029
 30
0.0015258207003583
 11
3378.1499999999928
 21
616.99189591182039
 31
0.0015258207003583
  0
LINE
  5
1C0
  8
0
 10
3378.1499999999928
 20
323.29189591182188
 30
0.0015258207003583
 11
3378.1499999999928
 21
466.9918959118217
 31
0.0015258207003583
  0
LINE
  5
1C1
  8
0
 10
3378.1499999999928
 20
173.29189591182109
 30
0.0015258207003583
 11
3378.1499999999928
 21
316.99189591182108
 31
0.0015258207003583
  0
LINE
  5
1C2
  8
0
 10
3378.1499999999928
 20
23.291895911820461
 30
0.0015258207003583
 11
3378.1499999999928
 21
166.99189591182039
 31
0.0015258207003583
  0
LINE
  5
1C3
  8
0
 10
3378.1499999999928
 20
0.1418959115723195
 30
0.0015258207003583
 11
3378.1499999999928
 21
16.991895911821889
 31
0.0015258207003583
  0
LINE
  5
1C4
  8
0
 10
3371.8499999999922
 20
16.991895911821889
 30
0.0015258207003583
 11
3371.8499999999922
 21
0.1418959115723311
 31
0.0015258207003583
  0
LINE
  5
1C5
  8
0
 10
3371.8499999999922
 20
166.99189591182031
 30
0.0015258207003583
 11
3371.8499999999922
 21
23.29189591182049
 31
0.0015258207003583
  0
LINE
  5
1C6
  8
0
 10
3371.8499999999922
 20
316.99189591182119
 30
0.0015258207003583
 11
3371.8499999999922
 21
173.29189591182109
 31
0.0015258207003583
  0
LINE
  5
1C7
  8
0
 10
3371.849999999994
 20
466.99189591182181
 30
0.0015258207003583
 11
3371.8499999999922
 21
323.29189591182183
 31
0.0015258207003583
  0
LINE
  5
1C8
  8
0
 10
3371.849999999994
 20
616.99189591182039
 30
0.0015258207003583
 11
3371.849999999994
 21
473.29189591182052
 31
0.0015258207003583
  0
LINE
  5
1C9
  8
0
 10
3371.849999999994
 20
766.9918959118213
 30
0.0015258207003583
 11
3371.849999999994
 21
623.29189591182126
 31
0.0015258207003583
  0
LINE
  5
1CA
  8
0
 10
3371.849999999994
 20
916.99189591182198
 30
0.0015258207003583
 11
3371.849999999994
 21
773.29189591182194
 31
0.0015258207003583
  0
LINE
  5
1CB
  8
0
 10
3371.849999999994
 20
1066.991895911822
 30
0.0015258207003583
 11
3371.849999999994
 21
923.2918959118208
 31
0.0015258207003583
  0
LINE
  5
1CC
  8
0
 10
3371.849999999994
 20
1216.9918959118211
 30
0.0015258207003583
 11
3371.849999999994
 21
1073.291895911821
 31
0.0015258207003583
  0
LINE
  5
1CD
  8
0
 10
3371.849999999994
 20
1366.991895911822
 30
0.0015258207003583
 11
3371.849999999994
 21
1223.291895911821
 31
0.0015258207003583
  0
LINE
  5
1CE
  8
0
 10
3371.849999999994
 20
1516.9918959118199
 30
0.0015258207003583
 11
3371.849999999994
 21
1373.2918959118219
 31
0.0015258207003583
  0
LINE
  5
1CF
  8
0
 10
3371.849999999994
 20
1666.9918959118211
 30
0.0015258207003583
 11
3371.849999999994
 21
1523.291895911821
 31
0.0015258207003583
  0
LINE
  5
1D0
  8
0
 10
3371.8499999999949
 20
1816.9918959118211
 30
0.0015258207003583
 11
3371.849999999994
 21
1673.291895911821
 31
0.0015258207003583
  0
LINE
  5
1D1
  8
0
 10
3371.8499999999949
 20
1966.991895911822
 30
0.0015258207003583
 11
3371.8499999999949
 21
1823.2918959118219
 31
0.0015258207003583
  0
LINE
  5
1D2
  8
0
 10
3371.8499999999958
 20
1990.141895911572
 30
0.0015258207003583
 11
3371.8499999999949
 21
1973.2918959118199
 31
0.0015258207003583
  0
LINE
  5
1D3
  8
0
 10
3228.149999999996
 20
1973.291895911819
 30
0.0015258207003583
 11
3228.149999999996
 21
1990.141895911584
 31
0.0015258207003583
  0
LINE
  5
1D4
  8
0
 10
3228.149999999996
 20
1823.291895911821
 30
0.0015258207003583
 11
3228.149999999996
 21
1966.9918959118211
 31
0.0015258207003583
  0
LINE
  5
1D5
  8
0
 10
3228.1499999999951
 20
1673.2918959118199
 30
0.0015258207003583
 11
3228.149999999996
 21
1816.9918959118199
 31
0.0015258207003583
  0
LINE
  5
1D6
  8
0
 10
3228.1499999999951
 20
1523.2918959118199
 30
0.0015258207003583
 11
3228.1499999999951
 21
1666.9918959118199
 31
0.0015258207003583
  0
LINE
  5
1D7
  8
0
 10
3228.1499999999951
 20
1373.2918959118219
 30
0.0015258207003583
 11
3228.1499999999951
 21
1516.991895911819
 31
0.0015258207003583
  0
LINE
  5
1D8
  8
0
 10
3228.1499999999942
 20
1223.291895911821
 30
0.0015258207003583
 11
3228.1499999999951
 21
1366.9918959118211
 31
0.0015258207003583
  0
LINE
  5
1D9
  8
0
 10
3228.1499999999942
 20
1073.291895911821
 30
0.0015258207003583
 11
3228.1499999999942
 21
1216.9918959118199
 31
0.0015258207003583
  0
LINE
  5
1DA
  8
0
 10
3228.1499999999942
 20
923.29189591182046
 30
0.0015258207003583
 11
3228.1499999999942
 21
1066.991895911822
 31
0.0015258207003583
  0
LINE
  5
1DB
  8
0
 10
3228.1499999999942
 20
773.29189591182205
 30
0.0015258207003583
 11
3228.1499999999942
 21
916.99189591182176
 31
0.0015258207003583
  0
LINE
  5
1DC
  8
0
 10
3228.1499999999942
 20
623.29189591182137
 30
0.0015258207003583
 11
3228.1499999999942
 21
766.99189591182119
 31
0.0015258207003583
  0
LINE
  5
1DD
  8
0
 10
3228.1499999999942
 20
473.29189591182092
 30
0.0015258207003583
 11
3228.1499999999942
 21
616.99189591182073
 31
0.0015258207003583
  0
LINE
  5
1DE
  8
0
 10
3228.1499999999928
 20
323.29189591182262
 30
0.0015258207003583
 11
3228.1499999999942
 21
466.99189591182233
 31
0.0015258207003583
  0
LINE
  5
1DF
  8
0
 10
3228.1499999999919
 20
173.291895911822
 30
0.0015258207003583
 11
3228.1499999999928
 21
316.99189591182193
 31
0.0015258207003583
  0
LINE
  5
1E0
  8
0
 10
3228.1499999999919
 20
23.291895911821541
 30
0.0015258207003583
 11
3228.1499999999919
 21
166.9918959118213
 31
0.0015258207003583
  0
LINE
  5
1E1
  8
0
 10
3228.1499999999919
 20
0.1418959115842402
 30
0.0015258207003583
 11
3228.1499999999919
 21
16.991895911822969
 31
0.0015258207003583
  0
LINE
  5
1E2
  8
0
 10
3221.8499999999922
 20
16.991895911823001
 30
0.0015258207003583
 11
3221.8499999999922
 21
0.1418959115842518
 31
0.0015258207003583
  0
LINE
  5
1E3
  8
0
 10
3221.849999999994
 20
166.9918959118215
 30
0.0015258207003583
 11
3221.8499999999922
 21
23.291895911821602
 31
0.0015258207003583
  0
LINE
  5
1E4
  8
0
 10
3221.849999999994
 20
316.99189591182198
 30
0.0015258207003583
 11
3221.849999999994
 21
173.29189591182211
 31
0.0015258207003583
  0
LINE
  5
1E5
  8
0
 10
3221.849999999994
 20
466.99189591182272
 30
0.0015258207003583
 11
3221.849999999994
 21
323.29189591182279
 31
0.0015258207003583
  0
LINE
  5
1E6
  8
0
 10
3221.849999999994
 20
616.99189591182085
 30
0.0015258207003583
 11
3221.849999999994
 21
473.29189591182109
 31
0.0015258207003583
  0
LINE
  5
1E7
  8
0
 10
3221.849999999994
 20
766.99189591182153
 30
0.0015258207003583
 11
3221.849999999994
 21
623.29189591182171
 31
0.0015258207003583
  0
LINE
  5
1E8
  8
0
 10
3221.849999999994
 20
916.99189591182176
 30
0.0015258207003583
 11
3221.849999999994
 21
773.29189591182205
 31
0.0015258207003583
  0
LINE
  5
1E9
  8
0
 10
3221.849999999994
 20
1066.991895911822
 30
0.0015258207003583
 11
3221.849999999994
 21
923.29189591182057
 31
0.0015258207003583
  0
LINE
  5
1EA
  8
0
 10
3221.8499999999949
 20
1216.9918959118211
 30
0.0015258207003583
 11
3221.849999999994
 21
1073.291895911821
 31
0.0015258207003583
  0
LINE
  5
1EB
  8
0
 10
3221.8499999999949
 20
1366.9918959118211
 30
0.0015258207003583
 11
3221.8499999999949
 21
1223.291895911821
 31
0.0015258207003583
  0
LINE
  5
1EC
  8
0
 10
3221.8499999999949
 20
1516.9918959118199
 30
0.0015258207003583
 11
3221.8499999999949
 21
1373.2918959118219
 31
0.0015258207003583
  0
LINE
  5
1ED
  8
0
 10
3221.8499999999949
 20
1666.9918959118199
 30
0.0015258207003583
 11
3221.8499999999949
 21
1523.2918959118199
 31
0.0015258207003583
  0
LINE
  5
1EE
  8
0
 10
3221.8499999999958
 20
1816.9918959118199
 30
0.0015258207003583
 11
3221.8499999999949
 21
1673.291895911821
 31
0.0015258207003583
  0
LINE
  5
1EF
  8
0
 10
3221.8499999999958
 20
1966.9918959118211
 30
0.0015258207003583
 11
3221.8499999999958
 21
1823.291895911821
 31
0.0015258207003583
  0
LINE
  5
1F0
  8
0
 10
3221.8499999999958
 20
1990.141895911584
 30
0.0015258207003583
 11
3221.8499999999958
 21
1973.2918959118199
 31
0.0015258207003583
  0
LINE
  5
1F1
  8
0
 10
3078.1499999999969
 20
1973.2918959118199
 30
0.0015258207003583
 11
3078.1499999999969
 21
1990.1418959115961
 31
0.0015258207003583
  0
LINE
  5
1F2
  8
0
 10
3078.149999999996
 20
1823.2918959118219
 30
0.0015258207003583
 11
3078.1499999999969
 21
1966.991895911822
 31
0.0015258207003583
  0
LINE
  5
1F3
  8
0
 10
3078.149999999996
 20
1673.291895911821
 30
0.0015258207003583
 11
3078.149999999996
 21
1816.9918959118211
 31
0.0015258207003583
  0
LINE
  5
1F4
  8
0
 10
3078.149999999996
 20
1523.291895911821
 30
0.0015258207003583
 11
3078.149999999996
 21
1666.9918959118199
 31
0.0015258207003583
  0
LINE
  5
1F5
  8
0
 10
3078.149999999996
 20
1373.2918959118219
 30
0.0015258207003583
 11
3078.149999999996
 21
1516.9918959118199
 31
0.0015258207003583
  0
LINE
  5
1F6
  8
0
 10
3078.1499999999951
 20
1223.291895911821
 30
0.0015258207003583
 11
3078.149999999996
 21
1366.9918959118211
 31
0.0015258207003583
  0
LINE
  5
1F7
  8
0
 10
3078.1499999999951
 20
1073.291895911821
 30
0.0015258207003583
 11
3078.1499999999951
 21
1216.9918959118211
 31
0.0015258207003583
  0
LINE
  5
1F8
  8
0
 10
3078.1499999999951
 20
923.29189591182046
 30
0.0015258207003583
 11
3078.1499999999951
 21
1066.991895911822
 31
0.0015258207003583
  0
LINE
  5
1F9
  8
0
 10
3078.1499999999951
 20
773.29189591182194
 30
0.0015258207003583
 11
3078.1499999999951
 21
916.99189591182176
 31
0.0015258207003583
  0
LINE
  5
1FA
  8
0
 10
3078.1499999999942
 20
623.29189591182103
 30
0.0015258207003583
 11
3078.1499999999951
 21
766.99189591182096
 31
0.0015258207003583
  0
LINE
  5
1FB
  8
0
 10
3078.1499999999942
 20
473.29189591182052
 30
0.0015258207003583
 11
3078.1499999999942
 21
616.99189591182039
 31
0.0015258207003583
  0
LINE
  5
1FC
  8
0
 10
3078.1499999999942
 20
323.29189591182188
 30
0.0015258207003583
 11
3078.1499999999942
 21
466.99189591182181
 31
0.0015258207003583
  0
LINE
  5
1FD
  8
0
 10
3078.1499999999942
 20
173.29189591182109
 30
0.0015258207003583
 11
3078.1499999999942
 21
316.99189591182108
 31
0.0015258207003583
  0
LINE
  5
1FE
  8
0
 10
3078.1499999999942
 20
23.291895911820479
 30
0.0015258207003583
 11
3078.1499999999942
 21
166.99189591182039
 31
0.0015258207003583
  0
LINE
  5
1FF
  8
0
 10
3078.1499999999942
 20
0.141895911596161
 30
0.0015258207003583
 11
3078.1499999999942
 21
16.99189591182191
 31
0.0015258207003583
  0
LINE
  5
200
  8
0
 10
3071.8499999999931
 20
16.991895911821871
 30
0.0015258207003583
 11
3071.8499999999931
 21
0.1418959115961726
 31
0.0015258207003583
  0
LINE
  5
201
  8
0
 10
3071.8499999999931
 20
166.99189591182051
 30
0.0015258207003583
 11
3071.8499999999931
 21
23.291895911820468
 31
0.0015258207003583
  0
LINE
  5
202
  8
0
 10
3071.8499999999931
 20
316.99189591182142
 30
0.0015258207003583
 11
3071.8499999999931
 21
173.29189591182109
 31
0.0015258207003583
  0
LINE
  5
203
  8
0
 10
3071.8499999999931
 20
466.99189591182193
 30
0.0015258207003583
 11
3071.8499999999931
 21
323.29189591182211
 31
0.0015258207003583
  0
LINE
  5
204
  8
0
 10
3071.8499999999931
 20
616.99189591182039
 30
0.0015258207003583
 11
3071.8499999999931
 21
473.29189591182052
 31
0.0015258207003583
  0
LINE
  5
205
  8
0
 10
3071.849999999994
 20
766.99189591182142
 30
0.0015258207003583
 11
3071.849999999994
 21
623.29189591182126
 31
0.0015258207003583
  0
LINE
  5
206
  8
0
 10
3071.849999999994
 20
916.99189591182198
 30
0.0015258207003583
 11
3071.849999999994
 21
773.29189591182205
 31
0.0015258207003583
  0
LINE
  5
207
  8
0
 10
3071.849999999994
 20
1066.991895911822
 30
0.0015258207003583
 11
3071.849999999994
 21
923.29189591182057
 31
0.0015258207003583
  0
LINE
  5
208
  8
0
 10
3071.849999999994
 20
1216.9918959118211
 30
0.0015258207003583
 11
3071.849999999994
 21
1073.291895911821
 31
0.0015258207003583
  0
LINE
  5
209
  8
0
 10
3071.8499999999949
 20
1366.991895911822
 30
0.0015258207003583
 11
3071.849999999994
 21
1223.291895911821
 31
0.0015258207003583
  0
LINE
  5
20A
  8
0
 10
3071.8499999999949
 20
1516.9918959118199
 30
0.0015258207003583
 11
3071.8499999999949
 21
1373.2918959118219
 31
0.0015258207003583
  0
LINE
  5
20B
  8
0
 10
3071.8499999999949
 20
1666.9918959118211
 30
0.0015258207003583
 11
3071.8499999999949
 21
1523.291895911821
 31
0.0015258207003583
  0
LINE
  5
20C
  8
0
 10
3071.8499999999958
 20
1816.9918959118211
 30
0.0015258207003583
 11
3071.8499999999949
 21
1673.291895911821
 31
0.0015258207003583
  0
LINE
  5
20D
  8
0
 10
3071.8499999999958
 20
1966.991895911822
 30
0.0015258207003583
 11
3071.8499999999958
 21
1823.2918959118219
 31
0.0015258207003583
  0
LINE
  5
20E
  8
0
 10
3071.8499999999972
 20
1990.1418959115961
 30
0.0015258207003583
 11
3071.8499999999958
 21
1973.2918959118199
 31
0.0015258207003583
  0
LINE
  5
20F
  8
0
 10
2928.1499999999969
 20
1973.2918959118199
 30
0.0015258207003583
 11
2928.1499999999969
 21
1990.1418959116061
 31
0.0015258207003583
  0
LINE
  5
210
  8
0
 10
2928.1499999999969
 20
1823.2918959118219
 30
0.0015258207003583
 11
2928.1499999999969
 21
1966.991895911822
 31
0.0015258207003583
  0
LINE
  5
211
  8
0
 10
2928.1499999999969
 20
1673.291895911821
 30
0.0015258207003583
 11
2928.1499999999969
 21
1816.9918959118211
 31
0.0015258207003583
  0
LINE
  5
212
  8
0
 10
2928.149999999996
 20
1523.291895911821
 30
0.0015258207003583
 11
2928.1499999999969
 21
1666.9918959118199
 31
0.0015258207003583
  0
LINE
  5
213
  8
0
 10
2928.149999999996
 20
1373.2918959118219
 30
0.0015258207003583
 11
2928.149999999996
 21
1516.9918959118199
 31
0.0015258207003583
  0
LINE
  5
214
  8
0
 10
2928.149999999996
 20
1223.291895911821
 30
0.0015258207003583
 11
2928.149999999996
 21
1366.9918959118211
 31
0.0015258207003583
  0
LINE
  5
215
  8
0
 10
2928.149999999996
 20
1073.2918959118199
 30
0.0015258207003583
 11
2928.149999999996
 21
1216.9918959118199
 31
0.0015258207003583
  0
LINE
  5
216
  8
0
 10
2928.1499999999951
 20
923.29189591181989
 30
0.0015258207003583
 11
2928.149999999996
 21
1066.991895911822
 31
0.0015258207003583
  0
LINE
  5
217
  8
0
 10
2928.1499999999951
 20
773.2918959118216
 30
0.0015258207003583
 11
2928.1499999999951
 21
916.99189591182153
 31
0.0015258207003583
  0
LINE
  5
218
  8
0
 10
2928.1499999999951
 20
623.29189591182092
 30
0.0015258207003583
 11
2928.1499999999951
 21
766.99189591182085
 31
0.0015258207003583
  0
LINE
  5
219
  8
0
 10
2928.1499999999951
 20
473.2918959118204
 30
0.0015258207003583
 11
2928.1499999999951
 21
616.99189591182039
 31
0.0015258207003583
  0
LINE
  5
21A
  8
0
 10
2928.1499999999942
 20
323.29189591182188
 30
0.0015258207003583
 11
2928.1499999999951
 21
466.9918959118217
 31
0.0015258207003583
  0
LINE
  5
21B
  8
0
 10
2928.1499999999942
 20
173.29189591182109
 30
0.0015258207003583
 11
2928.1499999999942
 21
316.99189591182108
 31
0.0015258207003583
  0
LINE
  5
21C
  8
0
 10
2928.1499999999928
 20
23.2918959118205
 30
0.0015258207003583
 11
2928.1499999999942
 21
166.99189591182039
 31
0.0015258207003583
  0
LINE
  5
21D
  8
0
 10
2928.1499999999928
 20
0.1418959116069989
 30
0.0015258207003583
 11
2928.1499999999928
 21
16.991895911821921
 31
0.0015258207003583
  0
LINE
  5
21E
  8
0
 10
2921.8499999999931
 20
16.991895911821871
 30
0.0015258207003583
 11
2921.8499999999931
 21
0.1418959116070104
 31
0.0015258207003583
  0
LINE
  5
21F
  8
0
 10
2921.849999999994
 20
166.99189591182039
 30
0.0015258207003583
 11
2921.849999999994
 21
23.291895911820468
 31
0.0015258207003583
  0
LINE
  5
220
  8
0
 10
2921.849999999994
 20
316.99189591182102
 30
0.0015258207003583
 11
2921.849999999994
 21
173.291895911821
 31
0.0015258207003583
  0
LINE
  5
221
  8
0
 10
2921.8499999999949
 20
466.99189591182147
 30
0.0015258207003583
 11
2921.849999999994
 21
323.29189591182183
 31
0.0015258207003583
  0
LINE
  5
222
  8
0
 10
2921.8499999999949
 20
616.99189591181994
 30
0.0015258207003583
 11
2921.8499999999949
 21
473.29189591182012
 31
0.0015258207003583
  0
LINE
  5
223
  8
0
 10
2921.8499999999949
 20
766.99189591182085
 30
0.0015258207003583
 11
2921.8499999999949
 21
623.2918959118208
 31
0.0015258207003583
  0
LINE
  5
224
  8
0
 10
2921.8499999999949
 20
916.99189591182153
 30
0.0015258207003583
 11
2921.8499999999949
 21
773.29189591182137
 31
0.0015258207003583
  0
LINE
  5
225
  8
0
 10
2921.8499999999958
 20
1066.991895911822
 30
0.0015258207003583
 11
2921.8499999999949
 21
923.29189591182012
 31
0.0015258207003583
  0
LINE
  5
226
  8
0
 10
2921.8499999999958
 20
1216.9918959118199
 30
0.0015258207003583
 11
2921.8499999999958
 21
1073.291895911821
 31
0.0015258207003583
  0
LINE
  5
227
  8
0
 10
2921.8499999999972
 20
1366.9918959118211
 30
0.0015258207003583
 11
2921.8499999999958
 21
1223.291895911821
 31
0.0015258207003583
  0
LINE
  5
228
  8
0
 10
2921.8499999999972
 20
1516.9918959118199
 30
0.0015258207003583
 11
2921.8499999999972
 21
1373.2918959118219
 31
0.0015258207003583
  0
LINE
  5
229
  8
0
 10
2921.8499999999972
 20
1666.9918959118199
 30
0.0015258207003583
 11
2921.8499999999972
 21
1523.291895911821
 31
0.0015258207003583
  0
LINE
  5
22A
  8
0
 10
2921.8499999999972
 20
1816.9918959118211
 30
0.0015258207003583
 11
2921.8499999999972
 21
1673.291895911821
 31
0.0015258207003583
  0
LINE
  5
22B
  8
0
 10
2921.8499999999972
 20
1966.991895911822
 30
0.0015258207003583
 11
2921.8499999999972
 21
1823.2918959118219
 31
0.0015258207003583
  0
LINE
  5
22C
  8
0
 10
2921.8499999999972
 20
1990.1418959116061
 30
0.0015258207003583
 11
2921.8499999999972
 21
1973.2918959118199
 31
0.0015258207003583
  0
LINE
  5
22D
  8
0
 10
2778.1499999999978
 20
1973.2918959118199
 30
0.0015258207003583
 11
2778.1499999999978
 21
1990.141895911619
 31
0.0015258207003583
  0
LINE
  5
22E
  8
0
 10
2778.1499999999969
 20
1823.291895911821
 30
0.0015258207003583
 11
2778.1499999999978
 21
1966.9918959118211
 31
0.0015258207003583
  0
LINE
  5
22F
  8
0
 10
2778.1499999999969
 20
1673.291895911821
 30
0.0015258207003583
 11
2778.1499999999969
 21
1816.9918959118211
 31
0.0015258207003583
  0
LINE
  5
230
  8
0
 10
2778.1499999999969
 20
1523.2918959118199
 30
0.0015258207003583
 11
2778.1499999999969
 21
1666.9918959118199
 31
0.0015258207003583
  0
LINE
  5
231
  8
0
 10
2778.1499999999969
 20
1373.2918959118219
 30
0.0015258207003583
 11
2778.1499999999969
 21
1516.9918959118199
 31
0.0015258207003583
  0
LINE
  5
232
  8
0
 10
2778.149999999996
 20
1223.291895911821
 30
0.0015258207003583
 11
2778.1499999999969
 21
1366.9918959118211
 31
0.0015258207003583
  0
LINE
  5
233
  8
0
 10
2778.149999999996
 20
1073.291895911821
 30
0.0015258207003583
 11
2778.149999999996
 21
1216.9918959118211
 31
0.0015258207003583
  0
LINE
  5
234
  8
0
 10
2778.1499999999951
 20
923.29189591182035
 30
0.0015258207003583
 11
2778.149999999996
 21
1066.991895911822
 31
0.0015258207003583
  0
LINE
  5
235
  8
0
 10
2778.1499999999951
 20
773.29189591182194
 30
0.0015258207003583
 11
2778.1499999999951
 21
916.99189591182176
 31
0.0015258207003583
  0
LINE
  5
236
  8
0
 10
2778.1499999999951
 20
623.29189591182126
 30
0.0015258207003583
 11
2778.1499999999951
 21
766.99189591182119
 31
0.0015258207003583
  0
LINE
  5
237
  8
0
 10
2778.1499999999942
 20
473.29189591182069
 30
0.0015258207003583
 11
2778.1499999999951
 21
616.99189591182062
 31
0.0015258207003583
  0
LINE
  5
238
  8
0
 10
2778.1499999999942
 20
323.29189591182262
 30
0.0015258207003583
 11
2778.1499999999942
 21
466.99189591182233
 31
0.0015258207003583
  0
LINE
  5
239
  8
0
 10
2778.1499999999942
 20
173.291895911822
 30
0.0015258207003583
 11
2778.1499999999942
 21
316.99189591182181
 31
0.0015258207003583
  0
LINE
  5
23A
  8
0
 10
2778.1499999999942
 20
23.291895911821559
 30
0.0015258207003583
 11
2778.1499999999942
 21
166.9918959118213
 31
0.0015258207003583
  0
LINE
  5
23B
  8
0
 10
2778.1499999999942
 20
0.1418959116189196
 30
0.0015258207003583
 11
2778.1499999999942
 21
16.99189591182299
 31
0.0015258207003583
  0
LINE
  5
23C
  8
0
 10
2771.849999999994
 20
16.991895911822979
 30
0.0015258207003583
 11
2771.849999999994
 21
0.1418959116189311
 31
0.0015258207003583
  0
LINE
  5
23D
  8
0
 10
2771.849999999994
 20
166.9918959118215
 30
0.0015258207003583
 11
2771.849999999994
 21
23.29189591182158
 31
0.0015258207003583
  0
LINE
  5
23E
  8
0
 10
2771.849999999994
 20
316.99189591182198
 30
0.0015258207003583
 11
2771.849999999994
 21
173.29189591182211
 31
0.0015258207003583
  0
LINE
  5
23F
  8
0
 10
2771.8499999999949
 20
466.9918959118225
 30
0.0015258207003583
 11
2771.8499999999949
 21
323.29189591182268
 31
0.0015258207003583
  0
LINE
  5
240
  8
0
 10
2771.8499999999949
 20
616.99189591182085
 30
0.0015258207003583
 11
2771.8499999999949
 21
473.2918959118212
 31
0.0015258207003583
  0
LINE
  5
241
  8
0
 10
2771.8499999999949
 20
766.99189591182153
 30
0.0015258207003583
 11
2771.8499999999949
 21
623.29189591182171
 31
0.0015258207003583
  0
LINE
  5
242
  8
0
 10
2771.8499999999949
 20
916.99189591182198
 30
0.0015258207003583
 11
2771.8499999999949
 21
773.29189591182217
 31
0.0015258207003583
  0
LINE
  5
243
  8
0
 10
2771.8499999999958
 20
1066.991895911822
 30
0.0015258207003583
 11
2771.8499999999949
 21
923.29189591182057
 31
0.0015258207003583
  0
LINE
  5
244
  8
0
 10
2771.8499999999958
 20
1216.9918959118211
 30
0.0015258207003583
 11
2771.8499999999958
 21
1073.291895911821
 31
0.0015258207003583
  0
LINE
  5
245
  8
0
 10
2771.8499999999972
 20
1366.9918959118211
 30
0.0015258207003583
 11
2771.8499999999958
 21
1223.291895911821
 31
0.0015258207003583
  0
LINE
  5
246
  8
0
 10
2771.8499999999972
 20
1516.9918959118199
 30
0.0015258207003583
 11
2771.8499999999972
 21
1373.2918959118219
 31
0.0015258207003583
  0
LINE
  5
247
  8
0
 10
2771.8499999999972
 20
1666.9918959118199
 30
0.0015258207003583
 11
2771.8499999999972
 21
1523.2918959118199
 31
0.0015258207003583
  0
LINE
  5
248
  8
0
 10
2771.8499999999972
 20
1816.9918959118211
 30
0.0015258207003583
 11
2771.8499999999972
 21
1673.291895911821
 31
0.0015258207003583
  0
LINE
  5
249
  8
0
 10
2771.8499999999981
 20
1966.9918959118211
 30
0.0015258207003583
 11
2771.8499999999972
 21
1823.291895911821
 31
0.0015258207003583
  0
LINE
  5
24A
  8
0
 10
2771.8499999999981
 20
1990.141895911619
 30
0.0015258207003583
 11
2771.8499999999981
 21
1973.2918959118199
 31
0.0015258207003583
  0
LINE
  5
24B
  8
0
 10
2628.1499999999978
 20
1973.291895911821
 30
0.0015258207003583
 11
2628.1499999999978
 21
1990.1418959116299
 31
0.0015258207003583
  0
LINE
  5
24C
  8
0
 10
2628.1499999999969
 20
1823.2918959118219
 30
0.0015258207003583
 11
2628.1499999999978
 21
1966.991895911822
 31
0.0015258207003583
  0
LINE
  5
24D
  8
0
 10
2628.1499999999969
 20
1673.291895911821
 30
0.0015258207003583
 11
2628.1499999999969
 21
1816.991895911822
 31
0.0015258207003583
  0
LINE
  5
24E
  8
0
 10
2628.1499999999969
 20
1523.291895911821
 30
0.0015258207003583
 11
2628.1499999999969
 21
1666.9918959118211
 31
0.0015258207003583
  0
LINE
  5
24F
  8
0
 10
2628.149999999996
 20
1373.2918959118219
 30
0.0015258207003583
 11
2628.1499999999969
 21
1516.9918959118199
 31
0.0015258207003583
  0
LINE
  5
250
  8
0
 10
2628.149999999996
 20
1223.291895911821
 30
0.0015258207003583
 11
2628.149999999996
 21
1366.9918959118211
 31
0.0015258207003583
  0
LINE
  5
251
  8
0
 10
2628.149999999996
 20
1073.291895911821
 30
0.0015258207003583
 11
2628.149999999996
 21
1216.9918959118211
 31
0.0015258207003583
  0
LINE
  5
252
  8
0
 10
2628.149999999996
 20
923.29189591181989
 30
0.0015258207003583
 11
2628.149999999996
 21
1066.991895911822
 31
0.0015258207003583
  0
LINE
  5
253
  8
0
 10
2628.1499999999951
 20
773.2918959118216
 30
0.0015258207003583
 11
2628.149999999996
 21
916.99189591182153
 31
0.0015258207003583
  0
LINE
  5
254
  8
0
 10
2628.1499999999951
 20
623.29189591182092
 30
0.0015258207003583
 11
2628.1499999999951
 21
766.99189591182085
 31
0.0015258207003583
  0
LINE
  5
255
  8
0
 10
2628.1499999999951
 20
473.2918959118204
 30
0.0015258207003583
 11
2628.1499999999951
 21
616.99189591182005
 31
0.0015258207003583
  0
LINE
  5
256
  8
0
 10
2628.1499999999951
 20
323.29189591182188
 30
0.0015258207003583
 11
2628.1499999999951
 21
466.99189591182181
 31
0.0015258207003583
  0
LINE
  5
257
  8
0
 10
2628.1499999999951
 20
173.29189591182109
 30
0.0015258207003583
 11
2628.1499999999951
 21
316.99189591182108
 31
0.0015258207003583
  0
LINE
  5
258
  8
0
 10
2628.1499999999951
 20
23.291895911820522
 30
0.0015258207003583
 11
2628.1499999999951
 21
166.99189591182039
 31
0.0015258207003583
  0
LINE
  5
259
  8
0
 10
2628.1499999999951
 20
0.1418959116308403
 30
0.0015258207003583
 11
2628.1499999999951
 21
16.991895911821938
 31
0.0015258207003583
  0
LINE
  5
25A
  8
0
 10
2621.8499999999949
 20
16.99189591182185
 30
0.0015258207003583
 11
2621.8499999999949
 21
0.1418959116308518
 31
0.0015258207003583
  0
LINE
  5
25B
  8
0
 10
2621.8499999999949
 20
166.99189591182051
 30
0.0015258207003583
 11
2621.8499999999949
 21
23.29189591182045
 31
0.0015258207003583
  0
LINE
  5
25C
  8
0
 10
2621.8499999999949
 20
316.99189591182108
 30
0.0015258207003583
 11
2621.8499999999949
 21
173.29189591182131
 31
0.0015258207003583
  0
LINE
  5
25D
  8
0
 10
2621.8499999999949
 20
466.99189591182147
 30
0.0015258207003583
 11
2621.8499999999949
 21
323.29189591182188
 31
0.0015258207003583
  0
LINE
  5
25E
  8
0
 10
2621.8499999999949
 20
616.99189591182005
 30
0.0015258207003583
 11
2621.8499999999949
 21
473.29189591182012
 31
0.0015258207003583
  0
LINE
  5
25F
  8
0
 10
2621.8499999999958
 20
766.99189591182085
 30
0.0015258207003583
 11
2621.8499999999949
 21
623.2918959118208
 31
0.0015258207003583
  0
LINE
  5
260
  8
0
 10
2621.8499999999958
 20
916.99189591182153
 30
0.0015258207003583
 11
2621.8499999999958
 21
773.29189591182171
 31
0.0015258207003583
  0
LINE
  5
261
  8
0
 10
2621.8499999999972
 20
1066.991895911822
 30
0.0015258207003583
 11
2621.8499999999958
 21
923.29189591182035
 31
0.0015258207003583
  0
LINE
  5
262
  8
0
 10
2621.8499999999972
 20
1216.9918959118211
 30
0.0015258207003583
 11
2621.8499999999972
 21
1073.291895911821
 31
0.0015258207003583
  0
LINE
  5
263
  8
0
 10
2621.8499999999972
 20
1366.9918959118211
 30
0.0015258207003583
 11
2621.8499999999972
 21
1223.291895911821
 31
0.0015258207003583
  0
LINE
  5
264
  8
0
 10
2621.8499999999981
 20
1516.9918959118199
 30
0.0015258207003583
 11
2621.8499999999972
 21
1373.2918959118219
 31
0.0015258207003583
  0
LINE
  5
265
  8
0
 10
2621.8499999999981
 20
1666.9918959118199
 30
0.0015258207003583
 11
2621.8499999999981
 21
1523.2918959118199
 31
0.0015258207003583
  0
LINE
  5
266
  8
0
 10
2621.8499999999981
 20
1816.9918959118211
 30
0.0015258207003583
 11
2621.8499999999981
 21
1673.291895911821
 31
0.0015258207003583
  0
LINE
  5
267
  8
0
 10
2621.8499999999981
 20
1966.991895911822
 30
0.0015258207003583
 11
2621.8499999999981
 21
1823.2918959118219
 31
0.0015258207003583
  0
LINE
  5
268
  8
0
 10
2621.8499999999981
 20
1990.1418959116299
 30
0.0015258207003583
 11
2621.8499999999981
 21
1973.291895911821
 31
0.0015258207003583
  0
LINE
  5
269
  8
0
 10
2478.1499999999992
 20
1973.2918959118199
 30
0.0015258207003583
 11
2478.1499999999992
 21
1990.141895911642
 31
0.0015258207003583
  0
LINE
  5
26A
  8
0
 10
2478.1499999999978
 20
1823.291895911821
 30
0.0015258207003583
 11
2478.1499999999992
 21
1966.9918959118211
 31
0.0015258207003583
  0
LINE
  5
26B
  8
0
 10
2478.1499999999978
 20
1673.291895911821
 30
0.0015258207003583
 11
2478.1499999999978
 21
1816.9918959118211
 31
0.0015258207003583
  0
LINE
  5
26C
  8
0
 10
2478.1499999999978
 20
1523.291895911821
 30
0.0015258207003583
 11
2478.1499999999978
 21
1666.9918959118199
 31
0.0015258207003583
  0
LINE
  5
26D
  8
0
 10
2478.1499999999978
 20
1373.2918959118219
 30
0.0015258207003583
 11
2478.1499999999978
 21
1516.9918959118199
 31
0.0015258207003583
  0
LINE
  5
26E
  8
0
 10
2478.1499999999978
 20
1223.291895911821
 30
0.0015258207003583
 11
2478.1499999999978
 21
1366.9918959118211
 31
0.0015258207003583
  0
LINE
  5
26F
  8
0
 10
2478.1499999999969
 20
1073.291895911821
 30
0.0015258207003583
 11
2478.1499999999969
 21
1216.9918959118211
 31
0.0015258207003583
  0
LINE
  5
270
  8
0
 10
2478.149999999996
 20
923.29189591182057
 30
0.0015258207003583
 11
2478.1499999999969
 21
1066.991895911822
 31
0.0015258207003583
  0
LINE
  5
271
  8
0
 10
2478.149999999996
 20
773.29189591182205
 30
0.0015258207003583
 11
2478.149999999996
 21
916.99189591182198
 31
0.0015258207003583
  0
LINE
  5
272
  8
0
 10
2478.149999999996
 20
623.29189591182148
 30
0.0015258207003583
 11
2478.149999999996
 21
766.99189591182142
 31
0.0015258207003583
  0
LINE
  5
273
  8
0
 10
2478.149999999996
 20
473.29189591182092
 30
0.0015258207003583
 11
2478.149999999996
 21
616.99189591182073
 31
0.0015258207003583
  0
LINE
  5
274
  8
0
 10
2478.149999999996
 20
323.29189591182262
 30
0.0015258207003583
 11
2478.149999999996
 21
466.99189591182233
 31
0.0015258207003583
  0
LINE
  5
275
  8
0
 10
2478.1499999999951
 20
173.29189591182211
 30
0.0015258207003583
 11
2478.149999999996
 21
316.99189591182193
 31
0.0015258207003583
  0
LINE
  5
276
  8
0
 10
2478.1499999999951
 20
23.29189591182158
 30
0.0015258207003583
 11
2478.1499999999951
 21
166.99189591182139
 31
0.0015258207003583
  0
LINE
  5
277
  8
0
 10
2478.1499999999951
 20
0.141895911642761
 30
0.0015258207003583
 11
2478.1499999999951
 21
16.991895911823011
 31
0.0015258207003583
  0
LINE
  5
278
  8
0
 10
2471.8499999999949
 20
16.991895911822951
 30
0.0015258207003583
 11
2471.8499999999949
 21
0.1418959116427726
 31
0.0015258207003583
  0
LINE
  5
279
  8
0
 10
2471.8499999999949
 20
166.9918959118213
 30
0.0015258207003583
 11
2471.8499999999949
 21
23.291895911821548
 31
0.0015258207003583
  0
LINE
  5
27A
  8
0
 10
2471.8499999999958
 20
316.99189591182159
 30
0.0015258207003583
 11
2471.8499999999949
 21
173.29189591182211
 31
0.0015258207003583
  0
LINE
  5
27B
  8
0
 10
2471.8499999999958
 20
466.99189591182221
 30
0.0015258207003583
 11
2471.8499999999958
 21
323.29189591182239
 31
0.0015258207003583
  0
LINE
  5
27C
  8
0
 10
2471.8499999999972
 20
616.99189591182062
 30
0.0015258207003583
 11
2471.8499999999958
 21
473.29189591182069
 31
0.0015258207003583
  0
LINE
  5
27D
  8
0
 10
2471.8499999999972
 20
766.99189591182096
 30
0.0015258207003583
 11
2471.8499999999972
 21
623.29189591182126
 31
0.0015258207003583
  0
LINE
  5
27E
  8
0
 10
2471.8499999999972
 20
916.99189591182176
 30
0.0015258207003583
 11
2471.8499999999972
 21
773.29189591182194
 31
0.0015258207003583
  0
LINE
  5
27F
  8
0
 10
2471.8499999999981
 20
1066.991895911822
 30
0.0015258207003583
 11
2471.8499999999972
 21
923.29189591182012
 31
0.0015258207003583
  0
LINE
  5
280
  8
0
 10
2471.8499999999981
 20
1216.9918959118199
 30
0.0015258207003583
 11
2471.8499999999972
 21
1073.291895911821
 31
0.0015258207003583
  0
LINE
  5
281
  8
0
 10
2471.8499999999981
 20
1366.9918959118211
 30
0.0015258207003583
 11
2471.8499999999981
 21
1223.291895911821
 31
0.0015258207003583
  0
LINE
  5
282
  8
0
 10
2471.8499999999981
 20
1516.991895911819
 30
0.0015258207003583
 11
2471.8499999999981
 21
1373.2918959118219
 31
0.0015258207003583
  0
LINE
  5
283
  8
0
 10
2471.8499999999981
 20
1666.9918959118199
 30
0.0015258207003583
 11
2471.8499999999981
 21
1523.2918959118199
 31
0.0015258207003583
  0
LINE
  5
284
  8
0
 10
2471.8499999999981
 20
1816.9918959118199
 30
0.0015258207003583
 11
2471.8499999999981
 21
1673.291895911821
 31
0.0015258207003583
  0
LINE
  5
285
  8
0
 10
2471.8499999999981
 20
1966.9918959118211
 30
0.0015258207003583
 11
2471.8499999999981
 21
1823.291895911821
 31
0.0015258207003583
  0
LINE
  5
286
  8
0
 10
2471.8499999999981
 20
1990.141895911642
 30
0.0015258207003583
 11
2471.8499999999981
 21
1973.2918959118199
 31
0.0015258207003583
  0
LINE
  5
287
  8
0
 10
2328.1499999999992
 20
1973.2918959118199
 30
0.0015258207003583
 11
2328.1499999999992
 21
1990.1418959116529
 31
0.0015258207003583
  0
LINE
  5
288
  8
0
 10
2328.1499999999992
 20
1823.291895911821
 30
0.0015258207003583
 11
2328.1499999999992
 21
1966.9918959118211
 31
0.0015258207003583
  0
LINE
  5
289
  8
0
 10
2328.1499999999992
 20
1673.291895911821
 30
0.0015258207003583
 11
2328.1499999999992
 21
1816.9918959118199
 31
0.0015258207003583
  0
LINE
  5
28A
  8
0
 10
2328.1499999999992
 20
1523.2918959118199
 30
0.0015258207003583
 11
2328.1499999999992
 21
1666.9918959118199
 31
0.0015258207003583
  0
LINE
  5
28B
  8
0
 10
2328.1499999999992
 20
1373.2918959118219
 30
0.0015258207003583
 11
2328.1499999999992
 21
1516.991895911819
 31
0.0015258207003583
  0
LINE
  5
28C
  8
0
 10
2328.1499999999992
 20
1223.291895911821
 30
0.0015258207003583
 11
2328.1499999999992
 21
1366.9918959118211
 31
0.0015258207003583
  0
LINE
  5
28D
  8
0
 10
2328.1499999999992
 20
1073.291895911821
 30
0.0015258207003583
 11
2328.1499999999992
 21
1216.9918959118211
 31
0.0015258207003583
  0
LINE
  5
28E
  8
0
 10
2328.1499999999992
 20
923.29189591182035
 30
0.0015258207003583
 11
2328.1499999999992
 21
1066.991895911822
 31
0.0015258207003583
  0
LINE
  5
28F
  8
0
 10
2328.1499999999978
 20
773.29189591182194
 30
0.0015258207003583
 11
2328.1499999999992
 21
916.99189591182176
 31
0.0015258207003583
  0
LINE
  5
290
  8
0
 10
2328.1499999999969
 20
623.29189591182137
 30
0.0015258207003583
 11
2328.1499999999969
 21
766.99189591182119
 31
0.0015258207003583
  0
LINE
  5
291
  8
0
 10
2328.1499999999969
 20
473.29189591182092
 30
0.0015258207003583
 11
2328.1499999999969
 21
616.99189591182062
 31
0.0015258207003583
  0
LINE
  5
292
  8
0
 10
2328.1499999999969
 20
323.29189591182262
 30
0.0015258207003583
 11
2328.1499999999969
 21
466.99189591182238
 31
0.0015258207003583
  0
LINE
  5
293
  8
0
 10
2328.149999999996
 20
173.29189591182211
 30
0.0015258207003583
 11
2328.1499999999969
 21
316.99189591182193
 31
0.0015258207003583
  0
LINE
  5
294
  8
0
 10
2328.1499999999951
 20
23.291895911821591
 30
0.0015258207003583
 11
2328.149999999996
 21
166.99189591182139
 31
0.0015258207003583
  0
LINE
  5
295
  8
0
 10
2328.1499999999951
 20
0.1418959116535988
 30
0.0015258207003583
 11
2328.1499999999951
 21
16.991895911823018
 31
0.0015258207003583
  0
LINE
  5
296
  8
0
 10
2321.8499999999949
 20
16.991895911822969
 30
0.0015258207003583
 11
2321.8499999999949
 21
0.1418959116536105
 31
0.0015258207003583
  0
LINE
  5
297
  8
0
 10
2321.8499999999958
 20
166.99189591182139
 30
0.0015258207003583
 11
2321.8499999999949
 21
23.291895911821559
 31
0.0015258207003583
  0
LINE
  5
298
  8
0
 10
2321.8499999999958
 20
316.99189591182193
 30
0.0015258207003583
 11
2321.8499999999958
 21
173.29189591182219
 31
0.0015258207003583
  0
LINE
  5
299
  8
0
 10
2321.8499999999972
 20
466.99189591182261
 30
0.0015258207003583
 11
2321.8499999999958
 21
323.29189591182268
 31
0.0015258207003583
  0
LINE
  5
29A
  8
0
 10
2321.8499999999972
 20
616.99189591182119
 30
0.0015258207003583
 11
2321.8499999999972
 21
473.29189591182131
 31
0.0015258207003583
  0
LINE
  5
29B
  8
0
 10
2321.8499999999972
 20
766.99189591182153
 30
0.0015258207003583
 11
2321.8499999999972
 21
623.29189591182171
 31
0.0015258207003583
  0
LINE
  5
29C
  8
0
 10
2321.8499999999981
 20
916.99189591182198
 30
0.0015258207003583
 11
2321.8499999999972
 21
773.29189591182217
 31
0.0015258207003583
  0
LINE
  5
29D
  8
0
 10
2321.8499999999981
 20
1066.991895911822
 30
0.0015258207003583
 11
2321.8499999999981
 21
923.29189591182046
 31
0.0015258207003583
  0
LINE
  5
29E
  8
0
 10
2321.8499999999981
 20
1216.9918959118211
 30
0.0015258207003583
 11
2321.8499999999981
 21
1073.291895911821
 31
0.0015258207003583
  0
LINE
  5
29F
  8
0
 10
2321.849999999999
 20
1366.9918959118211
 30
0.0015258207003583
 11
2321.8499999999981
 21
1223.291895911821
 31
0.0015258207003583
  0
LINE
  5
2A0
  8
0
 10
2321.849999999999
 20
1516.9918959118199
 30
0.0015258207003583
 11
2321.849999999999
 21
1373.2918959118219
 31
0.0015258207003583
  0
LINE
  5
2A1
  8
0
 10
2321.849999999999
 20
1666.9918959118199
 30
0.0015258207003583
 11
2321.849999999999
 21
1523.2918959118199
 31
0.0015258207003583
  0
LINE
  5
2A2
  8
0
 10
2321.849999999999
 20
1816.9918959118199
 30
0.0015258207003583
 11
2321.849999999999
 21
1673.291895911821
 31
0.0015258207003583
  0
LINE
  5
2A3
  8
0
 10
2321.849999999999
 20
1966.9918959118211
 30
0.0015258207003583
 11
2321.849999999999
 21
1823.291895911821
 31
0.0015258207003583
  0
LINE
  5
2A4
  8
0
 10
2321.849999999999
 20
1990.1418959116529
 30
0.0015258207003583
 11
2321.849999999999
 21
1973.2918959118199
 31
0.0015258207003583
  0
LINE
  5
2A5
  8
0
 10
2178.1499999999992
 20
1973.291895911821
 30
0.0015258207003583
 11
2178.1499999999992
 21
1990.141895911665
 31
0.0015258207003583
  0
LINE
  5
2A6
  8
0
 10
2178.1499999999992
 20
1823.2918959118219
 30
0.0015258207003583
 11
2178.1499999999992
 21
1966.991895911822
 31
0.0015258207003583
  0
LINE
  5
2A7
  8
0
 10
2178.1499999999978
 20
1673.291895911821
 30
0.0015258207003583
 11
2178.1499999999992
 21
1816.991895911822
 31
0.0015258207003583
  0
LINE
  5
2A8
  8
0
 10
2178.1499999999978
 20
1523.291895911821
 30
0.0015258207003583
 11
2178.1499999999978
 21
1666.9918959118211
 31
0.0015258207003583
  0
LINE
  5
2A9
  8
0
 10
2178.1499999999978
 20
1373.2918959118219
 30
0.0015258207003583
 11
2178.1499999999978
 21
1516.9918959118199
 31
0.0015258207003583
  0
LINE
  5
2AA
  8
0
 10
2178.1499999999978
 20
1223.2918959118219
 30
0.0015258207003583
 11
2178.1499999999978
 21
1366.991895911822
 31
0.0015258207003583
  0
LINE
  5
2AB
  8
0
 10
2178.1499999999969
 20
1073.291895911821
 30
0.0015258207003583
 11
2178.1499999999978
 21
1216.9918959118211
 31
0.0015258207003583
  0
LINE
  5
2AC
  8
0
 10
2178.1499999999969
 20
923.29189591182046
 30
0.0015258207003583
 11
2178.1499999999969
 21
1066.991895911822
 31
0.0015258207003583
  0
LINE
  5
2AD
  8
0
 10
2178.149999999996
 20
773.29189591182171
 30
0.0015258207003583
 11
2178.1499999999969
 21
916.99189591182176
 31
0.0015258207003583
  0
LINE
  5
2AE
  8
0
 10
2178.149999999996
 20
623.29189591182103
 30
0.0015258207003583
 11
2178.149999999996
 21
766.99189591182096
 31
0.0015258207003583
  0
LINE
  5
2AF
  8
0
 10
2178.149999999996
 20
473.29189591182029
 30
0.0015258207003583
 11
2178.149999999996
 21
616.99189591182039
 31
0.0015258207003583
  0
LINE
  5
2B0
  8
0
 10
2178.149999999996
 20
323.291895911822
 30
0.0015258207003583
 11
2178.149999999996
 21
466.99189591182181
 31
0.0015258207003583
  0
LINE
  5
2B1
  8
0
 10
2178.149999999996
 20
173.29189591182109
 30
0.0015258207003583
 11
2178.149999999996
 21
316.99189591182119
 31
0.0015258207003583
  0
LINE
  5
2B2
  8
0
 10
2178.149999999996
 20
23.291895911820539
 30
0.0015258207003583
 11
2178.149999999996
 21
166.99189591182039
 31
0.0015258207003583
  0
LINE
  5
2B3
  8
0
 10
2178.149999999996
 20
0.1418959116655196
 30
0.0015258207003583
 11
2178.149999999996
 21
16.99189591182197
 31
0.0015258207003583
  0
LINE
  5
2B4
  8
0
 10
2171.8499999999958
 20
16.99189591182208
 30
0.0015258207003583
 11
2171.8499999999958
 21
0.1418959116655312
 31
0.0015258207003583
  0
LINE
  5
2B5
  8
0
 10
2171.8499999999958
 20
166.99189591182051
 30
0.0015258207003583
 11
2171.8499999999958
 21
23.291895911820461
 31
0.0015258207003583
  0
LINE
  5
2B6
  8
0
 10
2171.8499999999958
 20
316.99189591182108
 30
0.0015258207003583
 11
2171.8499999999958
 21
173.29189591182131
 31
0.0015258207003583
  0
LINE
  5
2B7
  8
0
 10
2171.8499999999958
 20
466.99189591182159
 30
0.0015258207003583
 11
2171.8499999999958
 21
323.29189591182188
 31
0.0015258207003583
  0
LINE
  5
2B8
  8
0
 10
2171.8499999999958
 20
616.99189591182039
 30
0.0015258207003583
 11
2171.8499999999958
 21
473.29189591182029
 31
0.0015258207003583
  0
LINE
  5
2B9
  8
0
 10
2171.8499999999972
 20
766.99189591182119
 30
0.0015258207003583
 11
2171.8499999999958
 21
623.29189591182126
 31
0.0015258207003583
  0
LINE
  5
2BA
  8
0
 10
2171.8499999999972
 20
916.99189591182176
 30
0.0015258207003583
 11
2171.8499999999972
 21
773.29189591182194
 31
0.0015258207003583
  0
LINE
  5
2BB
  8
0
 10
2171.8499999999972
 20
1066.991895911822
 30
0.0015258207003583
 11
2171.8499999999972
 21
923.29189591182035
 31
0.0015258207003583
  0
LINE
  5
2BC
  8
0
 10
2171.8499999999981
 20
1216.9918959118211
 30
0.0015258207003583
 11
2171.8499999999972
 21
1073.291895911821
 31
0.0015258207003583
  0
LINE
  5
2BD
  8
0
 10
2171.8499999999981
 20
1366.991895911822
 30
0.0015258207003583
 11
2171.8499999999981
 21
1223.2918959118219
 31
0.0015258207003583
  0
LINE
  5
2BE
  8
0
 10
2171.849999999999
 20
1516.9918959118199
 30
0.0015258207003583
 11
2171.849999999999
 21
1373.2918959118219
 31
0.0015258207003583
  0
LINE
  5
2BF
  8
0
 10
2171.849999999999
 20
1666.9918959118211
 30
0.0015258207003583
 11
2171.849999999999
 21
1523.291895911821
 31
0.0015258207003583
  0
LINE
  5
2C0
  8
0
 10
2171.849999999999
 20
1816.991895911822
 30
0.0015258207003583
 11
2171.849999999999
 21
1673.291895911821
 31
0.0015258207003583
  0
LINE
  5
2C1
  8
0
 10
2171.849999999999
 20
1966.991895911822
 30
0.0015258207003583
 11
2171.849999999999
 21
1823.2918959118219
 31
0.0015258207003583
  0
LINE
  5
2C2
  8
0
 10
2171.849999999999
 20
1990.141895911665
 30
0.0015258207003583
 11
2171.849999999999
 21
1973.291895911821
 31
0.0015258207003583
  0
LINE
  5
2C3
  8
0
 10
2028.1500000000001
 20
1973.291895911821
 30
0.0015258207003583
 11
2028.1500000000001
 21
1990.1418959116779
 31
0.0015258207003583
  0
LINE
  5
2C4
  8
0
 10
2028.149999999999
 20
1823.2918959118219
 30
0.0015258207003583
 11
2028.1500000000001
 21
1966.991895911822
 31
0.0015258207003583
  0
LINE
  5
2C5
  8
0
 10
2028.149999999999
 20
1673.291895911821
 30
0.0015258207003583
 11
2028.149999999999
 21
1816.9918959118211
 31
0.0015258207003583
  0
LINE
  5
2C6
  8
0
 10
2028.149999999999
 20
1523.291895911821
 30
0.0015258207003583
 11
2028.149999999999
 21
1666.9918959118211
 31
0.0015258207003583
  0
LINE
  5
2C7
  8
0
 10
2028.149999999999
 20
1373.2918959118219
 30
0.0015258207003583
 11
2028.149999999999
 21
1516.9918959118199
 31
0.0015258207003583
  0
LINE
  5
2C8
  8
0
 10
2028.149999999999
 20
1223.291895911821
 30
0.0015258207003583
 11
2028.149999999999
 21
1366.9918959118211
 31
0.0015258207003583
  0
LINE
  5
2C9
  8
0
 10
2028.149999999998
 20
1073.291895911821
 30
0.0015258207003583
 11
2028.149999999999
 21
1216.9918959118211
 31
0.0015258207003583
  0
LINE
  5
2CA
  8
0
 10
2028.149999999998
 20
923.29189591182035
 30
0.0015258207003583
 11
2028.149999999998
 21
1066.991895911822
 31
0.0015258207003583
  0
LINE
  5
2CB
  8
0
 10
2028.1499999999969
 20
773.29189591182171
 30
0.0015258207003583
 11
2028.149999999998
 21
916.99189591182176
 31
0.0015258207003583
  0
LINE
  5
2CC
  8
0
 10
2028.1499999999969
 20
623.29189591182092
 30
0.0015258207003583
 11
2028.1499999999969
 21
766.99189591182085
 31
0.0015258207003583
  0
LINE
  5
2CD
  8
0
 10
2028.149999999996
 20
473.29189591182052
 30
0.0015258207003583
 11
2028.149999999996
 21
616.99189591182039
 31
0.0015258207003583
  0
LINE
  5
2CE
  8
0
 10
2028.149999999996
 20
323.291895911822
 30
0.0015258207003583
 11
2028.149999999996
 21
466.99189591182181
 31
0.0015258207003583
  0
LINE
  5
2CF
  8
0
 10
2028.149999999996
 20
173.2918959118212
 30
0.0015258207003583
 11
2028.149999999996
 21
316.99189591182119
 31
0.0015258207003583
  0
LINE
  5
2D0
  8
0
 10
2028.149999999996
 20
23.29189591182055
 30
0.0015258207003583
 11
2028.149999999996
 21
166.99189591182051
 31
0.0015258207003583
  0
LINE
  5
2D1
  8
0
 10
2028.149999999996
 20
0.1418959116785232
 30
0.0015258207003583
 11
2028.149999999996
 21
16.991895911821981
 31
0.0015258207003583
  0
LINE
  5
2D2
  8
0
 10
2021.849999999997
 20
16.991895911822031
 30
0.0015258207003583
 11
2021.849999999997
 21
0.1418959116785348
 31
0.0015258207003583
  0
LINE
  5
2D3
  8
0
 10
2021.849999999997
 20
166.99189591182039
 30
0.0015258207003583
 11
2021.849999999997
 21
23.291895911820621
 31
0.0015258207003583
  0
LINE
  5
2D4
  8
0
 10
2021.8499999999981
 20
316.99189591182108
 30
0.0015258207003583
 11
2021.849999999997
 21
173.2918959118212
 31
0.0015258207003583
  0
LINE
  5
2D5
  8
0
 10
2021.8499999999981
 20
466.99189591182181
 30
0.0015258207003583
 11
2021.8499999999981
 21
323.29189591182183
 31
0.0015258207003583
  0
LINE
  5
2D6
  8
0
 10
2021.8499999999981
 20
616.99189591182005
 30
0.0015258207003583
 11
2021.8499999999981
 21
473.29189591182018
 31
0.0015258207003583
  0
LINE
  5
2D7
  8
0
 10
2021.8499999999981
 20
766.99189591182096
 30
0.0015258207003583
 11
2021.8499999999981
 21
623.29189591182103
 31
0.0015258207003583
  0
LINE
  5
2D8
  8
0
 10
2021.8499999999981
 20
916.99189591182176
 30
0.0015258207003583
 11
2021.8499999999981
 21
773.29189591182194
 31
0.0015258207003583
  0
LINE
  5
2D9
  8
0
 10
2021.8499999999981
 20
1066.991895911822
 30
0.0015258207003583
 11
2021.8499999999981
 21
923.29189591182035
 31
0.0015258207003583
  0
LINE
  5
2DA
  8
0
 10
2021.8499999999981
 20
1216.9918959118211
 30
0.0015258207003583
 11
2021.8499999999981
 21
1073.291895911821
 31
0.0015258207003583
  0
LINE
  5
2DB
  8
0
 10
2021.849999999999
 20
1366.991895911822
 30
0.0015258207003583
 11
2021.8499999999981
 21
1223.291895911821
 31
0.0015258207003583
  0
LINE
  5
2DC
  8
0
 10
2021.849999999999
 20
1516.9918959118199
 30
0.0015258207003583
 11
2021.849999999999
 21
1373.2918959118219
 31
0.0015258207003583
  0
LINE
  5
2DD
  8
0
 10
2021.8499999999999
 20
1666.9918959118199
 30
0.0015258207003583
 11
2021.849999999999
 21
1523.2918959118199
 31
0.0015258207003583
  0
LINE
  5
2DE
  8
0
 10
2021.8499999999999
 20
1816.9918959118211
 30
0.0015258207003583
 11
2021.8499999999999
 21
1673.291895911821
 31
0.0015258207003583
  0
LINE
  5
2DF
  8
0
 10
2021.8499999999999
 20
1966.991895911822
 30
0.0015258207003583
 11
2021.8499999999999
 21
1823.2918959118219
 31
0.0015258207003583
  0
LINE
  5
2E0
  8
0
 10
2021.8499999999999
 20
1990.1418959116779
 30
0.0015258207003583
 11
2021.8499999999999
 21
1973.291895911821
 31
0.0015258207003583
  0
LINE
  5
2E1
  8
0
 10
1878.1500000000001
 20
1973.291895911819
 30
0.0015258207003583
 11
1878.1500000000001
 21
1990.14189591169
 31
0.0015258207003583
  0
LINE
  5
2E2
  8
0
 10
1878.1500000000001
 20
1823.291895911821
 30
0.0015258207003583
 11
1878.1500000000001
 21
1966.9918959118211
 31
0.0015258207003583
  0
LINE
  5
2E3
  8
0
 10
1878.149999999999
 20
1673.2918959118199
 30
0.0015258207003583
 11
1878.1500000000001
 21
1816.9918959118199
 31
0.0015258207003583
  0
LINE
  5
2E4
  8
0
 10
1878.149999999999
 20
1523.2918959118199
 30
0.0015258207003583
 11
1878.149999999999
 21
1666.9918959118199
 31
0.0015258207003583
  0
LINE
  5
2E5
  8
0
 10
1878.149999999999
 20
1373.2918959118219
 30
0.0015258207003583
 11
1878.149999999999
 21
1516.991895911819
 31
0.0015258207003583
  0
LINE
  5
2E6
  8
0
 10
1878.149999999999
 20
1223.291895911821
 30
0.0015258207003583
 11
1878.149999999999
 21
1366.9918959118211
 31
0.0015258207003583
  0
LINE
  5
2E7
  8
0
 10
1878.149999999999
 20
1073.291895911821
 30
0.0015258207003583
 11
1878.149999999999
 21
1216.9918959118199
 31
0.0015258207003583
  0
LINE
  5
2E8
  8
0
 10
1878.149999999998
 20
923.29189591182035
 30
0.0015258207003583
 11
1878.149999999999
 21
1066.991895911822
 31
0.0015258207003583
  0
LINE
  5
2E9
  8
0
 10
1878.149999999998
 20
773.29189591182205
 30
0.0015258207003583
 11
1878.149999999998
 21
916.99189591182176
 31
0.0015258207003583
  0
LINE
  5
2EA
  8
0
 10
1878.149999999998
 20
623.29189591182137
 30
0.0015258207003583
 11
1878.149999999998
 21
766.9918959118213
 31
0.0015258207003583
  0
LINE
  5
2EB
  8
0
 10
1878.149999999998
 20
473.29189591182092
 30
0.0015258207003583
 11
1878.149999999998
 21
616.99189591182073
 31
0.0015258207003583
  0
LINE
  5
2EC
  8
0
 10
1878.1499999999969
 20
323.29189591182268
 30
0.0015258207003583
 11
1878.149999999998
 21
466.99189591182238
 31
0.0015258207003583
  0
LINE
  5
2ED
  8
0
 10
1878.149999999996
 20
173.29189591182211
 30
0.0015258207003583
 11
1878.149999999996
 21
316.99189591182193
 31
0.0015258207003583
  0
LINE
  5
2EE
  8
0
 10
1878.149999999996
 20
23.291895911821619
 30
0.0015258207003583
 11
1878.149999999996
 21
166.99189591182139
 31
0.0015258207003583
  0
LINE
  5
2EF
  8
0
 10
1878.149999999996
 20
0.1418959116904439
 30
0.0015258207003583
 11
1878.149999999996
 21
16.99189591182305
 31
0.0015258207003583
  0
LINE
  5
2F0
  8
0
 10
1871.849999999997
 20
16.991895911823129
 30
0.0015258207003583
 11
1871.849999999997
 21
0.1418959116904555
 31
0.0015258207003583
  0
LINE
  5
2F1
  8
0
 10
1871.849999999997
 20
166.9918959118213
 30
0.0015258207003583
 11
1871.849999999997
 21
23.291895911821729
 31
0.0015258207003583
  0
LINE
  5
2F2
  8
0
 10
1871.8499999999981
 20
316.99189591182193
 30
0.0015258207003583
 11
1871.849999999997
 21
173.29189591182211
 31
0.0015258207003583
  0
LINE
  5
2F3
  8
0
 10
1871.8499999999981
 20
466.99189591182221
 30
0.0015258207003583
 11
1871.8499999999981
 21
323.29189591182251
 31
0.0015258207003583
  0
LINE
  5
2F4
  8
0
 10
1871.8499999999981
 20
616.99189591182051
 30
0.0015258207003583
 11
1871.8499999999981
 21
473.29189591182069
 31
0.0015258207003583
  0
LINE
  5
2F5
  8
0
 10
1871.8499999999981
 20
766.99189591182085
 30
0.0015258207003583
 11
1871.8499999999981
 21
623.29189591182126
 31
0.0015258207003583
  0
LINE
  5
2F6
  8
0
 10
1871.8499999999981
 20
916.99189591182153
 30
0.0015258207003583
 11
1871.8499999999981
 21
773.29189591182171
 31
0.0015258207003583
  0
LINE
  5
2F7
  8
0
 10
1871.8499999999981
 20
1066.991895911822
 30
0.0015258207003583
 11
1871.8499999999981
 21
923.29189591182035
 31
0.0015258207003583
  0
LINE
  5
2F8
  8
0
 10
1871.8499999999981
 20
1216.9918959118199
 30
0.0015258207003583
 11
1871.8499999999981
 21
1073.291895911821
 31
0.0015258207003583
  0
LINE
  5
2F9
  8
0
 10
1871.849999999999
 20
1366.9918959118211
 30
0.0015258207003583
 11
1871.8499999999981
 21
1223.291895911821
 31
0.0015258207003583
  0
LINE
  5
2FA
  8
0
 10
1871.8499999999999
 20
1516.991895911819
 30
0.0015258207003583
 11
1871.849999999999
 21
1373.291895911821
 31
0.0015258207003583
  0
LINE
  5
2FB
  8
0
 10
1871.8499999999999
 20
1666.9918959118199
 30
0.0015258207003583
 11
1871.849999999999
 21
1523.2918959118199
 31
0.0015258207003583
  0
LINE
  5
2FC
  8
0
 10
1871.8499999999999
 20
1816.9918959118199
 30
0.0015258207003583
 11
1871.8499999999999
 21
1673.2918959118199
 31
0.0015258207003583
  0
LINE
  5
2FD
  8
0
 10
1871.8499999999999
 20
1966.9918959118211
 30
0.0015258207003583
 11
1871.8499999999999
 21
1823.291895911821
 31
0.0015258207003583
  0
LINE
  5
2FE
  8
0
 10
1871.8499999999999
 20
1990.14189591169
 30
0.0015258207003583
 11
1871.8499999999999
 21
1973.2918959118199
 31
0.0015258207003583
  0
LINE
  5
2FF
  8
0
 10
1728.150000000001
 20
1973.2918959118219
 30
0.0015258207003583
 11
1728.150000000001
 21
1990.1418959117
 31
0.0015258207003583
  0
LINE
  5
300
  8
0
 10
1728.150000000001
 20
1823.291895911824
 30
0.0015258207003583
 11
1728.150000000001
 21
1966.991895911824
 31
0.0015258207003583
  0
LINE
  5
301
  8
0
 10
1728.150000000001
 20
1673.2918959118231
 30
0.0015258207003583
 11
1728.150000000001
 21
1816.9918959118229
 31
0.0015258207003583
  0
LINE
  5
302
  8
0
 10
1728.1500000000001
 20
1523.2918959118231
 30
0.0015258207003583
 11
1728.1500000000001
 21
1666.9918959118229
 31
0.0015258207003583
  0
LINE
  5
303
  8
0
 10
1728.149999999999
 20
1373.291895911824
 30
0.0015258207003583
 11
1728.1500000000001
 21
1516.991895911822
 31
0.0015258207003583
  0
LINE
  5
304
  8
0
 10
1728.149999999998
 20
1223.291895911824
 30
0.0015258207003583
 11
1728.149999999999
 21
1366.991895911824
 31
0.0015258207003583
  0
LINE
  5
305
  8
0
 10
1728.149999999998
 20
1073.2918959118231
 30
0.0015258207003583
 11
1728.149999999998
 21
1216.9918959118229
 31
0.0015258207003583
  0
LINE
  5
306
  8
0
 10
1728.149999999998
 20
923.29189591182239
 30
0.0015258207003583
 11
1728.149999999998
 21
1066.991895911824
 31
0.0015258207003583
  0
LINE
  5
307
  8
0
 10
1728.149999999998
 20
773.29189591182387
 30
0.0015258207003583
 11
1728.149999999998
 21
916.99189591182392
 31
0.0015258207003583
  0
LINE
  5
308
  8
0
 10
1728.149999999998
 20
623.2918959118233
 30
0.0015258207003583
 11
1728.149999999998
 21
766.99189591182335
 31
0.0015258207003583
  0
LINE
  5
309
  8
0
 10
1728.149999999998
 20
473.29189591182268
 30
0.0015258207003583
 11
1728.149999999998
 21
616.99189591182255
 31
0.0015258207003583
  0
LINE
  5
30A
  8
0
 10
1728.149999999998
 20
323.2918959118241
 30
0.0015258207003583
 11
1728.149999999998
 21
466.99189591182397
 31
0.0015258207003583
  0
LINE
  5
30B
  8
0
 10
1728.149999999998
 20
173.29189591182339
 30
0.0015258207003583
 11
1728.149999999998
 21
316.99189591182341
 31
0.0015258207003583
  0
LINE
  5
30C
  8
0
 10
1728.149999999998
 20
23.291895911822731
 30
0.0015258207003583
 11
1728.149999999998
 21
166.99189591182261
 31
0.0015258207003583
  0
LINE
  5
30D
  8
0
 10
1728.1499999999969
 20
0.1418959117001989
 30
0.0015258207003583
 11
1728.149999999998
 21
16.991895911824159
 31
0.0015258207003583
  0
LINE
  5
30E
  8
0
 10
1721.8499999999981
 20
16.99189591182428
 30
0.0015258207003583
 11
1721.8499999999981
 21
0.1418959117002104
 31
0.0015258207003583
  0
LINE
  5
30F
  8
0
 10
1721.8499999999981
 20
166.9918959118227
 30
0.0015258207003583
 11
1721.8499999999981
 21
23.29189591182266
 31
0.0015258207003583
  0
LINE
  5
310
  8
0
 10
1721.8499999999981
 20
316.99189591182341
 30
0.0015258207003583
 11
1721.8499999999981
 21
173.2918959118235
 31
0.0015258207003583
  0
LINE
  5
311
  8
0
 10
1721.8499999999981
 20
466.99189591182392
 30
0.0015258207003583
 11
1721.8499999999981
 21
323.2918959118241
 31
0.0015258207003583
  0
LINE
  5
312
  8
0
 10
1721.8499999999981
 20
616.99189591182255
 30
0.0015258207003583
 11
1721.8499999999981
 21
473.29189591182251
 31
0.0015258207003583
  0
LINE
  5
313
  8
0
 10
1721.8499999999981
 20
766.99189591182335
 30
0.0015258207003583
 11
1721.8499999999981
 21
623.29189591182308
 31
0.0015258207003583
  0
LINE
  5
314
  8
0
 10
1721.8499999999981
 20
916.9918959118238
 30
0.0015258207003583
 11
1721.8499999999981
 21
773.29189591182387
 31
0.0015258207003583
  0
LINE
  5
315
  8
0
 10
1721.8499999999981
 20
1066.991895911824
 30
0.0015258207003583
 11
1721.8499999999981
 21
923.29189591182239
 31
0.0015258207003583
  0
LINE
  5
316
  8
0
 10
1721.8499999999999
 20
1216.9918959118229
 30
0.0015258207003583
 11
1721.849999999999
 21
1073.2918959118231
 31
0.0015258207003583
  0
LINE
  5
317
  8
0
 10
1721.8499999999999
 20
1366.9918959118229
 30
0.0015258207003583
 11
1721.8499999999999
 21
1223.2918959118231
 31
0.0015258207003583
  0
LINE
  5
318
  8
0
 10
1721.8499999999999
 20
1516.991895911822
 30
0.0015258207003583
 11
1721.8499999999999
 21
1373.291895911824
 31
0.0015258207003583
  0
LINE
  5
319
  8
0
 10
1721.8499999999999
 20
1666.9918959118229
 30
0.0015258207003583
 11
1721.8499999999999
 21
1523.2918959118231
 31
0.0015258207003583
  0
LINE
  5
31A
  8
0
 10
1721.850000000001
 20
1816.9918959118229
 30
0.0015258207003583
 11
1721.850000000001
 21
1673.2918959118231
 31
0.0015258207003583
  0
LINE
  5
31B
  8
0
 10
1721.850000000001
 20
1966.9918959118249
 30
0.0015258207003583
 11
1721.850000000001
 21
1823.291895911824
 31
0.0015258207003583
  0
LINE
  5
31C
  8
0
 10
1721.850000000001
 20
1990.1418959117
 30
0.0015258207003583
 11
1721.850000000001
 21
1973.2918959118231
 31
0.0015258207003583
  0
LINE
  5
31D
  8
0
 10
1578.150000000001
 20
1973.2918959118199
 30
0.0015258207003583
 11
1578.150000000001
 21
1990.1418959117129
 31
0.0015258207003583
  0
LINE
  5
31E
  8
0
 10
1578.150000000001
 20
1823.2918959118219
 30
0.0015258207003583
 11
1578.150000000001
 21
1966.991895911822
 31
0.0015258207003583
  0
LINE
  5
31F
  8
0
 10
1578.150000000001
 20
1673.291895911821
 30
0.0015258207003583
 11
1578.150000000001
 21
1816.9918959118211
 31
0.0015258207003583
  0
LINE
  5
320
  8
0
 10
1578.150000000001
 20
1523.291895911821
 30
0.0015258207003583
 11
1578.150000000001
 21
1666.9918959118211
 31
0.0015258207003583
  0
LINE
  5
321
  8
0
 10
1578.150000000001
 20
1373.2918959118219
 30
0.0015258207003583
 11
1578.150000000001
 21
1516.9918959118199
 31
0.0015258207003583
  0
LINE
  5
322
  8
0
 10
1578.150000000001
 20
1223.291895911821
 30
0.0015258207003583
 11
1578.150000000001
 21
1366.9918959118211
 31
0.0015258207003583
  0
LINE
  5
323
  8
0
 10
1578.150000000001
 20
1073.291895911821
 30
0.0015258207003583
 11
1578.150000000001
 21
1216.9918959118211
 31
0.0015258207003583
  0
LINE
  5
324
  8
0
 10
1578.149999999999
 20
923.29189591182035
 30
0.0015258207003583
 11
1578.1500000000001
 21
1066.991895911822
 31
0.0015258207003583
  0
LINE
  5
325
  8
0
 10
1578.149999999999
 20
773.29189591182183
 30
0.0015258207003583
 11
1578.149999999999
 21
916.99189591182176
 31
0.0015258207003583
  0
LINE
  5
326
  8
0
 10
1578.149999999999
 20
623.29189591182126
 30
0.0015258207003583
 11
1578.149999999999
 21
766.99189591182119
 31
0.0015258207003583
  0
LINE
  5
327
  8
0
 10
1578.149999999998
 20
473.29189591182052
 30
0.0015258207003583
 11
1578.149999999999
 21
616.99189591182051
 31
0.0015258207003583
  0
LINE
  5
328
  8
0
 10
1578.149999999998
 20
323.29189591182188
 30
0.0015258207003583
 11
1578.149999999998
 21
466.99189591182181
 31
0.0015258207003583
  0
LINE
  5
329
  8
0
 10
1578.149999999998
 20
173.2918959118212
 30
0.0015258207003583
 11
1578.149999999998
 21
316.99189591182119
 31
0.0015258207003583
  0
LINE
  5
32A
  8
0
 10
1578.149999999998
 20
23.291895911820571
 30
0.0015258207003583
 11
1578.149999999998
 21
166.99189591182051
 31
0.0015258207003583
  0
LINE
  5
32B
  8
0
 10
1578.149999999998
 20
0.1418959117132025
 30
0.0015258207003583
 11
1578.149999999998
 21
16.991895911821999
 31
0.0015258207003583
  0
LINE
  5
32C
  8
0
 10
1571.8499999999981
 20
16.991895911822041
 30
0.0015258207003583
 11
1571.8499999999981
 21
0.141895911713214
 31
0.0015258207003583
  0
LINE
  5
32D
  8
0
 10
1571.8499999999981
 20
166.99189591182051
 30
0.0015258207003583
 11
1571.8499999999981
 21
23.291895911820649
 31
0.0015258207003583
  0
LINE
  5
32E
  8
0
 10
1571.8499999999981
 20
316.9918959118213
 30
0.0015258207003583
 11
1571.8499999999981
 21
173.29189591182131
 31
0.0015258207003583
  0
LINE
  5
32F
  8
0
 10
1571.8499999999981
 20
466.99189591182193
 30
0.0015258207003583
 11
1571.8499999999981
 21
323.29189591182188
 31
0.0015258207003583
  0
LINE
  5
330
  8
0
 10
1571.8499999999981
 20
616.99189591182051
 30
0.0015258207003583
 11
1571.8499999999981
 21
473.29189591182052
 31
0.0015258207003583
  0
LINE
  5
331
  8
0
 10
1571.849999999999
 20
766.99189591182085
 30
0.0015258207003583
 11
1571.849999999999
 21
623.29189591182114
 31
0.0015258207003583
  0
LINE
  5
332
  8
0
 10
1571.849999999999
 20
916.99189591182198
 30
0.0015258207003583
 11
1571.849999999999
 21
773.29189591182183
 31
0.0015258207003583
  0
LINE
  5
333
  8
0
 10
1571.849999999999
 20
1066.991895911822
 30
0.0015258207003583
 11
1571.849999999999
 21
923.29189591182035
 31
0.0015258207003583
  0
LINE
  5
334
  8
0
 10
1571.849999999999
 20
1216.9918959118211
 30
0.0015258207003583
 11
1571.849999999999
 21
1073.291895911821
 31
0.0015258207003583
  0
LINE
  5
335
  8
0
 10
1571.849999999999
 20
1366.9918959118211
 30
0.0015258207003583
 11
1571.849999999999
 21
1223.291895911821
 31
0.0015258207003583
  0
LINE
  5
336
  8
0
 10
1571.8499999999999
 20
1516.9918959118199
 30
0.0015258207003583
 11
1571.849999999999
 21
1373.2918959118219
 31
0.0015258207003583
  0
LINE
  5
337
  8
0
 10
1571.850000000001
 20
1666.9918959118211
 30
0.0015258207003583
 11
1571.8499999999999
 21
1523.291895911821
 31
0.0015258207003583
  0
LINE
  5
338
  8
0
 10
1571.850000000001
 20
1816.991895911822
 30
0.0015258207003583
 11
1571.850000000001
 21
1673.291895911821
 31
0.0015258207003583
  0
LINE
  5
339
  8
0
 10
1571.850000000001
 20
1966.991895911822
 30
0.0015258207003583
 11
1571.850000000001
 21
1823.2918959118219
 31
0.0015258207003583
  0
LINE
  5
33A
  8
0
 10
1571.850000000001
 20
1990.1418959117129
 30
0.0015258207003583
 11
1571.850000000001
 21
1973.291895911821
 31
0.0015258207003583
  0
LINE
  5
33B
  8
0
 10
1428.150000000001
 20
1973.291895911819
 30
0.0015258207003583
 11
1428.1500000000019
 21
1990.1418959117241
 31
0.0015258207003583
  0
LINE
  5
33C
  8
0
 10
1428.150000000001
 20
1823.291895911821
 30
0.0015258207003583
 11
1428.1500000000019
 21
1966.9918959118199
 31
0.0015258207003583
  0
LINE
  5
33D
  8
0
 10
1428.150000000001
 20
1673.2918959118199
 30
0.0015258207003583
 11
1428.150000000001
 21
1816.9918959118199
 31
0.0015258207003583
  0
LINE
  5
33E
  8
0
 10
1428.150000000001
 20
1523.2918959118199
 30
0.0015258207003583
 11
1428.150000000001
 21
1666.9918959118199
 31
0.0015258207003583
  0
LINE
  5
33F
  8
0
 10
1428.1500000000001
 20
1373.291895911821
 30
0.0015258207003583
 11
1428.150000000001
 21
1516.991895911819
 31
0.0015258207003583
  0
LINE
  5
340
  8
0
 10
1428.1500000000001
 20
1223.291895911821
 30
0.0015258207003583
 11
1428.1500000000001
 21
1366.9918959118211
 31
0.0015258207003583
  0
LINE
  5
341
  8
0
 10
1428.1500000000001
 20
1073.2918959118199
 30
0.0015258207003583
 11
1428.1500000000001
 21
1216.9918959118199
 31
0.0015258207003583
  0
LINE
  5
342
  8
0
 10
1428.149999999999
 20
923.29189591182012
 30
0.0015258207003583
 11
1428.1500000000001
 21
1066.991895911822
 31
0.0015258207003583
  0
LINE
  5
343
  8
0
 10
1428.149999999998
 20
773.29189591182171
 30
0.0015258207003583
 11
1428.149999999999
 21
916.99189591182153
 31
0.0015258207003583
  0
LINE
  5
344
  8
0
 10
1428.149999999998
 20
623.29189591182114
 30
0.0015258207003583
 11
1428.149999999998
 21
766.99189591182085
 31
0.0015258207003583
  0
LINE
  5
345
  8
0
 10
1428.149999999998
 20
473.29189591182052
 30
0.0015258207003583
 11
1428.149999999998
 21
616.99189591182017
 31
0.0015258207003583
  0
LINE
  5
346
  8
0
 10
1428.149999999999
 20
323.29189591182211
 30
0.0015258207003583
 11
1428.149999999999
 21
466.99189591182193
 31
0.0015258207003583
  0
LINE
  5
347
  8
0
 10
1428.149999999999
 20
173.2918959118216
 30
0.0015258207003583
 11
1428.149999999999
 21
316.99189591182142
 31
0.0015258207003583
  0
LINE
  5
348
  8
0
 10
1428.149999999999
 20
23.291895911821111
 30
0.0015258207003583
 11
1428.1500000000001
 21
166.9918959118209
 31
0.0015258207003583
  0
LINE
  5
349
  8
0
 10
1428.149999999998
 20
0.1418959117245818
 30
0.0015258207003583
 11
1428.149999999998
 21
16.991895911822539
 31
0.0015258207003583
  0
LINE
  5
34A
  8
0
 10
1421.8499999999981
 20
16.991895911822589
 30
0.0015258207003583
 11
1421.8499999999981
 21
0.1418959117245933
 31
0.0015258207003583
  0
LINE
  5
34B
  8
0
 10
1421.849999999999
 20
166.99189591182079
 30
0.0015258207003583
 11
1421.8499999999981
 21
23.291895911821189
 31
0.0015258207003583
  0
LINE
  5
34C
  8
0
 10
1421.8499999999999
 20
316.99189591182147
 30
0.0015258207003583
 11
1421.849999999999
 21
173.2918959118216
 31
0.0015258207003583
  0
LINE
  5
34D
  8
0
 10
1421.8499999999999
 20
466.99189591182193
 30
0.0015258207003583
 11
1421.8499999999999
 21
323.29189591182228
 31
0.0015258207003583
  0
LINE
  5
34E
  8
0
 10
1421.8499999999999
 20
616.99189591182051
 30
0.0015258207003583
 11
1421.8499999999999
 21
473.29189591182052
 31
0.0015258207003583
  0
LINE
  5
34F
  8
0
 10
1421.8499999999999
 20
766.99189591182085
 30
0.0015258207003583
 11
1421.8499999999999
 21
623.29189591182114
 31
0.0015258207003583
  0
LINE
  5
350
  8
0
 10
1421.8499999999999
 20
916.99189591182153
 30
0.0015258207003583
 11
1421.8499999999999
 21
773.2918959118216
 31
0.0015258207003583
  0
LINE
  5
351
  8
0
 10
1421.8499999999999
 20
1066.991895911822
 30
0.0015258207003583
 11
1421.8499999999999
 21
923.29189591181989
 31
0.0015258207003583
  0
LINE
  5
352
  8
0
 10
1421.8499999999999
 20
1216.9918959118199
 30
0.0015258207003583
 11
1421.8499999999999
 21
1073.2918959118199
 31
0.0015258207003583
  0
LINE
  5
353
  8
0
 10
1421.8499999999999
 20
1366.9918959118211
 30
0.0015258207003583
 11
1421.8499999999999
 21
1223.291895911821
 31
0.0015258207003583
  0
LINE
  5
354
  8
0
 10
1421.850000000001
 20
1516.9918959118199
 30
0.0015258207003583
 11
1421.8499999999999
 21
1373.2918959118219
 31
0.0015258207003583
  0
LINE
  5
355
  8
0
 10
1421.850000000001
 20
1666.9918959118199
 30
0.0015258207003583
 11
1421.850000000001
 21
1523.2918959118199
 31
0.0015258207003583
  0
LINE
  5
356
  8
0
 10
1421.850000000001
 20
1816.9918959118199
 30
0.0015258207003583
 11
1421.850000000001
 21
1673.291895911821
 31
0.0015258207003583
  0
LINE
  5
357
  8
0
 10
1421.850000000002
 20
1966.9918959118199
 30
0.0015258207003583
 11
1421.850000000001
 21
1823.291895911821
 31
0.0015258207003583
  0
LINE
  5
358
  8
0
 10
1421.850000000002
 20
1990.1418959117241
 30
0.0015258207003583
 11
1421.850000000002
 21
1973.291895911819
 31
0.0015258207003583
  0
LINE
  5
359
  8
0
 10
1278.1500000000019
 20
1973.2918959118199
 30
0.0015258207003583
 11
1278.1500000000019
 21
1990.1418959117359
 31
0.0015258207003583
  0
LINE
  5
35A
  8
0
 10
1278.1500000000019
 20
1823.291895911821
 30
0.0015258207003583
 11
1278.1500000000019
 21
1966.9918959118211
 31
0.0015258207003583
  0
LINE
  5
35B
  8
0
 10
1278.1500000000019
 20
1673.2918959118199
 30
0.0015258207003583
 11
1278.1500000000019
 21
1816.9918959118199
 31
0.0015258207003583
  0
LINE
  5
35C
  8
0
 10
1278.1500000000019
 20
1523.2918959118199
 30
0.0015258207003583
 11
1278.1500000000019
 21
1666.9918959118199
 31
0.0015258207003583
  0
LINE
  5
35D
  8
0
 10
1278.1500000000019
 20
1373.2918959118219
 30
0.0015258207003583
 11
1278.1500000000019
 21
1516.991895911819
 31
0.0015258207003583
  0
LINE
  5
35E
  8
0
 10
1278.150000000001
 20
1223.291895911821
 30
0.0015258207003583
 11
1278.150000000001
 21
1366.9918959118211
 31
0.0015258207003583
  0
LINE
  5
35F
  8
0
 10
1278.150000000001
 20
1073.2918959118199
 30
0.0015258207003583
 11
1278.150000000001
 21
1216.9918959118199
 31
0.0015258207003583
  0
LINE
  5
360
  8
0
 10
1278.150000000001
 20
923.29189591182035
 30
0.0015258207003583
 11
1278.150000000001
 21
1066.991895911822
 31
0.0015258207003583
  0
LINE
  5
361
  8
0
 10
1278.150000000001
 20
773.29189591182205
 30
0.0015258207003583
 11
1278.150000000001
 21
916.99189591182176
 31
0.0015258207003583
  0
LINE
  5
362
  8
0
 10
1278.150000000001
 20
623.29189591182148
 30
0.0015258207003583
 11
1278.150000000001
 21
766.9918959118213
 31
0.0015258207003583
  0
LINE
  5
363
  8
0
 10
1278.1500000000001
 20
473.29189591182092
 30
0.0015258207003583
 11
1278.1500000000001
 21
616.99189591182073
 31
0.0015258207003583
  0
LINE
  5
364
  8
0
 10
1278.149999999999
 20
323.29189591182262
 30
0.0015258207003583
 11
1278.1500000000001
 21
466.99189591182233
 31
0.0015258207003583
  0
LINE
  5
365
  8
0
 10
1278.149999999999
 20
173.29189591182211
 30
0.0015258207003583
 11
1278.149999999999
 21
316.99189591182193
 31
0.0015258207003583
  0
LINE
  5
366
  8
0
 10
1278.149999999999
 20
23.291895911821651
 30
0.0015258207003583
 11
1278.149999999999
 21
166.99189591182139
 31
0.0015258207003583
  0
LINE
  5
367
  8
0
 10
1278.149999999999
 20
0.141895911735961
 30
0.0015258207003583
 11
1278.149999999999
 21
16.991895911823079
 31
0.0015258207003583
  0
LINE
  5
368
  8
0
 10
1271.849999999999
 20
16.99189591182315
 30
0.0015258207003583
 11
1271.849999999999
 21
0.1418959117359726
 31
0.0015258207003583
  0
LINE
  5
369
  8
0
 10
1271.849999999999
 20
166.99189591182139
 30
0.0015258207003583
 11
1271.849999999999
 21
23.291895911821761
 31
0.0015258207003583
  0
LINE
  5
36A
  8
0
 10
1271.8499999999999
 20
316.99189591182221
 30
0.0015258207003583
 11
1271.8499999999999
 21
173.29189591182219
 31
0.0015258207003583
  0
LINE
  5
36B
  8
0
 10
1271.8499999999999
 20
466.99189591182272
 30
0.0015258207003583
 11
1271.8499999999999
 21
323.29189591182302
 31
0.0015258207003583
  0
LINE
  5
36C
  8
0
 10
1271.8499999999999
 20
616.9918959118213
 30
0.0015258207003583
 11
1271.8499999999999
 21
473.29189591182131
 31
0.0015258207003583
  0
LINE
  5
36D
  8
0
 10
1271.8499999999999
 20
766.99189591182164
 30
0.0015258207003583
 11
1271.8499999999999
 21
623.29189591182194
 31
0.0015258207003583
  0
LINE
  5
36E
  8
0
 10
1271.850000000001
 20
916.99189591182233
 30
0.0015258207003583
 11
1271.8499999999999
 21
773.29189591182228
 31
0.0015258207003583
  0
LINE
  5
36F
  8
0
 10
1271.850000000001
 20
1066.9918959118229
 30
0.0015258207003583
 11
1271.8499999999999
 21
923.2918959118208
 31
0.0015258207003583
  0
LINE
  5
370
  8
0
 10
1271.850000000001
 20
1216.9918959118211
 30
0.0015258207003583
 11
1271.850000000001
 21
1073.291895911821
 31
0.0015258207003583
  0
LINE
  5
371
  8
0
 10
1271.850000000001
 20
1366.9918959118211
 30
0.0015258207003583
 11
1271.850000000001
 21
1223.2918959118219
 31
0.0015258207003583
  0
LINE
  5
372
  8
0
 10
1271.850000000001
 20
1516.9918959118199
 30
0.0015258207003583
 11
1271.850000000001
 21
1373.2918959118219
 31
0.0015258207003583
  0
LINE
  5
373
  8
0
 10
1271.850000000002
 20
1666.9918959118199
 30
0.0015258207003583
 11
1271.850000000001
 21
1523.291895911821
 31
0.0015258207003583
  0
LINE
  5
374
  8
0
 10
1271.850000000002
 20
1816.9918959118199
 30
0.0015258207003583
 11
1271.850000000002
 21
1673.291895911821
 31
0.0015258207003583
  0
LINE
  5
375
  8
0
 10
1271.850000000002
 20
1966.9918959118211
 30
0.0015258207003583
 11
1271.850000000002
 21
1823.291895911821
 31
0.0015258207003583
  0
LINE
  5
376
  8
0
 10
1271.850000000002
 20
1990.1418959117359
 30
0.0015258207003583
 11
1271.850000000002
 21
1973.2918959118199
 31
0.0015258207003583
  0
LINE
  5
377
  8
0
 10
1128.150000000003
 20
1973.2918959118199
 30
0.0015258207003583
 11
1128.150000000003
 21
1990.141895911747
 31
0.0015258207003583
  0
LINE
  5
378
  8
0
 10
1128.1500000000019
 20
1823.2918959118219
 30
0.0015258207003583
 11
1128.150000000003
 21
1966.991895911822
 31
0.0015258207003583
  0
LINE
  5
379
  8
0
 10
1128.1500000000019
 20
1673.291895911821
 30
0.0015258207003583
 11
1128.1500000000019
 21
1816.9918959118211
 31
0.0015258207003583
  0
LINE
  5
37A
  8
0
 10
1128.1500000000019
 20
1523.291895911821
 30
0.0015258207003583
 11
1128.1500000000019
 21
1666.9918959118199
 31
0.0015258207003583
  0
LINE
  5
37B
  8
0
 10
1128.1500000000019
 20
1373.2918959118219
 30
0.0015258207003583
 11
1128.1500000000019
 21
1516.9918959118199
 31
0.0015258207003583
  0
LINE
  5
37C
  8
0
 10
1128.150000000001
 20
1223.2918959118219
 30
0.0015258207003583
 11
1128.1500000000019
 21
1366.991895911822
 31
0.0015258207003583
  0
LINE
  5
37D
  8
0
 10
1128.150000000001
 20
1073.291895911821
 30
0.0015258207003583
 11
1128.150000000001
 21
1216.9918959118211
 31
0.0015258207003583
  0
LINE
  5
37E
  8
0
 10
1128.150000000001
 20
923.29189591182103
 30
0.0015258207003583
 11
1128.150000000001
 21
1066.9918959118229
 31
0.0015258207003583
  0
LINE
  5
37F
  8
0
 10
1128.150000000001
 20
773.29189591182251
 30
0.0015258207003583
 11
1128.150000000001
 21
916.99189591182233
 31
0.0015258207003583
  0
LINE
  5
380
  8
0
 10
1128.1500000000001
 20
623.29189591182194
 30
0.0015258207003583
 11
1128.150000000001
 21
766.99189591182164
 31
0.0015258207003583
  0
LINE
  5
381
  8
0
 10
1128.1500000000001
 20
473.29189591182148
 30
0.0015258207003583
 11
1128.1500000000001
 21
616.99189591182142
 31
0.0015258207003583
  0
LINE
  5
382
  8
0
 10
1128.1500000000001
 20
323.29189591182319
 30
0.0015258207003583
 11
1128.1500000000001
 21
466.99189591182301
 31
0.0015258207003583
  0
LINE
  5
383
  8
0
 10
1128.1500000000001
 20
173.29189591182271
 30
0.0015258207003583
 11
1128.1500000000001
 21
316.99189591182261
 31
0.0015258207003583
  0
LINE
  5
384
  8
0
 10
1128.149999999999
 20
23.291895911822209
 30
0.0015258207003583
 11
1128.1500000000001
 21
166.99189591182201
 31
0.0015258207003583
  0
LINE
  5
385
  8
0
 10
1128.149999999999
 20
0.1418959117473403
 30
0.0015258207003583
 11
1128.149999999999
 21
16.99189591182364
 31
0.0015258207003583
  0
LINE
  5
386
  8
0
 10
1121.849999999999
 20
16.99189591182148
 30
0.0015258207003583
 11
1121.849999999999
 21
0.1418959117473519
 31
0.0015258207003583
  0
LINE
  5
387
  8
0
 10
1121.850000000001
 20
166.9918959118198
 30
0.0015258207003583
 11
1121.849999999999
 21
23.291895911820081
 31
0.0015258207003583
  0
LINE
  5
388
  8
0
 10
1121.850000000001
 20
316.99189591182062
 30
0.0015258207003583
 11
1121.850000000001
 21
173.2918959118206
 31
0.0015258207003583
  0
LINE
  5
389
  8
0
 10
1121.850000000001
 20
466.99189591182119
 30
0.0015258207003583
 11
1121.850000000001
 21
323.29189591182131
 31
0.0015258207003583
  0
LINE
  5
38A
  8
0
 10
1121.850000000001
 20
616.9918959118196
 30
0.0015258207003583
 11
1121.850000000001
 21
473.29189591181978
 31
0.0015258207003583
  0
LINE
  5
38B
  8
0
 10
1121.850000000002
 20
766.99189591182051
 30
0.0015258207003583
 11
1121.850000000001
 21
623.29189591182046
 31
0.0015258207003583
  0
LINE
  5
38C
  8
0
 10
1121.850000000002
 20
916.9918959118213
 30
0.0015258207003583
 11
1121.850000000002
 21
773.29189591182103
 31
0.0015258207003583
  0
LINE
  5
38D
  8
0
 10
1121.850000000002
 20
1066.991895911822
 30
0.0015258207003583
 11
1121.850000000002
 21
923.29189591181989
 31
0.0015258207003583
  0
LINE
  5
38E
  8
0
 10
1121.850000000002
 20
1216.9918959118199
 30
0.0015258207003583
 11
1121.850000000002
 21
1073.2918959118199
 31
0.0015258207003583
  0
LINE
  5
38F
  8
0
 10
1121.850000000001
 20
1366.9918959118211
 30
0.0015258207003583
 11
1121.850000000001
 21
1223.291895911821
 31
0.0015258207003583
  0
LINE
  5
390
  8
0
 10
1121.850000000001
 20
1516.9918959118199
 30
0.0015258207003583
 11
1121.850000000001
 21
1373.2918959118219
 31
0.0015258207003583
  0
LINE
  5
391
  8
0
 10
1121.850000000001
 20
1666.9918959118211
 30
0.0015258207003583
 11
1121.850000000001
 21
1523.291895911821
 31
0.0015258207003583
  0
LINE
  5
392
  8
0
 10
1121.850000000002
 20
1816.9918959118211
 30
0.0015258207003583
 11
1121.850000000001
 21
1673.291895911821
 31
0.0015258207003583
  0
LINE
  5
393
  8
0
 10
1121.850000000002
 20
1966.991895911822
 30
0.0015258207003583
 11
1121.850000000002
 21
1823.2918959118219
 31
0.0015258207003583
  0
LINE
  5
394
  8
0
 10
1121.8500000000031
 20
1990.141895911747
 30
0.0015258207003583
 11
1121.8500000000031
 21
1973.2918959118199
 31
0.0015258207003583
  0
LINE
  5
395
  8
0
 10
978.15000000000362
 20
1973.291895911819
 30
0.0015258207003583
 11
978.15000000000362
 21
1990.1418959117591
 31
0.0015258207003583
  0
LINE
  5
396
  8
0
 10
978.15000000000236
 20
1823.291895911821
 30
0.0015258207003583
 11
978.15000000000327
 21
1966.9918959118199
 31
0.0015258207003583
  0
LINE
  5
397
  8
0
 10
978.1500000000018
 20
1673.2918959118199
 30
0.0015258207003583
 11
978.15000000000236
 21
1816.9918959118199
 31
0.0015258207003583
  0
LINE
  5
398
  8
0
 10
978.15000000000146
 20
1523.291895911819
 30
0.0015258207003583
 11
978.1500000000018
 21
1666.991895911819
 31
0.0015258207003583
  0
LINE
  5
399
  8
0
 10
978.150000000001
 20
1373.291895911821
 30
0.0015258207003583
 11
978.15000000000146
 21
1516.9918959118179
 31
0.0015258207003583
  0
LINE
  5
39A
  8
0
 10
978.150000000001
 20
1223.2918959118199
 30
0.0015258207003583
 11
978.150000000001
 21
1366.9918959118199
 31
0.0015258207003583
  0
LINE
  5
39B
  8
0
 10
978.150000000001
 20
1073.2918959118199
 30
0.0015258207003583
 11
978.150000000001
 21
1216.991895911819
 31
0.0015258207003583
  0
LINE
  5
39C
  8
0
 10
978.15000000000055
 20
923.29189591181955
 30
0.0015258207003583
 11
978.150000000001
 21
1066.9918959118211
 31
0.0015258207003583
  0
LINE
  5
39D
  8
0
 10
978.15000000000055
 20
773.29189591182126
 30
0.0015258207003583
 11
978.150000000001
 21
916.99189591182085
 31
0.0015258207003583
  0
LINE
  5
39E
  8
0
 10
978.14999999999952
 20
623.2918959118208
 30
0.0015258207003583
 11
978.15000000000055
 21
766.99189591182051
 31
0.0015258207003583
  0
LINE
  5
39F
  8
0
 10
978.14999999999952
 20
473.29189591182018
 30
0.0015258207003583
 11
978.14999999999952
 21
616.99189591182005
 31
0.0015258207003583
  0
LINE
  5
3A0
  8
0
 10
978.14999999999952
 20
323.29189591182183
 30
0.0015258207003583
 11
978.14999999999952
 21
466.99189591182147
 31
0.0015258207003583
  0
LINE
  5
3A1
  8
0
 10
978.14999999999952
 20
173.29189591182131
 30
0.0015258207003583
 11
978.14999999999952
 21
316.99189591182108
 31
0.0015258207003583
  0
LINE
  5
3A2
  8
0
 10
978.14999999999952
 20
23.291895911820848
 30
0.0015258207003583
 11
978.14999999999952
 21
166.99189591182059
 31
0.0015258207003583
  0
LINE
  5
3A3
  8
0
 10
978.14999999999952
 20
0.1418959117589904
 30
0.0015258207003583
 11
978.14999999999952
 21
16.99189591182229
 31
0.0015258207003583
  0
LINE
  5
3A4
  8
0
 10
971.85000000000036
 20
16.991895911822319
 30
0.0015258207003583
 11
971.85000000000036
 21
0.1418959117590019
 31
0.0015258207003583
  0
LINE
  5
3A5
  8
0
 10
971.8500000000007
 20
166.99189591182079
 30
0.0015258207003583
 11
971.85000000000036
 21
23.291895911820919
 31
0.0015258207003583
  0
LINE
  5
3A6
  8
0
 10
971.85000000000127
 20
316.99189591182119
 30
0.0015258207003583
 11
971.8500000000007
 21
173.2918959118214
 31
0.0015258207003583
  0
LINE
  5
3A7
  8
0
 10
971.85000000000127
 20
466.99189591182193
 30
0.0015258207003583
 11
971.85000000000127
 21
323.29189591182211
 31
0.0015258207003583
  0
LINE
  5
3A8
  8
0
 10
971.85000000000127
 20
616.99189591182005
 30
0.0015258207003583
 11
971.85000000000127
 21
473.29189591182018
 31
0.0015258207003583
  0
LINE
  5
3A9
  8
0
 10
971.85000000000127
 20
766.99189591182073
 30
0.0015258207003583
 11
971.85000000000127
 21
623.29189591182092
 31
0.0015258207003583
  0
LINE
  5
3AA
  8
0
 10
971.8500000000007
 20
916.9918959118213
 30
0.0015258207003583
 11
971.85000000000127
 21
773.29189591182126
 31
0.0015258207003583
  0
LINE
  5
3AB
  8
0
 10
971.85000000000184
 20
1066.991895911822
 30
0.0015258207003583
 11
971.85000000000127
 21
923.29189591181989
 31
0.0015258207003583
  0
LINE
  5
3AC
  8
0
 10
971.85000000000184
 20
1216.9918959118199
 30
0.0015258207003583
 11
971.85000000000184
 21
1073.2918959118199
 31
0.0015258207003583
  0
LINE
  5
3AD
  8
0
 10
971.85000000000207
 20
1366.9918959118199
 30
0.0015258207003583
 11
971.85000000000184
 21
1223.291895911821
 31
0.0015258207003583
  0
LINE
  5
3AE
  8
0
 10
971.85000000000298
 20
1516.991895911819
 30
0.0015258207003583
 11
971.85000000000298
 21
1373.291895911821
 31
0.0015258207003583
  0
LINE
  5
3AF
  8
0
 10
971.85000000000355
 20
1666.991895911819
 30
0.0015258207003583
 11
971.85000000000298
 21
1523.291895911819
 31
0.0015258207003583
  0
LINE
  5
3B0
  8
0
 10
971.85000000000355
 20
1816.9918959118199
 30
0.0015258207003583
 11
971.85000000000355
 21
1673.2918959118199
 31
0.0015258207003583
  0
LINE
  5
3B1
  8
0
 10
971.85000000000298
 20
1966.9918959118199
 30
0.0015258207003583
 11
971.85000000000298
 21
1823.2918959118199
 31
0.0015258207003583
  0
LINE
  5
3B2
  8
0
 10
971.85000000000355
 20
1990.1418959117591
 30
0.0015258207003583
 11
971.85000000000355
 21
1973.291895911819
 31
0.0015258207003583
  0
LINE
  5
3B3
  8
0
 10
828.15000000000475
 20
1973.291895911819
 30
0.0015258207003583
 11
828.15000000000418
 21
1990.14189591177
 31
0.0015258207003583
  0
LINE
  5
3B4
  8
0
 10
828.15000000000327
 20
1823.291895911821
 30
0.0015258207003583
 11
828.15000000000418
 21
1966.9918959118199
 31
0.0015258207003583
  0
LINE
  5
3B5
  8
0
 10
828.15000000000362
 20
1673.2918959118199
 30
0.0015258207003583
 11
828.15000000000362
 21
1816.9918959118199
 31
0.0015258207003583
  0
LINE
  5
3B6
  8
0
 10
828.15000000000362
 20
1523.2918959118199
 30
0.0015258207003583
 11
828.15000000000362
 21
1666.991895911819
 31
0.0015258207003583
  0
LINE
  5
3B7
  8
0
 10
828.15000000000327
 20
1373.291895911821
 30
0.0015258207003583
 11
828.15000000000362
 21
1516.991895911819
 31
0.0015258207003583
  0
LINE
  5
3B8
  8
0
 10
828.15000000000236
 20
1223.291895911821
 30
0.0015258207003583
 11
828.15000000000327
 21
1366.9918959118211
 31
0.0015258207003583
  0
LINE
  5
3B9
  8
0
 10
828.1500000000018
 20
1073.2918959118199
 30
0.0015258207003583
 11
828.15000000000236
 21
1216.9918959118199
 31
0.0015258207003583
  0
LINE
  5
3BA
  8
0
 10
828.1500000000018
 20
923.29189591181989
 30
0.0015258207003583
 11
828.1500000000018
 21
1066.991895911822
 31
0.0015258207003583
  0
LINE
  5
3BB
  8
0
 10
828.1500000000018
 20
773.29189591182137
 30
0.0015258207003583
 11
828.1500000000018
 21
916.9918959118213
 31
0.0015258207003583
  0
LINE
  5
3BC
  8
0
 10
828.1500000000018
 20
623.29189591182103
 30
0.0015258207003583
 11
828.1500000000018
 21
766.99189591182073
 31
0.0015258207003583
  0
LINE
  5
3BD
  8
0
 10
828.15000000000146
 20
473.29189591182052
 30
0.0015258207003583
 11
828.15000000000146
 21
616.99189591182017
 31
0.0015258207003583
  0
LINE
  5
3BE
  8
0
 10
828.15000000000146
 20
323.29189591182222
 30
0.0015258207003583
 11
828.15000000000146
 21
466.99189591182193
 31
0.0015258207003583
  0
LINE
  5
3BF
  8
0
 10
828.15000000000146
 20
173.2918959118216
 30
0.0015258207003583
 11
828.15000000000146
 21
316.99189591182142
 31
0.0015258207003583
  0
LINE
  5
3C0
  8
0
 10
828.15000000000043
 20
23.29189591182114
 30
0.0015258207003583
 11
828.150000000001
 21
166.9918959118209
 31
0.0015258207003583
  0
LINE
  5
3C1
  8
0
 10
828.15000000000043
 20
0.1418959117700989
 30
0.0015258207003583
 11
828.15000000000043
 21
16.991895911822571
 31
0.0015258207003583
  0
LINE
  5
3C2
  8
0
 10
821.8500000000007
 20
16.991895911822581
 30
0.0015258207003583
 11
821.8500000000007
 21
0.1418959117701105
 31
0.0015258207003583
  0
LINE
  5
3C3
  8
0
 10
821.85000000000036
 20
166.9918959118209
 30
0.0015258207003583
 11
821.8500000000007
 21
23.291895911821172
 31
0.0015258207003583
  0
LINE
  5
3C4
  8
0
 10
821.85000000000036
 20
316.9918959118213
 30
0.0015258207003583
 11
821.8500000000007
 21
173.29189591182151
 31
0.0015258207003583
  0
LINE
  5
3C5
  8
0
 10
821.85000000000036
 20
466.99189591182181
 30
0.0015258207003583
 11
821.85000000000036
 21
323.29189591182211
 31
0.0015258207003583
  0
LINE
  5
3C6
  8
0
 10
821.85000000000127
 20
616.99189591182005
 30
0.0015258207003583
 11
821.8500000000007
 21
473.29189591182018
 31
0.0015258207003583
  0
LINE
  5
3C7
  8
0
 10
821.85000000000161
 20
766.99189591182062
 30
0.0015258207003583
 11
821.85000000000127
 21
623.29189591182092
 31
0.0015258207003583
  0
LINE
  5
3C8
  8
0
 10
821.85000000000161
 20
916.99189591182073
 30
0.0015258207003583
 11
821.85000000000161
 21
773.29189591182114
 31
0.0015258207003583
  0
LINE
  5
3C9
  8
0
 10
821.85000000000161
 20
1066.9918959118211
 30
0.0015258207003583
 11
821.85000000000161
 21
923.29189591181955
 31
0.0015258207003583
  0
LINE
  5
3CA
  8
0
 10
821.85000000000207
 20
1216.991895911819
 30
0.0015258207003583
 11
821.85000000000161
 21
1073.2918959118199
 31
0.0015258207003583
  0
LINE
  5
3CB
  8
0
 10
821.85000000000298
 20
1366.9918959118199
 30
0.0015258207003583
 11
821.85000000000298
 21
1223.2918959118199
 31
0.0015258207003583
  0
LINE
  5
3CC
  8
0
 10
821.85000000000355
 20
1516.9918959118179
 30
0.0015258207003583
 11
821.85000000000298
 21
1373.291895911821
 31
0.0015258207003583
  0
LINE
  5
3CD
  8
0
 10
821.85000000000389
 20
1666.991895911819
 30
0.0015258207003583
 11
821.85000000000355
 21
1523.291895911819
 31
0.0015258207003583
  0
LINE
  5
3CE
  8
0
 10
821.85000000000389
 20
1816.9918959118199
 30
0.0015258207003583
 11
821.85000000000389
 21
1673.2918959118199
 31
0.0015258207003583
  0
LINE
  5
3CF
  8
0
 10
821.85000000000389
 20
1966.9918959118199
 30
0.0015258207003583
 11
821.85000000000389
 21
1823.2918959118199
 31
0.0015258207003583
  0
LINE
  5
3D0
  8
0
 10
821.85000000000389
 20
1990.14189591177
 30
0.0015258207003583
 11
821.85000000000389
 21
1973.291895911819
 31
0.0015258207003583
  0
LINE
  5
3D1
  8
0
 10
678.15000000000464
 20
1973.2918959118199
 30
0.0015258207003583
 11
678.15000000000464
 21
1990.1418959117809
 31
0.0015258207003583
  0
LINE
  5
3D2
  8
0
 10
678.15000000000418
 20
1823.291895911821
 30
0.0015258207003583
 11
678.15000000000464
 21
1966.9918959118211
 31
0.0015258207003583
  0
LINE
  5
3D3
  8
0
 10
678.15000000000418
 20
1673.291895911821
 30
0.0015258207003583
 11
678.15000000000418
 21
1816.9918959118211
 31
0.0015258207003583
  0
LINE
  5
3D4
  8
0
 10
678.15000000000418
 20
1523.291895911821
 30
0.0015258207003583
 11
678.15000000000418
 21
1666.9918959118199
 31
0.0015258207003583
  0
LINE
  5
3D5
  8
0
 10
678.15000000000418
 20
1373.2918959118219
 30
0.0015258207003583
 11
678.15000000000418
 21
1516.9918959118199
 31
0.0015258207003583
  0
LINE
  5
3D6
  8
0
 10
678.15000000000373
 20
1223.291895911821
 30
0.0015258207003583
 11
678.15000000000418
 21
1366.9918959118211
 31
0.0015258207003583
  0
LINE
  5
3D7
  8
0
 10
678.15000000000327
 20
1073.291895911821
 30
0.0015258207003583
 11
678.15000000000373
 21
1216.9918959118211
 31
0.0015258207003583
  0
LINE
  5
3D8
  8
0
 10
678.15000000000225
 20
923.29189591182057
 30
0.0015258207003583
 11
678.15000000000327
 21
1066.991895911822
 31
0.0015258207003583
  0
LINE
  5
3D9
  8
0
 10
678.15000000000225
 20
773.29189591182217
 30
0.0015258207003583
 11
678.15000000000327
 21
916.99189591182198
 31
0.0015258207003583
  0
LINE
  5
3DA
  8
0
 10
678.15000000000225
 20
623.29189591182183
 30
0.0015258207003583
 11
678.15000000000225
 21
766.99189591182153
 31
0.0015258207003583
  0
LINE
  5
3DB
  8
0
 10
678.15000000000225
 20
473.29189591182131
 30
0.0015258207003583
 11
678.15000000000225
 21
616.99189591182085
 31
0.0015258207003583
  0
LINE
  5
3DC
  8
0
 10
678.1500000000018
 20
323.29189591182302
 30
0.0015258207003583
 11
678.15000000000225
 21
466.99189591182272
 31
0.0015258207003583
  0
LINE
  5
3DD
  8
0
 10
678.15000000000146
 20
173.29189591182251
 30
0.0015258207003583
 11
678.1500000000018
 21
316.99189591182221
 31
0.0015258207003583
  0
LINE
  5
3DE
  8
0
 10
678.150000000001
 20
23.29189591182196
 30
0.0015258207003583
 11
678.150000000001
 21
166.9918959118217
 31
0.0015258207003583
  0
LINE
  5
3DF
  8
0
 10
678.150000000001
 20
0.1418959117817489
 30
0.0015258207003583
 11
678.150000000001
 21
16.991895911823391
 31
0.0015258207003583
  0
LINE
  5
3E0
  8
0
 10
671.85000000000127
 20
16.991895911823409
 30
0.0015258207003583
 11
671.85000000000127
 21
0.1418959117817605
 31
0.0015258207003583
  0
LINE
  5
3E1
  8
0
 10
671.85000000000127
 20
166.99189591182181
 30
0.0015258207003583
 11
671.85000000000127
 21
23.29189591182201
 31
0.0015258207003583
  0
LINE
  5
3E2
  8
0
 10
671.85000000000127
 20
316.99189591182221
 30
0.0015258207003583
 11
671.85000000000127
 21
173.29189591182231
 31
0.0015258207003583
  0
LINE
  5
3E3
  8
0
 10
671.85000000000127
 20
466.99189591182278
 30
0.0015258207003583
 11
671.85000000000127
 21
323.29189591182308
 31
0.0015258207003583
  0
LINE
  5
3E4
  8
0
 10
671.85000000000127
 20
616.99189591182085
 30
0.0015258207003583
 11
671.85000000000127
 21
473.2918959118212
 31
0.0015258207003583
  0
LINE
  5
3E5
  8
0
 10
671.85000000000173
 20
766.99189591182153
 30
0.0015258207003583
 11
671.85000000000127
 21
623.29189591182171
 31
0.0015258207003583
  0
LINE
  5
3E6
  8
0
 10
671.85000000000173
 20
916.99189591182198
 30
0.0015258207003583
 11
671.85000000000173
 21
773.29189591182205
 31
0.0015258207003583
  0
LINE
  5
3E7
  8
0
 10
671.85000000000173
 20
1066.991895911822
 30
0.0015258207003583
 11
671.85000000000173
 21
923.29189591182057
 31
0.0015258207003583
  0
LINE
  5
3E8
  8
0
 10
671.85000000000298
 20
1216.9918959118211
 30
0.0015258207003583
 11
671.85000000000207
 21
1073.291895911821
 31
0.0015258207003583
  0
LINE
  5
3E9
  8
0
 10
671.85000000000355
 20
1366.9918959118211
 30
0.0015258207003583
 11
671.85000000000298
 21
1223.291895911821
 31
0.0015258207003583
  0
LINE
  5
3EA
  8
0
 10
671.85000000000355
 20
1516.9918959118199
 30
0.0015258207003583
 11
671.85000000000355
 21
1373.2918959118219
 31
0.0015258207003583
  0
LINE
  5
3EB
  8
0
 10
671.85000000000355
 20
1666.9918959118199
 30
0.0015258207003583
 11
671.85000000000355
 21
1523.2918959118199
 31
0.0015258207003583
  0
LINE
  5
3EC
  8
0
 10
671.85000000000355
 20
1816.9918959118211
 30
0.0015258207003583
 11
671.85000000000355
 21
1673.291895911821
 31
0.0015258207003583
  0
LINE
  5
3ED
  8
0
 10
671.850000000004
 20
1966.9918959118211
 30
0.0015258207003583
 11
671.85000000000355
 21
1823.291895911821
 31
0.0015258207003583
  0
LINE
  5
3EE
  8
0
 10
671.85000000000446
 20
1990.1418959117809
 30
0.0015258207003583
 11
671.850000000004
 21
1973.2918959118199
 31
0.0015258207003583
  0
LINE
  5
3EF
  8
0
 10
528.15000000000498
 20
1973.2918959118219
 30
0.0015258207003583
 11
528.15000000000498
 21
1990.1418959117921
 31
0.0015258207003583
  0
LINE
  5
3F0
  8
0
 10
528.15000000000498
 20
1823.291895911824
 30
0.0015258207003583
 11
528.15000000000498
 21
1966.991895911824
 31
0.0015258207003583
  0
LINE
  5
3F1
  8
0
 10
528.15000000000498
 20
1673.2918959118231
 30
0.0015258207003583
 11
528.15000000000498
 21
1816.9918959118229
 31
0.0015258207003583
  0
LINE
  5
3F2
  8
0
 10
528.15000000000498
 20
1523.2918959118231
 30
0.0015258207003583
 11
528.15000000000498
 21
1666.9918959118229
 31
0.0015258207003583
  0
LINE
  5
3F3
  8
0
 10
528.15000000000498
 20
1373.291895911824
 30
0.0015258207003583
 11
528.15000000000498
 21
1516.991895911822
 31
0.0015258207003583
  0
LINE
  5
3F4
  8
0
 10
528.15000000000498
 20
1223.291895911824
 30
0.0015258207003583
 11
528.15000000000498
 21
1366.991895911824
 31
0.0015258207003583
  0
LINE
  5
3F5
  8
0
 10
528.15000000000418
 20
1073.2918959118231
 30
0.0015258207003583
 11
528.15000000000498
 21
1216.9918959118229
 31
0.0015258207003583
  0
LINE
  5
3F6
  8
0
 10
528.15000000000327
 20
923.29189591182308
 30
0.0015258207003583
 11
528.15000000000327
 21
1066.9918959118249
 31
0.0015258207003583
  0
LINE
  5
3F7
  8
0
 10
528.15000000000327
 20
773.29189591182455
 30
0.0015258207003583
 11
528.15000000000327
 21
916.99189591182449
 31
0.0015258207003583
  0
LINE
  5
3F8
  8
0
 10
528.15000000000327
 20
623.29189591182421
 30
0.0015258207003583
 11
528.15000000000327
 21
766.99189591182403
 31
0.0015258207003583
  0
LINE
  5
3F9
  8
0
 10
528.15000000000327
 20
473.2918959118237
 30
0.0015258207003583
 11
528.15000000000327
 21
616.99189591182335
 31
0.0015258207003583
  0
LINE
  5
3FA
  8
0
 10
528.15000000000327
 20
323.29189591182529
 30
0.0015258207003583
 11
528.15000000000327
 21
466.99189591182511
 31
0.0015258207003583
  0
LINE
  5
3FB
  8
0
 10
528.15000000000327
 20
173.29189591182489
 30
0.0015258207003583
 11
528.15000000000327
 21
316.9918959118246
 31
0.0015258207003583
  0
LINE
  5
3FC
  8
0
 10
528.15000000000225
 20
23.291895911824412
 30
0.0015258207003583
 11
528.15000000000225
 21
166.99189591182409
 31
0.0015258207003583
  0
LINE
  5
3FD
  8
0
 10
528.15000000000146
 20
0.1418959117928575
 30
0.0015258207003583
 11
528.15000000000225
 21
16.991895911825839
 31
0.0015258207003583
  0
LINE
  5
3FE
  8
0
 10
521.85000000000207
 20
16.991895911823711
 30
0.0015258207003583
 11
521.85000000000207
 21
0.1418959117928691
 31
0.0015258207003583
  0
LINE
  5
3FF
  8
0
 10
521.85000000000298
 20
166.99189591182221
 30
0.0015258207003583
 11
521.85000000000207
 21
23.291895911822319
 31
0.0015258207003583
  0
LINE
  5
400
  8
0
 10
521.85000000000207
 20
316.99189591182318
 30
0.0015258207003583
 11
521.85000000000207
 21
173.29189591182299
 31
0.0015258207003583
  0
LINE
  5
401
  8
0
 10
521.85000000000207
 20
466.99189591182392
 30
0.0015258207003583
 11
521.85000000000207
 21
323.2918959118237
 31
0.0015258207003583
  0
LINE
  5
402
  8
0
 10
521.85000000000207
 20
616.99189591182244
 30
0.0015258207003583
 11
521.85000000000207
 21
473.29189591182251
 31
0.0015258207003583
  0
LINE
  5
403
  8
0
 10
521.85000000000207
 20
766.99189591182312
 30
0.0015258207003583
 11
521.85000000000207
 21
623.29189591182308
 31
0.0015258207003583
  0
LINE
  5
404
  8
0
 10
521.85000000000298
 20
916.99189591182414
 30
0.0015258207003583
 11
521.85000000000207
 21
773.29189591182387
 31
0.0015258207003583
  0
LINE
  5
405
  8
0
 10
521.85000000000298
 20
1066.991895911824
 30
0.0015258207003583
 11
521.85000000000298
 21
923.29189591182239
 31
0.0015258207003583
  0
LINE
  5
406
  8
0
 10
521.85000000000298
 20
1216.9918959118229
 30
0.0015258207003583
 11
521.85000000000298
 21
1073.2918959118231
 31
0.0015258207003583
  0
LINE
  5
407
  8
0
 10
521.850000000004
 20
1366.991895911824
 30
0.0015258207003583
 11
521.850000000004
 21
1223.291895911824
 31
0.0015258207003583
  0
LINE
  5
408
  8
0
 10
521.85000000000491
 20
1516.991895911822
 30
0.0015258207003583
 11
521.85000000000491
 21
1373.291895911824
 31
0.0015258207003583
  0
LINE
  5
409
  8
0
 10
521.85000000000491
 20
1666.991895911822
 30
0.0015258207003583
 11
521.85000000000491
 21
1523.2918959118219
 31
0.0015258207003583
  0
LINE
  5
40A
  8
0
 10
521.85000000000491
 20
1816.9918959118229
 30
0.0015258207003583
 11
521.85000000000491
 21
1673.2918959118231
 31
0.0015258207003583
  0
LINE
  5
40B
  8
0
 10
521.85000000000491
 20
1966.9918959118229
 30
0.0015258207003583
 11
521.85000000000491
 21
1823.291895911824
 31
0.0015258207003583
  0
LINE
  5
40C
  8
0
 10
521.85000000000491
 20
1990.1418959117921
 30
0.0015258207003583
 11
521.85000000000491
 21
1973.2918959118219
 31
0.0015258207003583
  0
LINE
  5
40D
  8
0
 10
378.15000000000509
 20
1973.291895911821
 30
0.0015258207003583
 11
378.150000000006
 21
1990.1418959118059
 31
0.0015258207003583
  0
LINE
  5
40E
  8
0
 10
378.15000000000509
 20
1823.2918959118219
 30
0.0015258207003583
 11
378.150000000006
 21
1966.991895911822
 31
0.0015258207003583
  0
LINE
  5
40F
  8
0
 10
378.15000000000509
 20
1673.291895911821
 30
0.0015258207003583
 11
378.15000000000509
 21
1816.991895911822
 31
0.0015258207003583
  0
LINE
  5
410
  8
0
 10
378.15000000000509
 20
1523.291895911821
 30
0.0015258207003583
 11
378.15000000000509
 21
1666.9918959118211
 31
0.0015258207003583
  0
LINE
  5
411
  8
0
 10
378.15000000000509
 20
1373.2918959118219
 30
0.0015258207003583
 11
378.15000000000509
 21
1516.9918959118199
 31
0.0015258207003583
  0
LINE
  5
412
  8
0
 10
378.15000000000418
 20
1223.291895911821
 30
0.0015258207003583
 11
378.15000000000509
 21
1366.991895911822
 31
0.0015258207003583
  0
LINE
  5
413
  8
0
 10
378.15000000000418
 20
1073.291895911821
 30
0.0015258207003583
 11
378.15000000000418
 21
1216.9918959118211
 31
0.0015258207003583
  0
LINE
  5
414
  8
0
 10
378.15000000000327
 20
923.29189591182035
 30
0.0015258207003583
 11
378.15000000000418
 21
1066.991895911822
 31
0.0015258207003583
  0
LINE
  5
415
  8
0
 10
378.15000000000327
 20
773.29189591182183
 30
0.0015258207003583
 11
378.15000000000327
 21
916.99189591182176
 31
0.0015258207003583
  0
LINE
  5
416
  8
0
 10
378.15000000000327
 20
623.29189591182126
 30
0.0015258207003583
 11
378.15000000000327
 21
766.9918959118213
 31
0.0015258207003583
  0
LINE
  5
417
  8
0
 10
378.15000000000242
 20
473.29189591182052
 30
0.0015258207003583
 11
378.15000000000327
 21
616.99189591182051
 31
0.0015258207003583
  0
LINE
  5
418
  8
0
 10
378.15000000000242
 20
323.29189591182211
 30
0.0015258207003583
 11
378.15000000000242
 21
466.99189591182193
 31
0.0015258207003583
  0
LINE
  5
419
  8
0
 10
378.15000000000242
 20
173.29189591182131
 30
0.0015258207003583
 11
378.15000000000242
 21
316.9918959118213
 31
0.0015258207003583
  0
LINE
  5
41A
  8
0
 10
378.15000000000242
 20
23.291895911820649
 30
0.0015258207003583
 11
378.15000000000242
 21
166.99189591182059
 31
0.0015258207003583
  0
LINE
  5
41B
  8
0
 10
378.15000000000242
 20
0.1418959118064025
 30
0.0015258207003583
 11
378.15000000000242
 21
16.99189591182207
 31
0.0015258207003583
  0
LINE
  5
41C
  8
0
 10
371.85000000000309
 20
16.991895911821992
 30
0.0015258207003583
 11
371.85000000000218
 21
0.1418959118064141
 31
0.0015258207003583
  0
LINE
  5
41D
  8
0
 10
371.85000000000309
 20
166.99189591182059
 30
0.0015258207003583
 11
371.85000000000309
 21
23.291895911820589
 31
0.0015258207003583
  0
LINE
  5
41E
  8
0
 10
371.85000000000309
 20
316.99189591182119
 30
0.0015258207003583
 11
371.85000000000309
 21
173.29189591182109
 31
0.0015258207003583
  0
LINE
  5
41F
  8
0
 10
371.850000000004
 20
466.9918959118217
 30
0.0015258207003583
 11
371.85000000000309
 21
323.29189591182211
 31
0.0015258207003583
  0
LINE
  5
420
  8
0
 10
371.85000000000309
 20
616.99189591182051
 30
0.0015258207003583
 11
371.85000000000309
 21
473.2918959118204
 31
0.0015258207003583
  0
LINE
  5
421
  8
0
 10
371.850000000004
 20
766.99189591182119
 30
0.0015258207003583
 11
371.85000000000309
 21
623.29189591182103
 31
0.0015258207003583
  0
LINE
  5
422
  8
0
 10
371.850000000004
 20
916.99189591182176
 30
0.0015258207003583
 11
371.850000000004
 21
773.29189591182205
 31
0.0015258207003583
  0
LINE
  5
423
  8
0
 10
371.85000000000491
 20
1066.991895911822
 30
0.0015258207003583
 11
371.85000000000491
 21
923.29189591182035
 31
0.0015258207003583
  0
LINE
  5
424
  8
0
 10
371.85000000000582
 20
1216.9918959118211
 30
0.0015258207003583
 11
371.85000000000491
 21
1073.291895911821
 31
0.0015258207003583
  0
LINE
  5
425
  8
0
 10
371.85000000000582
 20
1366.991895911822
 30
0.0015258207003583
 11
371.85000000000491
 21
1223.2918959118219
 31
0.0015258207003583
  0
LINE
  5
426
  8
0
 10
371.85000000000582
 20
1516.9918959118199
 30
0.0015258207003583
 11
371.85000000000582
 21
1373.2918959118219
 31
0.0015258207003583
  0
LINE
  5
427
  8
0
 10
371.85000000000582
 20
1666.9918959118211
 30
0.0015258207003583
 11
371.85000000000582
 21
1523.291895911821
 31
0.0015258207003583
  0
LINE
  5
428
  8
0
 10
371.85000000000582
 20
1816.991895911822
 30
0.0015258207003583
 11
371.85000000000582
 21
1673.291895911821
 31
0.0015258207003583
  0
LINE
  5
429
  8
0
 10
371.85000000000582
 20
1966.991895911822
 30
0.0015258207003583
 11
371.85000000000491
 21
1823.2918959118219
 31
0.0015258207003583
  0
LINE
  5
42A
  8
0
 10
371.85000000000582
 20
1990.1418959118059
 30
0.0015258207003583
 11
371.85000000000582
 21
1973.291895911821
 31
0.0015258207003583
  0
LINE
  5
42B
  8
0
 10
228.150000000006
 20
1973.291895911819
 30
0.0015258207003583
 11
228.150000000006
 21
1990.1418959118171
 31
0.0015258207003583
  0
LINE
  5
42C
  8
0
 10
228.150000000006
 20
1823.291895911821
 30
0.0015258207003583
 11
228.150000000006
 21
1966.9918959118199
 31
0.0015258207003583
  0
LINE
  5
42D
  8
0
 10
228.150000000006
 20
1673.2918959118199
 30
0.0015258207003583
 11
228.150000000006
 21
1816.9918959118199
 31
0.0015258207003583
  0
LINE
  5
42E
  8
0
 10
228.15000000000509
 20
1523.291895911819
 30
0.0015258207003583
 11
228.150000000006
 21
1666.991895911819
 31
0.0015258207003583
  0
LINE
  5
42F
  8
0
 10
228.150000000006
 20
1373.291895911821
 30
0.0015258207003583
 11
228.150000000006
 21
1516.991895911819
 31
0.0015258207003583
  0
LINE
  5
430
  8
0
 10
228.15000000000509
 20
1223.291895911821
 30
0.0015258207003583
 11
228.15000000000509
 21
1366.9918959118199
 31
0.0015258207003583
  0
LINE
  5
431
  8
0
 10
228.1500000000033
 20
1073.2918959118199
 30
0.0015258207003583
 11
228.15000000000509
 21
1216.9918959118199
 31
0.0015258207003583
  0
LINE
  5
432
  8
0
 10
228.1500000000033
 20
923.29189591181955
 30
0.0015258207003583
 11
228.1500000000033
 21
1066.9918959118211
 31
0.0015258207003583
  0
LINE
  5
433
  8
0
 10
228.1500000000033
 20
773.29189591182114
 30
0.0015258207003583
 11
228.1500000000033
 21
916.99189591182085
 31
0.0015258207003583
  0
LINE
  5
434
  8
0
 10
228.15000000000239
 20
623.29189591182092
 30
0.0015258207003583
 11
228.1500000000033
 21
766.99189591182062
 31
0.0015258207003583
  0
LINE
  5
435
  8
0
 10
228.15000000000239
 20
473.29189591182052
 30
0.0015258207003583
 11
228.15000000000239
 21
616.99189591182005
 31
0.0015258207003583
  0
LINE
  5
436
  8
0
 10
228.15000000000239
 20
323.29189591182222
 30
0.0015258207003583
 11
228.15000000000239
 21
466.99189591182193
 31
0.0015258207003583
  0
LINE
  5
437
  8
0
 10
228.15000000000239
 20
173.29189591182171
 30
0.0015258207003583
 11
228.15000000000239
 21
316.99189591182147
 31
0.0015258207003583
  0
LINE
  5
438
  8
0
 10
228.15000000000239
 20
23.291895911821172
 30
0.0015258207003583
 11
228.15000000000239
 21
166.99189591182099
 31
0.0015258207003583
  0
LINE
  5
439
  8
0
 10
228.15000000000239
 20
0.1418959118177818
 30
0.0015258207003583
 11
228.15000000000239
 21
16.99189591182261
 31
0.0015258207003583
  0
LINE
  5
43A
  8
0
 10
221.85000000000309
 20
16.991895911822549
 30
0.0015258207003583
 11
221.85000000000309
 21
0.1418959118177934
 31
0.0015258207003583
  0
LINE
  5
43B
  8
0
 10
221.850000000004
 20
166.9918959118209
 30
0.0015258207003583
 11
221.85000000000309
 21
23.291895911821161
 31
0.0015258207003583
  0
LINE
  5
43C
  8
0
 10
221.85000000000491
 20
316.99189591182142
 30
0.0015258207003583
 11
221.850000000004
 21
173.2918959118218
 31
0.0015258207003583
  0
LINE
  5
43D
  8
0
 10
221.85000000000491
 20
466.99189591182198
 30
0.0015258207003583
 11
221.85000000000491
 21
323.29189591182222
 31
0.0015258207003583
  0
LINE
  5
43E
  8
0
 10
221.85000000000491
 20
616.99189591182051
 30
0.0015258207003583
 11
221.85000000000491
 21
473.29189591182057
 31
0.0015258207003583
  0
LINE
  5
43F
  8
0
 10
221.85000000000491
 20
766.99189591182085
 30
0.0015258207003583
 11
221.85000000000491
 21
623.29189591182103
 31
0.0015258207003583
  0
LINE
  5
440
  8
0
 10
221.85000000000491
 20
916.99189591182153
 30
0.0015258207003583
 11
221.85000000000491
 21
773.2918959118216
 31
0.0015258207003583
  0
LINE
  5
441
  8
0
 10
221.85000000000491
 20
1066.991895911822
 30
0.0015258207003583
 11
221.85000000000491
 21
923.29189591181955
 31
0.0015258207003583
  0
LINE
  5
442
  8
0
 10
221.85000000000491
 20
1216.9918959118199
 30
0.0015258207003583
 11
221.85000000000491
 21
1073.2918959118199
 31
0.0015258207003583
  0
LINE
  5
443
  8
0
 10
221.85000000000579
 20
1366.9918959118199
 30
0.0015258207003583
 11
221.85000000000491
 21
1223.291895911821
 31
0.0015258207003583
  0
LINE
  5
444
  8
0
 10
221.85000000000579
 20
1516.991895911819
 30
0.0015258207003583
 11
221.85000000000579
 21
1373.291895911821
 31
0.0015258207003583
  0
LINE
  5
445
  8
0
 10
221.85000000000579
 20
1666.991895911819
 30
0.0015258207003583
 11
221.85000000000579
 21
1523.291895911819
 31
0.0015258207003583
  0
LINE
  5
446
  8
0
 10
221.85000000000579
 20
1816.9918959118199
 30
0.0015258207003583
 11
221.85000000000579
 21
1673.2918959118199
 31
0.0015258207003583
  0
LINE
  5
447
  8
0
 10
221.85000000000579
 20
1966.9918959118199
 30
0.0015258207003583
 11
221.85000000000579
 21
1823.291895911821
 31
0.0015258207003583
  0
LINE
  5
448
  8
0
 10
221.85000000000579
 20
1990.1418959118171
 30
0.0015258207003583
 11
221.85000000000579
 21
1973.291895911819
 31
0.0015258207003583
  0
LINE
  5
449
  8
0
 10
78.150000000006003
 20
1973.2918959118199
 30
0.0015258207003583
 11
78.150000000006912
 21
1990.1418959118289
 31
0.0015258207003583
  0
LINE
  5
44A
  8
0
 10
78.150000000006003
 20
1823.291895911821
 30
0.0015258207003583
 11
78.150000000006003
 21
1966.9918959118211
 31
0.0015258207003583
  0
LINE
  5
44B
  8
0
 10
78.150000000006003
 20
1673.291895911821
 30
0.0015258207003583
 11
78.150000000006003
 21
1816.9918959118211
 31
0.0015258207003583
  0
LINE
  5
44C
  8
0
 10
78.150000000006003
 20
1523.2918959118199
 30
0.0015258207003583
 11
78.150000000006003
 21
1666.9918959118199
 31
0.0015258207003583
  0
LINE
  5
44D
  8
0
 10
78.150000000005093
 20
1373.2918959118219
 30
0.0015258207003583
 11
78.150000000005093
 21
1516.9918959118199
 31
0.0015258207003583
  0
LINE
  5
44E
  8
0
 10
78.150000000005093
 20
1223.291895911821
 30
0.0015258207003583
 11
78.150000000006003
 21
1366.9918959118211
 31
0.0015258207003583
  0
LINE
  5
44F
  8
0
 10
78.150000000005093
 20
1073.291895911821
 30
0.0015258207003583
 11
78.150000000005093
 21
1216.9918959118211
 31
0.0015258207003583
  0
LINE
  5
450
  8
0
 10
78.150000000004184
 20
923.29189591182057
 30
0.0015258207003583
 11
78.150000000005093
 21
1066.991895911822
 31
0.0015258207003583
  0
LINE
  5
451
  8
0
 10
78.150000000004184
 20
773.29189591182205
 30
0.0015258207003583
 11
78.150000000005093
 21
916.99189591182176
 31
0.0015258207003583
  0
LINE
  5
452
  8
0
 10
78.150000000003274
 20
623.29189591182137
 30
0.0015258207003583
 11
78.150000000004184
 21
766.9918959118213
 31
0.0015258207003583
  0
LINE
  5
453
  8
0
 10
78.150000000003274
 20
473.29189591182097
 30
0.0015258207003583
 11
78.150000000003274
 21
616.99189591182073
 31
0.0015258207003583
  0
LINE
  5
454
  8
0
 10
78.150000000002365
 20
323.29189591182268
 30
0.0015258207003583
 11
78.150000000003274
 21
466.9918959118225
 31
0.0015258207003583
  0
LINE
  5
455
  8
0
 10
78.150000000002365
 20
173.29189591182219
 30
0.0015258207003583
 11
78.150000000002365
 21
316.99189591182198
 31
0.0015258207003583
  0
LINE
  5
456
  8
0
 10
78.150000000002365
 20
23.291895911821719
 30
0.0015258207003583
 11
78.150000000002365
 21
166.9918959118215
 31
0.0015258207003583
  0
LINE
  5
457
  8
0
 10
78.150000000003274
 20
0.1418959118291611
 30
0.0015258207003583
 11
78.150000000003274
 21
16.991895911823161
 31
0.0015258207003583
  0
LINE
  5
458
  8
0
 10
71.850000000003092
 20
16.9918959118231
 30
0.0015258207003583
 11
71.850000000003092
 21
0.1418959118291727
 31
0.0015258207003583
  0
LINE
  5
459
  8
0
 10
71.850000000003092
 20
166.9918959118215
 30
0.0015258207003583
 11
71.850000000003092
 21
23.29189591182169
 31
0.0015258207003583
  0
LINE
  5
45A
  8
0
 10
71.850000000004002
 20
316.99189591182181
 30
0.0015258207003583
 11
71.850000000003092
 21
173.29189591182219
 31
0.0015258207003583
  0
LINE
  5
45B
  8
0
 10
71.850000000004002
 20
466.99189591182233
 30
0.0015258207003583
 11
71.850000000004002
 21
323.29189591182262
 31
0.0015258207003583
  0
LINE
  5
45C
  8
0
 10
71.850000000004911
 20
616.99189591182073
 30
0.0015258207003583
 11
71.850000000004002
 21
473.29189591182097
 31
0.0015258207003583
  0
LINE
  5
45D
  8
0
 10
71.850000000004911
 20
766.99189591182085
 30
0.0015258207003583
 11
71.850000000004911
 21
623.29189591182114
 31
0.0015258207003583
  0
LINE
  5
45E
  8
0
 10
71.850000000004911
 20
916.99189591182153
 30
0.0015258207003583
 11
71.850000000004911
 21
773.29189591182171
 31
0.0015258207003583
  0
LINE
  5
45F
  8
0
 10
71.850000000004911
 20
1066.991895911822
 30
0.0015258207003583
 11
71.850000000004911
 21
923.29189591181989
 31
0.0015258207003583
  0
LINE
  5
460
  8
0
 10
71.850000000004911
 20
1216.9918959118199
 30
0.0015258207003583
 11
71.850000000004911
 21
1073.2918959118199
 31
0.0015258207003583
  0
LINE
  5
461
  8
0
 10
71.850000000004911
 20
1366.9918959118211
 30
0.0015258207003583
 11
71.850000000004911
 21
1223.291895911821
 31
0.0015258207003583
  0
LINE
  5
462
  8
0
 10
71.850000000005821
 20
1516.991895911819
 30
0.0015258207003583
 11
71.850000000004911
 21
1373.2918959118219
 31
0.0015258207003583
  0
LINE
  5
463
  8
0
 10
71.850000000005821
 20
1666.9918959118199
 30
0.0015258207003583
 11
71.850000000005821
 21
1523.2918959118199
 31
0.0015258207003583
  0
LINE
  5
464
  8
0
 10
71.850000000005821
 20
1816.9918959118199
 30
0.0015258207003583
 11
71.850000000005821
 21
1673.291895911821
 31
0.0015258207003583
  0
LINE
  5
465
  8
0
 10
71.850000000005821
 20
1966.9918959118211
 30
0.0015258207003583
 11
71.850000000005821
 21
1823.291895911821
 31
0.0015258207003583
  0
LINE
  5
466
  8
0
 10
71.85000000000673
 20
1990.1418959118289
 30
0.0015258207003583
 11
71.85000000000673
 21
1973.2918959118199
 31
0.0015258207003583
  0
LINE
  5
467
  8
0
 10
0.0
 20
1966.9918959118199
 30
0.0015258207003583
 11
4650.0
 21
1966.9918959118199
 31
0.0015258207003583
  0
LINE
  5
468
  8
0
 10
4650.0
 20
1973.2918959118199
 30
0.0015258207003583
 11
0.0
 21
1973.2918959118199
 31
0.0015258207003583
  0
LINE
  5
469
  8
0
 10
0.0
 20
1816.9918959118199
 30
0.0015258207003583
 11
4650.0
 21
1816.9918959118199
 31
0.0015258207003583
  0
LINE
  5
46A
  8
0
 10
4650.0
 20
1823.2918959118199
 30
0.0015258207003583
 11
0.0
 21
1823.291895911821
 31
0.0015258207003583
  0
LINE
  5
46B
  8
0
 10
0.0
 20
1666.9918959118199
 30
0.0015258207003583
 11
4650.0
 21
1666.9918959118199
 31
0.0015258207003583
  0
LINE
  5
46C
  8
0
 10
4650.0
 20
1673.2918959118199
 30
0.0015258207003583
 11
0.0
 21
1673.291895911821
 31
0.0015258207003583
  0
LINE
  5
46D
  8
0
 10
0.0
 20
1516.9918959118199
 30
0.0015258207003583
 11
4650.0
 21
1516.9918959118199
 31
0.0015258207003583
  0
LINE
  5
46E
  8
0
 10
4650.0
 20
1523.2918959118199
 30
0.0015258207003583
 11
0.0
 21
1523.291895911821
 31
0.0015258207003583
  0
LINE
  5
46F
  8
0
 10
0.0
 20
1366.9918959118211
 30
0.0015258207003583
 11
4650.0
 21
1366.9918959118211
 31
0.0015258207003583
  0
LINE
  5
470
  8
0
 10
4650.0
 20
1373.291895911821
 30
0.0015258207003583
 11
0.0
 21
1373.291895911821
 31
0.0015258207003583
  0
LINE
  5
471
  8
0
 10
0.0
 20
1216.9918959118211
 30
0.0015258207003583
 11
4650.0
 21
1216.9918959118199
 31
0.0015258207003583
  0
LINE
  5
472
  8
0
 10
4650.0
 20
1223.291895911821
 30
0.0015258207003583
 11
0.0
 21
1223.291895911821
 31
0.0015258207003583
  0
LINE
  5
473
  8
0
 10
0.0
 20
1066.9918959118211
 30
0.0015258207003583
 11
4650.0
 21
1066.9918959118199
 31
0.0015258207003583
  0
LINE
  5
474
  8
0
 10
4650.0
 20
1073.291895911821
 30
0.0015258207003583
 11
0.0
 21
1073.291895911821
 31
0.0015258207003583
  0
LINE
  5
475
  8
0
 10
0.0
 20
916.9918959118213
 30
0.0015258207003583
 11
4650.0
 21
916.99189591182085
 31
0.0015258207003583
  0
LINE
  5
476
  8
0
 10
4650.0
 20
923.2918959118208
 30
0.0015258207003583
 11
0.0
 21
923.29189591182114
 31
0.0015258207003583
  0
LINE
  5
477
  8
0
 10
0.0
 20
766.9918959118213
 30
0.0015258207003583
 11
4650.0
 21
766.99189591182085
 31
0.0015258207003583
  0
LINE
  5
478
  8
0
 10
4650.0
 20
773.2918959118208
 30
0.0015258207003583
 11
0.0
 21
773.29189591182114
 31
0.0015258207003583
  0
LINE
  5
479
  8
0
 10
0.0
 20
616.99189591182119
 30
0.0015258207003583
 11
4650.0
 21
616.99189591182085
 31
0.0015258207003583
  0
LINE
  5
47A
  8
0
 10
4650.0
 20
623.2918959118208
 30
0.0015258207003583
 11
0.0
 21
623.29189591182114
 31
0.0015258207003583
  0
LINE
  5
47B
  8
0
 10
0.0
 20
466.9918959118213
 30
0.0015258207003583
 11
4650.0
 21
466.99189591182102
 31
0.0015258207003583
  0
LINE
  5
47C
  8
0
 10
4650.0
 20
473.29189591182109
 30
0.0015258207003583
 11
0.0
 21
473.29189591182143
 31
0.0015258207003583
  0
LINE
  5
47D
  8
0
 10
0.0
 20
316.99189591182142
 30
0.0015258207003583
 11
4650.0
 21
316.99189591182108
 31
0.0015258207003583
  0
LINE
  5
47E
  8
0
 10
4650.0
 20
323.2918959118212
 30
0.0015258207003583
 11
0.0
 21
323.29189591182143
 31
0.0015258207003583
  0
LINE
  5
47F
  8
0
 10
0.0
 20
166.9918959118217
 30
0.0015258207003583
 11
4650.0000000000009
 21
166.99189591182139
 31
0.0015258207003583
  0
LINE
  5
480
  8
0
 10
4650.0000000000009
 20
173.29189591182131
 30
0.0015258207003583
 11
0.0
 21
173.2918959118216
 31
0.0015258207003583
  0
LINE
  5
481
  8
0
 10
0.0
 20
16.991895911821651
 30
0.0015258207003583
 11
4650.0
 21
16.991895911821359
 31
0.0015258207003583
  0
LINE
  5
482
  8
0
 10
4650.0
 20
23.29189591182136
 30
0.0015258207003583
 11
0.0
 21
23.291895911821641
 31
0.0015258207003583
  0
INSERT
  5
4F6
  8
HURRICANE_09_274_5329_03_3
  2
HURRICANE
 10
0.0
 20
0.0
 30
0.0
  0
VIEWPORT
  5
50F
 67
     1
  8
0
 10
143.43592834472651
 20
99.959580898284912
 30
0.0
 40
415.04454626822121
 41
222.15178063964851
 68
     1
 69
     1
1001
ACAD
1000
MVIEW
1002
{
1070
    16
1010
0.0
1020
0.0
1030
0.0
1010
0.0
1020
0.0
1030
1.0
1040
0.0
1040
222.15178063964851
1040
143.43592834472651
1040
99.959580898284912
1040
50.0
1040
0.0
1040
0.0
1070
     0
1070
  1000
1070
     1
1070
     1
1070
     0
1070
     0
1070
     0
1070
     0
1040
0.0
1040
0.0
1040
0.0
1040
10.0
1040
10.0
1040
10.0
1040
10.0
1070
     0
1002
{
1002
}
1002
}
  0
VIEWPORT
  5
513
 67
     1
  8
0
 10
143.4359130859375
 20
99.95958781242372
 30
0.0
 40
229.49746093749999
 41
159.9353404998779
 68
     2
 69
     2
1001
ACAD
1000
MVIEW
1002
{
1070
    16
1010
0.0
1020
0.0
1030
0.0
1010
0.0
1020
0.0
1030
1.0
1040
0.0
1040
3275.0657271283658
1040
2313.490720936798
1040
992.35750404629391
1040
50.0
1040
0.0
1040
0.0
1070
     0
1070
  1000
1070
     1
1070
     3
1070
     0
1070
     0
1070
     0
1070
     0
1040
0.0
1040
0.0
1040
0.0
1040
1.0
1040
1.0
1040
10.0
1040
10.0
1070
     0
1002
{
1002
}
1002
}
  0
ENDSEC
  0
EOF
