  0
SECTION
  2
HEADER
  9
$ACADVER
  1
AC1009
  9
$INSBASE
 10
0.0
 20
0.0
 30
0.0
  9
$EXTMIN
 10
-23.018558126405399
 20
-5.4268878192411121
 30
0.0
  9
$EXTMAX
 10
4650.0000000000009
 20
1990.1418959118289
 30
0.0015258207003583
  9
$LIMMIN
 10
0.0
 20
0.0
  9
$LIMMAX
 10
420.0
 20
297.0
  9
$ORTHOMODE
 70
     0
  9
$REGENMODE
 70
     1
  9
$FILLMODE
 70
     1
  9
$QTEXTMODE
 70
     0
  9
$MIRRTEXT
 70
     0
  9
$DRAGMODE
 70
     2
  9
$LTSCALE
 40
1.0
  9
$OSMODE
 70
     0
  9
$ATTMODE
 70
     1
  9
$TEXTSIZE
 40
2.5
  9
$TRACEWID
 40
1.0
  9
$TEXTSTYLE
  7
STANDARD
  9
$CLAYER
  8
0
  9
$CELTYPE
  6
BYLAYER
  9
$CECOLOR
 62
   256
  9
$DIMSCALE
 40
1.0
  9
$DIMASZ
 40
2.5
  9
$DIMEXO
 40
0.625
  9
$DIMDLI
 40
3.75
  9
$DIMRND
 40
0.0
  9
$DIMDLE
 40
0.0
  9
$DIMEXE
 40
1.25
  9
$DIMTP
 40
0.0
  9
$DIMTM
 40
0.0
  9
$DIMTXT
 40
2.5
  9
$DIMCEN
 40
2.5
  9
$DIMTSZ
 40
0.0
  9
$DIMTOL
 70
     0
  9
$DIMLIM
 70
     0
  9
$DIMTIH
 70
     0
  9
$DIMTOH
 70
     0
  9
$DIMSE1
 70
     0
  9
$DIMSE2
 70
     0
  9
$DIMTAD
 70
     1
  9
$DIMZIN
 70
     8
  9
$DIMBLK
  1

  9
$DIMASO
 70
     1
  9
$DIMSHO
 70
     1
  9
$DIMPOST
  1

  9
$DIMAPOST
  1

  9
$DIMALT
 70
     0
  9
$DIMALTD
 70
     3
  9
$DIMALTF
 40
0.03937007874016
  9
$DIMLFAC
 40
1.0
  9
$DIMTOFL
 70
     1
  9
$DIMTVP
 40
0.0
  9
$DIMTIX
 70
     0
  9
$DIMSOXD
 70
     0
  9
$DIMSAH
 70
     0
  9
$DIMBLK1
  1

  9
$DIMBLK2
  1

  9
$DIMSTYLE
  2
ISO-25
  9
$DIMCLRD
 70
     0
  9
$DIMCLRE
 70
     0
  9
$DIMCLRT
 70
     0
  9
$DIMTFAC
 40
1.0
  9
$DIMGAP
 40
0.625
  9
$LUNITS
 70
     2
  9
$LUPREC
 70
     1
  9
$SKETCHINC
 40
1.0
  9
$FILLETRAD
 40
0.0
  9
$AUNITS
 70
     1
  9
$AUPREC
 70
     4
  9
$MENU
  1
.
  9
$ELEVATION
 40
0.0
  9
$PELEVATION
 40
0.0
  9
$THICKNESS
 40
0.0
  9
$LIMCHECK
 70
     0
  9
$BLIPMODE
 70
     0
  9
$CHAMFERA
 40
0.0
  9
$CHAMFERB
 40
0.0
  9
$SKPOLY
 70
     0
  9
$TDCREATE
 40
2455179.9870173731
  9
$TDUPDATE
 40
2455182.7386076972
  9
$TDINDWG
 40
0.0111922917
  9
$TDUSRTIMER
 40
0.0111922685
  9
$USRTIMER
 70
     1
  9
$ANGBASE
 50
0.0
  9
$ANGDIR
 70
     0
  9
$PDMODE
 70
     0
  9
$PDSIZE
 40
0.0
  9
$PLINEWID
 40
0.0
  9
$COORDS
 70
     1
  9
$SPLFRAME
 70
     0
  9
$SPLINETYPE
 70
     6
  9
$SPLINESEGS
 70
     8
  9
$ATTDIA
 70
     0
  9
$ATTREQ
 70
     0
  9
$HANDLING
 70
     1
  9
$HANDSEED
  5
5AC
  9
$SURFTAB1
 70
     6
  9
$SURFTAB2
 70
     6
  9
$SURFTYPE
 70
     6
  9
$SURFU
 70
     6
  9
$SURFV
 70
     6
  9
$UCSNAME
  2

  9
$UCSORG
 10
0.0
 20
0.0
 30
0.0
  9
$UCSXDIR
 10
1.0
 20
0.0
 30
0.0
  9
$UCSYDIR
 10
0.0
 20
1.0
 30
0.0
  9
$PUCSNAME
  2

  9
$PUCSORG
 10
0.0
 20
0.0
 30
0.0
  9
$PUCSXDIR
 10
1.0
 20
0.0
 30
0.0
  9
$PUCSYDIR
 10
0.0
 20
1.0
 30
0.0
  9
$USERI1
 70
     0
  9
$USERI2
 70
     0
  9
$USERI3
 70
     0
  9
$USERI4
 70
     0
  9
$USERI5
 70
     0
  9
$USERR1
 40
0.0
  9
$USERR2
 40
0.0
  9
$USERR3
 40
0.0
  9
$USERR4
 40
0.0
  9
$USERR5
 40
0.0
  9
$WORLDVIEW
 70
     1
  9
$SHADEDGE
 70
     3
  9
$SHADEDIF
 70
    70
  9
$TILEMODE
 70
     0
  9
$MAXACTVP
 70
    64
  9
$PLIMCHECK
 70
     0
  9
$PEXTMIN
 10
28.687182617187489
 20
19.99191756248473
 30
0.0
  9
$PEXTMAX
 10
258.18464355468751
 20
179.92725806236271
 30
0.0
  9
$PLIMMIN
 10
-5.027069091796875
 20
-5.027082920074462
  9
$PLIMMAX
 10
291.89892578125
 20
204.94624471664429
  9
$UNITMODE
 70
     0
  9
$VISRETAIN
 70
     1
  9
$PLINEGEN
 70
     0
  9
$PSLTSCALE
 70
     1
  0
ENDSEC
  0
SECTION
  2
TABLES
  0
TABLE
  2
VPORT
 70
     1
  0
VPORT
  2
*ACTIVE
 70
     0
 10
0.0
 20
0.0
 11
1.0
 21
1.0
 12
2313.4346251765219
 22
992.34215919212056
 13
0.0
 23
0.0
 14
1.0
 24
1.0
 15
10.0
 25
10.0
 16
0.0
 26
0.0
 36
1.0
 17
0.0
 27
0.0
 37
0.0
 40
2509.4181612524212
 41
1.8682926829268289
 42
50.0
 43
0.0
 44
0.0
 50
0.0
 51
0.0
 71
     0
 72
  1000
 73
     1
 74
     3
 75
     0
 76
     0
 77
     0
 78
     0
  0
ENDTAB
  0
TABLE
  2
LTYPE
 70
     2
  0
LTYPE
  2
CONTINUOUS
 70
     0
  3
Solid line
 72
    65
 73
     0
 40
0.0
  0
ENDTAB
  0
TABLE
  2
LAYER
 70
     5
  0
LAYER
  2
0
 70
     0
 62
     7
  6
CONTINUOUS
  0
LAYER
  2
DEFPOINTS
 70
     0
 62
   211
  6
CONTINUOUS
  0
LAYER
  2
HURRICANE_09_274_5329_03_3
 70
     0
 62
     7
  6
CONTINUOUS
  0
ENDTAB
  0
TABLE
  2
STYLE
 70
     2
  0
STYLE
  2
STANDARD
 70
     0
 40
0.0
 41
1.0
 50
0.0
 71
     0
 42
2.5
  3
txt
  4

  0
STYLE
  2
ARIAL
 70
     0
 40
0.0
 41
1.0
 50
0.0
 71
     0
 42
2.0
  3
txt
  4

  0
ENDTAB
  0
TABLE
  2
VIEW
 70
     1
  0
ENDTAB
  0
TABLE
  2
UCS
 70
     0
  0
ENDTAB
  0
TABLE
  2
APPID
 70
     9
  0
APPID
  2
ACAD
 70
     0
  0
APPID
  2
ACAD_PSEXT
 70
     0
  0
APPID
  2
ACADANNOTATIVE
 70
     0
  0
APPID
  2
ACAD_DSTYLE_DIMJAG
 70
     0
  0
APPID
  2
ACAD_DSTYLE_DIMTALN
 70
     0
  0
APPID
  2
REVIT
 70
     0
  0
APPID
  2
PE_URL
 70
     0
  0
APPID
  2
ACAD_MLEADERVER
 70
     0
  0
APPID
  2
ACAD_EXEMPT_FROM_CAD_STANDARDS
 70
     0
  0
ENDTAB
  0
TABLE
  2
DIMSTYLE
 70
     2
  0
DIMSTYLE
  2
ISO-25
 70
     0
  3

  4

  5

  6

  7

 40
1.0
 41
2.5
 42
0.625
 43
3.75
 44
1.25
 45
0.0
 46
0.0
 47
0.0
 48
0.0
140
2.5
141
2.5
142
0.0
143
0.03937007874016
144
1.0
145
0.0
146
1.0
147
0.625
 71
     0
 72
     0
 73
     0
 74
     0
 75
     0
 76
     0
 77
     1
 78
     8
170
     0
171
     3
172
     1
173
     0
174
     0
175
     0
176
     0
177
     0
178
     0
  0
ENDTAB
  0
ENDSEC
  0
SECTION
  2
BLOCKS
  0
BLOCK
  8
0
  2
$MODEL_SPACE
 70
     0
 10
0.0
 20
0.0
 30
0.0
  3
$MODEL_SPACE
  1

  0
ENDBLK
  5
13
  8
0
  0
BLOCK
 67
     1
  8
0
  2
$PAPER_SPACE
 70
     0
 10
0.0
 20
0.0
 30
0.0
  3
$PAPER_SPACE
  1

  0
ENDBLK
  5
50B
 67
     1
  8
0
  0
BLOCK
  8
0
  2
HURRICANE
 70
     0
 10
0.0
 20
0.0
 30
0.0
  3
HURRICANE
  1

  0
TEXT
  5
4F0
  8
HURRICANE_09_274_5329_03_3
 10
-10.79948840381992
 20
-5.0420310661715337
 30
0.0
 40
1.3
  1
Web: www.hurricane.co.nz
  7
ARIAL
 72
     1
 11
0.0
 21
-5.426887821481273
 31
0.0
 73
     1
1001
PE_URL
1000
http://www.hurricane.co.nz
1002
{
1000
http://www.hurricane.co.nz
1002
{
1071
        1
1002
}
1002
}
  0
INSERT
  5
4F1
  8
0
  2
*U2
 10
0.0
 20
0.0
 30
0.0
  0
TEXT
  5
4F2
  8
HURRICANE_09_274_5329_03_3
 10
-12.1256480218281
 20
-2.8693341911033929
 30
0.0
 40
1.3
  1
Email: mesh@hurricane.co.nz
  7
ARIAL
 72
     1
 11
0.0
 21
-3.2541909464131318
 31
0.0
 73
     1
1001
PE_URL
1000
mailto:mesh@hurricane.co.nz
1002
{
1000
mailto:mesh@hurricane.co.nz
1002
{
1071
        1
1002
}
1002
}
  0
ENDBLK
  5
4F5
  8
0
  0
BLOCK
  8
0
  2
*U2
 70
     1
 10
0.0
 20
0.0
 30
0.0
  3
*U2
  1

  0
TEXT
  5
59E
  8
HURRICANE_09_274_5329_03_3
 10
-20.393321115279679
 20
9.7559690298548531
 30
0.0
 40
2.5000300000000002
  1
Hurricane Wire - Auckland
  7
ARIAL
  0
TEXT
  5
59F
  8
HURRICANE_09_274_5329_03_3
 10
-8.9207880594272506
 20
6.6819287924116519
 30
0.0
 40
1.7999965997
  1
Ph 09 274 5329
  7
ARIAL
  0
TEXT
  5
5A0
  8
HURRICANE_09_274_5329_03_3
 10
-23.018558126405399
 20
3.1059480396541592
 30
0.0
 40
2.50001527732333
  1
Hurricane Wire - Christchurch
  7
ARIAL
  0
TEXT
  5
5A1
  8
HURRICANE_09_274_5329_03_3
 10
-8.9207355249063731
 20
0.0319233533339156
 30
0.0
 40
1.799985999520024
  1
Ph 03 344 3619
  7
ARIAL
  0
ENDBLK
  5
5A3
  8
0
  0
ENDSEC
  0
SECTION
  2
ENTITIES
  0
LINE
  5
63
  8
0
 10
0.0
 20
1972.7918959118199
 30
0.0015258207003583
 11
0.0
 21
1967.4918959118199
 31
0.0015258207003583
  0
LINE
  5
65
  8
0
 10
4650.0
 20
1967.4918959118199
 30
0.0015258207003583
 11
4650.0
 21
1972.7918959118199
 31
0.0015258207003583
  0
LINE
  5
66
  8
0
 10
4572.3499999999876
 20
0.141895911480213
 30
0.0015258207003583
 11
4577.6499999999869
 21
0.1418959114802033
 31
0.0015258207003583
  0
LINE
  5
67
  8
0
 10
4577.6499999999915
 20
1990.1418959114801
 30
0.0015258207003583
 11
4572.3499999999922
 21
1990.1418959114801
 31
0.0015258207003583
  0
LINE
  5
68
  8
0
 10
4422.3499999999876
 20
0.1418959114932166
 30
0.0015258207003583
 11
4427.6499999999878
 21
0.1418959114932069
 31
0.0015258207003583
  0
LINE
  5
69
  8
0
 10
4427.6499999999915
 20
1990.1418959114931
 30
0.0015258207003583
 11
4422.3499999999913
 21
1990.1418959114931
 31
0.0015258207003583
  0
LINE
  5
6A
  8
0
 10
4272.3499999999876
 20
0.1418959115040544
 30
0.0015258207003583
 11
4277.6499999999878
 21
0.1418959115040447
 31
0.0015258207003583
  0
LINE
  5
6B
  8
0
 10
4277.6499999999933
 20
1990.141895911504
 30
0.0015258207003583
 11
4272.3499999999922
 21
1990.141895911504
 31
0.0015258207003583
  0
LINE
  5
6C
  8
0
 10
4122.3499999999894
 20
0.1418959115148923
 30
0.0015258207003583
 11
4127.6499999999878
 21
0.1418959115148826
 31
0.0015258207003583
  0
LINE
  5
6D
  8
0
 10
4127.6499999999924
 20
1990.1418959115149
 30
0.0015258207003583
 11
4122.3499999999922
 21
1990.1418959115149
 31
0.0015258207003583
  0
LINE
  5
6E
  8
0
 10
0.0
 20
1822.7918959118199
 30
0.0015258207003583
 11
0.0
 21
1817.4918959118199
 31
0.0015258207003583
  0
LINE
  5
6F
  8
0
 10
4650.0
 20
1817.4918959118199
 30
0.0015258207003583
 11
4650.0
 21
1822.7918959118199
 31
0.0015258207003583
  0
LINE
  5
70
  8
0
 10
3972.3499999999899
 20
0.1418959115278959
 30
0.0015258207003583
 11
3977.6499999999901
 21
0.1418959115278862
 31
0.0015258207003583
  0
LINE
  5
71
  8
0
 10
3977.6499999999928
 20
1990.1418959115269
 30
0.0015258207003583
 11
3972.3499999999931
 21
1990.1418959115269
 31
0.0015258207003583
  0
LINE
  5
72
  8
0
 10
0.0
 20
1672.7918959118199
 30
0.0015258207003583
 11
0.0
 21
1667.4918959118199
 31
0.0015258207003583
  0
LINE
  5
73
  8
0
 10
4650.0
 20
1667.4918959118199
 30
0.0015258207003583
 11
4650.0
 21
1672.7918959118199
 31
0.0015258207003583
  0
LINE
  5
74
  8
0
 10
0.0
 20
1522.7918959118199
 30
0.0015258207003583
 11
0.0
 21
1517.4918959118211
 31
0.0015258207003583
  0
LINE
  5
75
  8
0
 10
4650.0
 20
1517.4918959118199
 30
0.0015258207003583
 11
4650.0
 21
1522.7918959118199
 31
0.0015258207003583
  0
LINE
  5
76
  8
0
 10
0.0
 20
1372.791895911821
 30
0.0015258207003583
 11
0.0
 21
1367.4918959118211
 31
0.0015258207003583
  0
LINE
  5
77
  8
0
 10
4650.0
 20
1367.4918959118199
 30
0.0015258207003583
 11
4650.0
 21
1372.7918959118199
 31
0.0015258207003583
  0
LINE
  5
78
  8
0
 10
0.0
 20
1222.791895911821
 30
0.0015258207003583
 11
0.0
 21
1217.4918959118211
 31
0.0015258207003583
  0
LINE
  5
79
  8
0
 10
4650.0
 20
1217.4918959118211
 30
0.0015258207003583
 11
4650.0
 21
1222.7918959118199
 31
0.0015258207003583
  0
LINE
  5
7A
  8
0
 10
0.0
 20
1072.791895911821
 30
0.0015258207003583
 11
0.0
 21
1067.4918959118211
 31
0.0015258207003583
  0
LINE
  5
7B
  8
0
 10
4650.0
 20
1067.4918959118211
 30
0.0015258207003583
 11
4650.0
 21
1072.791895911821
 31
0.0015258207003583
  0
LINE
  5
7C
  8
0
 10
0.0
 20
922.79189591182114
 30
0.0015258207003583
 11
0.0
 21
917.49189591182142
 31
0.0015258207003583
  0
LINE
  5
7D
  8
0
 10
4650.0
 20
917.49189591182096
 30
0.0015258207003583
 11
4650.0
 21
922.79189591182069
 31
0.0015258207003583
  0
LINE
  5
7E
  8
0
 10
0.0
 20
772.79189591182114
 30
0.0015258207003583
 11
0.0
 21
767.4918959118213
 31
0.0015258207003583
  0
LINE
  5
7F
  8
0
 10
4650.0
 20
767.49189591182085
 30
0.0015258207003583
 11
4650.0
 21
772.79189591182069
 31
0.0015258207003583
  0
LINE
  5
80
  8
0
 10
0.0
 20
622.79189591182114
 30
0.0015258207003583
 11
0.0
 21
617.4918959118213
 31
0.0015258207003583
  0
LINE
  5
81
  8
0
 10
4650.0
 20
617.49189591182085
 30
0.0015258207003583
 11
4650.0
 21
622.79189591182069
 31
0.0015258207003583
  0
LINE
  5
82
  8
0
 10
0.0
 20
472.79189591182143
 30
0.0015258207003583
 11
0.0
 21
467.49189591182142
 31
0.0015258207003583
  0
LINE
  5
83
  8
0
 10
4650.0
 20
467.49189591182108
 30
0.0015258207003583
 11
4650.0
 21
472.79189591182109
 31
0.0015258207003583
  0
LINE
  5
84
  8
0
 10
0.0
 20
322.79189591182143
 30
0.0015258207003583
 11
0.0
 21
317.49189591182142
 31
0.0015258207003583
  0
LINE
  5
85
  8
0
 10
4650.0
 20
317.49189591182108
 30
0.0015258207003583
 11
4650.0
 21
322.79189591182109
 31
0.0015258207003583
  0
LINE
  5
86
  8
0
 10
0.0
 20
172.7918959118216
 30
0.0015258207003583
 11
0.0
 21
167.49189591182159
 31
0.0015258207003583
  0
LINE
  5
87
  8
0
 10
4650.0000000000009
 20
167.4918959118213
 30
0.0015258207003583
 11
4650.0000000000009
 21
172.7918959118214
 31
0.0015258207003583
  0
LINE
  5
88
  8
0
 10
3822.3499999999899
 20
0.1418959115387337
 30
0.0015258207003583
 11
3827.6499999999901
 21
0.141895911538724
 31
0.0015258207003583
  0
LINE
  5
89
  8
0
 10
3827.6499999999942
 20
1990.1418959115381
 30
0.0015258207003583
 11
3822.349999999994
 21
1990.1418959115381
 31
0.0015258207003583
  0
LINE
  5
8A
  8
0
 10
3672.3499999999908
 20
0.1418959115495716
 30
0.0015258207003583
 11
3677.649999999991
 21
0.1418959115495619
 31
0.0015258207003583
  0
LINE
  5
8B
  8
0
 10
3677.6499999999942
 20
1990.141895911549
 30
0.0015258207003583
 11
3672.349999999994
 21
1990.141895911549
 31
0.0015258207003583
  0
LINE
  5
8C
  8
0
 10
3522.3499999999922
 20
0.1418959115625752
 30
0.0015258207003583
 11
3527.649999999991
 21
0.1418959115625655
 31
0.0015258207003583
  0
LINE
  5
8D
  8
0
 10
3527.6499999999951
 20
1990.141895911562
 30
0.0015258207003583
 11
3522.3499999999949
 21
1990.141895911562
 31
0.0015258207003583
  0
LINE
  5
8E
  8
0
 10
3372.3499999999922
 20
0.1418959115723302
 30
0.0015258207003583
 11
3377.6499999999919
 21
0.1418959115723204
 31
0.0015258207003583
  0
LINE
  5
8F
  8
0
 10
3377.649999999996
 20
1990.141895911572
 30
0.0015258207003583
 11
3372.3499999999958
 21
1990.141895911572
 31
0.0015258207003583
  0
LINE
  5
90
  8
0
 10
3222.3499999999922
 20
0.1418959115842509
 30
0.0015258207003583
 11
3227.6499999999928
 21
0.1418959115842412
 31
0.0015258207003583
  0
LINE
  5
91
  8
0
 10
3227.6499999999969
 20
1990.141895911584
 30
0.0015258207003583
 11
3222.3499999999958
 21
1990.141895911584
 31
0.0015258207003583
  0
LINE
  5
92
  8
0
 10
3072.3499999999931
 20
0.1418959115961716
 30
0.0015258207003583
 11
3077.6499999999928
 21
0.1418959115961619
 31
0.0015258207003583
  0
LINE
  5
93
  8
0
 10
3077.6499999999969
 20
1990.1418959115961
 30
0.0015258207003583
 11
3072.3499999999972
 21
1990.1418959115961
 31
0.0015258207003583
  0
LINE
  5
94
  8
0
 10
2922.349999999994
 20
0.1418959116070095
 30
0.0015258207003583
 11
2927.6499999999942
 21
0.1418959116069998
 31
0.0015258207003583
  0
LINE
  5
95
  8
0
 10
2927.6499999999969
 20
1990.1418959116061
 30
0.0015258207003583
 11
2922.3499999999981
 21
1990.1418959116061
 31
0.0015258207003583
  0
LINE
  5
96
  8
0
 10
2772.349999999994
 20
0.1418959116189302
 30
0.0015258207003583
 11
2777.6499999999942
 21
0.1418959116189205
 31
0.0015258207003583
  0
LINE
  5
97
  8
0
 10
2777.6499999999978
 20
1990.141895911619
 30
0.0015258207003583
 11
2772.3499999999981
 21
1990.141895911619
 31
0.0015258207003583
  0
LINE
  5
98
  8
0
 10
2622.3499999999949
 20
0.1418959116308509
 30
0.0015258207003583
 11
2627.6499999999942
 21
0.1418959116308412
 31
0.0015258207003583
  0
LINE
  5
99
  8
0
 10
2627.6499999999978
 20
1990.1418959116299
 30
0.0015258207003583
 11
2622.349999999999
 21
1990.1418959116299
 31
0.0015258207003583
  0
LINE
  5
9A
  8
0
 10
2472.3499999999949
 20
0.1418959116427717
 30
0.0015258207003583
 11
2477.6499999999951
 21
0.1418959116427619
 31
0.0015258207003583
  0
LINE
  5
9B
  8
0
 10
2477.6499999999992
 20
1990.141895911642
 30
0.0015258207003583
 11
2472.349999999999
 21
1990.141895911642
 31
0.0015258207003583
  0
LINE
  5
9C
  8
0
 10
2322.3499999999958
 20
0.1418959116536095
 30
0.0015258207003583
 11
2327.649999999996
 21
0.1418959116535998
 31
0.0015258207003583
  0
LINE
  5
9D
  8
0
 10
2327.6499999999992
 20
1990.1418959116529
 30
0.0015258207003583
 11
2322.349999999999
 21
1990.1418959116529
 31
0.0015258207003583
  0
LINE
  5
9E
  8
0
 10
2172.3499999999958
 20
0.1418959116655303
 30
0.0015258207003583
 11
2177.649999999996
 21
0.1418959116655205
 31
0.0015258207003583
  0
LINE
  5
9F
  8
0
 10
2177.6499999999992
 20
1990.141895911665
 30
0.0015258207003583
 11
2172.349999999999
 21
1990.141895911665
 31
0.0015258207003583
  0
LINE
  5
A0
  8
0
 10
2022.349999999996
 20
0.1418959116785338
 30
0.0015258207003583
 11
2027.6499999999969
 21
0.1418959116785241
 31
0.0015258207003583
  0
LINE
  5
A1
  8
0
 10
2027.6500000000001
 20
1990.1418959116779
 30
0.0015258207003583
 11
2022.350000000001
 21
1990.1418959116779
 31
0.0015258207003583
  0
LINE
  5
A2
  8
0
 10
1872.349999999997
 20
0.1418959116904546
 30
0.0015258207003583
 11
1877.6499999999969
 21
0.1418959116904448
 31
0.0015258207003583
  0
LINE
  5
A3
  8
0
 10
1877.6500000000001
 20
1990.14189591169
 30
0.0015258207003583
 11
1872.350000000001
 21
1990.14189591169
 31
0.0015258207003583
  0
LINE
  5
A4
  8
0
 10
1722.3499999999981
 20
0.1418959117002095
 30
0.0015258207003583
 11
1727.6499999999969
 21
0.1418959117001998
 31
0.0015258207003583
  0
LINE
  5
A5
  8
0
 10
1727.650000000001
 20
1990.1418959117
 30
0.0015258207003583
 11
1722.350000000001
 21
1990.1418959117
 31
0.0015258207003583
  0
LINE
  5
A6
  8
0
 10
1572.3499999999981
 20
0.1418959117132131
 30
0.0015258207003583
 11
1577.649999999998
 21
0.1418959117132034
 31
0.0015258207003583
  0
LINE
  5
A7
  8
0
 10
1577.650000000001
 20
1990.1418959117129
 30
0.0015258207003583
 11
1572.350000000002
 21
1990.1418959117129
 31
0.0015258207003583
  0
LINE
  5
A8
  8
0
 10
1422.3499999999981
 20
0.1418959117245924
 30
0.0015258207003583
 11
1427.649999999998
 21
0.1418959117245827
 31
0.0015258207003583
  0
LINE
  5
A9
  8
0
 10
1427.6500000000019
 20
1990.1418959117241
 30
0.0015258207003583
 11
1422.350000000002
 21
1990.1418959117241
 31
0.0015258207003583
  0
LINE
  5
AA
  8
0
 10
1272.349999999999
 20
0.1418959117359717
 30
0.0015258207003583
 11
1277.649999999999
 21
0.141895911735962
 31
0.0015258207003583
  0
LINE
  5
AB
  8
0
 10
1277.650000000003
 20
1990.1418959117359
 30
0.0015258207003583
 11
1272.350000000002
 21
1990.1418959117359
 31
0.0015258207003583
  0
LINE
  5
AC
  8
0
 10
1122.349999999999
 20
0.141895911747351
 30
0.0015258207003583
 11
1127.6500000000001
 21
0.1418959117473413
 31
0.0015258207003583
  0
LINE
  5
AD
  8
0
 10
1127.650000000003
 20
1990.141895911747
 30
0.0015258207003583
 11
1122.3500000000031
 21
1990.141895911747
 31
0.0015258207003583
  0
LINE
  5
AE
  8
0
 10
972.34999999999991
 20
0.141895911759001
 30
0.0015258207003583
 11
977.64999999999998
 21
0.1418959117589913
 31
0.0015258207003583
  0
LINE
  5
AF
  8
0
 10
977.65000000000373
 20
1990.1418959117591
 30
0.0015258207003583
 11
972.350000000004
 21
1990.1418959117591
 31
0.0015258207003583
  0
LINE
  5
B0
  8
0
 10
822.35000000000082
 20
0.1418959117701096
 30
0.0015258207003583
 11
827.65000000000055
 21
0.1418959117700999
 31
0.0015258207003583
  0
LINE
  5
B1
  8
0
 10
827.65000000000407
 20
1990.14189591177
 30
0.0015258207003583
 11
822.35000000000434
 21
1990.14189591177
 31
0.0015258207003583
  0
LINE
  5
B2
  8
0
 10
672.35000000000116
 20
0.1418959117817596
 30
0.0015258207003583
 11
677.650000000001
 21
0.1418959117817499
 31
0.0015258207003583
  0
LINE
  5
B3
  8
0
 10
677.65000000000464
 20
1990.1418959117809
 30
0.0015258207003583
 11
672.35000000000491
 21
1990.1418959117809
 31
0.0015258207003583
  0
LINE
  5
B4
  8
0
 10
522.35000000000116
 20
0.1418959117928682
 30
0.0015258207003583
 11
527.65000000000146
 21
0.1418959117928584
 31
0.0015258207003583
  0
LINE
  5
B5
  8
0
 10
527.65000000000509
 20
1990.1418959117921
 30
0.0015258207003583
 11
522.35000000000582
 21
1990.1418959117921
 31
0.0015258207003583
  0
LINE
  5
B6
  8
0
 10
372.35000000000218
 20
0.1418959118064132
 30
0.0015258207003583
 11
377.65000000000231
 21
0.1418959118064035
 31
0.0015258207003583
  0
LINE
  5
B7
  8
0
 10
377.650000000006
 20
1990.1418959118059
 30
0.0015258207003583
 11
372.35000000000582
 21
1990.1418959118059
 31
0.0015258207003583
  0
LINE
  5
B8
  8
0
 10
222.35000000000309
 20
0.1418959118177925
 30
0.0015258207003583
 11
227.65000000000231
 21
0.1418959118177827
 31
0.0015258207003583
  0
LINE
  5
B9
  8
0
 10
227.650000000006
 20
1990.1418959118171
 30
0.0015258207003583
 11
222.3500000000067
 21
1990.1418959118171
 31
0.0015258207003583
  0
LINE
  5
BA
  8
0
 10
72.350000000003092
 20
0.1418959118291718
 30
0.0015258207003583
 11
77.650000000003274
 21
0.141895911829162
 31
0.0015258207003583
  0
LINE
  5
BB
  8
0
 10
77.650000000006912
 20
1990.1418959118289
 30
0.0015258207003583
 11
72.35000000000673
 21
1990.1418959118289
 31
0.0015258207003583
  0
LINE
  5
BC
  8
0
 10
0.0
 20
22.791895911821651
 30
0.0015258207003583
 11
0.0
 21
17.491895911821651
 31
0.0015258207003583
  0
LINE
  5
BD
  8
0
 10
4650.0
 20
17.491895911821359
 30
0.0015258207003583
 11
4650.0
 21
22.79189591182136
 31
0.0015258207003583
  0
LINE
  5
BE
  8
DEFPOINTS
 10
74.999999999999091
 20
1770.1418959118309
 30
0.0015258207003583
 11
74.999999999999091
 21
20.14189591182814
 31
0.0015258207003583
1001
REVIT
1002
{
1070
     3
1000
-2009512
1002
}
  0
LINE
  5
C2
  8
DEFPOINTS
 10
4374.9999999999891
 20
1770.1418959118309
 30
0.0015258207003583
 11
74.999999999999091
 21
1770.1418959118309
 31
0.0015258207003583
1001
REVIT
1002
{
1070
     3
1000
-2009512
1002
}
  0
LINE
  5
C3
  8
DEFPOINTS
 10
4374.9999999999891
 20
20.14189591182781
 30
0.0015258207003583
 11
4374.9999999999891
 21
1770.1418959118309
 31
0.0015258207003583
1001
REVIT
1002
{
1070
     3
1000
-2009512
1002
}
  0
LINE
  5
C4
  8
DEFPOINTS
 10
74.999999999999091
 20
20.141895911828069
 30
0.0015258207003583
 11
4374.9999999999891
 21
20.14189591182781
 31
0.0015258207003583
1001
REVIT
1002
{
1070
     3
1000
-2009512
1002
}
  0
LINE
  5
C5
  8
0
 10
4577.6499999999915
 20
1972.791895911819
 30
0.0015258207003583
 11
4577.6499999999915
 21
1990.1418959114801
 31
0.0015258207003583
  0
LINE
  5
C6
  8
0
 10
4577.6499999999896
 20
1822.791895911821
 30
0.0015258207003583
 11
4577.6499999999915
 21
1967.4918959118211
 31
0.0015258207003583
  0
LINE
  5
C7
  8
0
 10
4577.6499999999896
 20
1672.7918959118199
 30
0.0015258207003583
 11
4577.6499999999896
 21
1817.4918959118199
 31
0.0015258207003583
  0
LINE
  5
C8
  8
0
 10
4577.6499999999896
 20
1522.7918959118199
 30
0.0015258207003583
 11
4577.6499999999896
 21
1667.491895911819
 31
0.0015258207003583
  0
LINE
  5
C9
  8
0
 10
4577.6499999999896
 20
1372.791895911819
 30
0.0015258207003583
 11
4577.6499999999896
 21
1517.4918959118211
 31
0.0015258207003583
  0
LINE
  5
CA
  8
0
 10
4577.6499999999896
 20
1222.791895911821
 30
0.0015258207003583
 11
4577.6499999999896
 21
1367.4918959118199
 31
0.0015258207003583
  0
LINE
  5
CB
  8
0
 10
4577.6499999999896
 20
1072.7918959118199
 30
0.0015258207003583
 11
4577.6499999999896
 21
1217.4918959118199
 31
0.0015258207003583
  0
LINE
  5
CC
  8
0
 10
4577.6499999999896
 20
922.79189591182001
 30
0.0015258207003583
 11
4577.6499999999896
 21
1067.491895911822
 31
0.0015258207003583
  0
LINE
  5
CD
  8
0
 10
4577.6499999999878
 20
772.79189591182194
 30
0.0015258207003583
 11
4577.6499999999896
 21
917.49189591182142
 31
0.0015258207003583
  0
LINE
  5
CE
  8
0
 10
4577.6499999999878
 20
622.79189591182137
 30
0.0015258207003583
 11
4577.6499999999878
 21
767.49189591182085
 31
0.0015258207003583
  0
LINE
  5
CF
  8
0
 10
4577.6499999999878
 20
472.79189591182092
 30
0.0015258207003583
 11
4577.6499999999878
 21
617.49189591182039
 31
0.0015258207003583
  0
LINE
  5
D0
  8
0
 10
4577.6499999999869
 20
322.79189591182052
 30
0.0015258207003583
 11
4577.6499999999878
 21
467.49189591182221
 31
0.0015258207003583
  0
LINE
  5
D1
  8
0
 10
4577.6499999999869
 20
172.79189591182211
 30
0.0015258207003583
 11
4577.6499999999869
 21
317.49189591182159
 31
0.0015258207003583
  0
LINE
  5
D2
  8
0
 10
4577.6499999999869
 20
22.791895911821559
 30
0.0015258207003583
 11
4577.6499999999869
 21
167.4918959118211
 31
0.0015258207003583
  0
LINE
  5
D3
  8
0
 10
4577.6499999999869
 20
0.1418959114802033
 30
0.0015258207003583
 11
4577.6499999999869
 21
17.49189591182169
 31
0.0015258207003583
  0
LINE
  5
D4
  8
0
 10
4572.3499999999876
 20
17.491895911820698
 30
0.0015258207003583
 11
4572.3499999999876
 21
0.141895911480213
 31
0.0015258207003583
  0
LINE
  5
D5
  8
0
 10
4572.3499999999876
 20
167.49189591182019
 30
0.0015258207003583
 11
4572.3499999999876
 21
22.791895911820589
 31
0.0015258207003583
  0
LINE
  5
D6
  8
0
 10
4572.3499999999876
 20
317.49189591182068
 30
0.0015258207003583
 11
4572.3499999999876
 21
172.791895911821
 31
0.0015258207003583
  0
LINE
  5
D7
  8
0
 10
4572.3499999999876
 20
467.49189591182142
 30
0.0015258207003583
 11
4572.3499999999876
 21
322.79189591181949
 31
0.0015258207003583
  0
LINE
  5
D8
  8
0
 10
4572.3499999999876
 20
617.49189591181994
 30
0.0015258207003583
 11
4572.3499999999876
 21
472.79189591182018
 31
0.0015258207003583
  0
LINE
  5
D9
  8
0
 10
4572.3499999999876
 20
767.49189591182051
 30
0.0015258207003583
 11
4572.3499999999876
 21
622.79189591182092
 31
0.0015258207003583
  0
LINE
  5
DA
  8
0
 10
4572.3499999999894
 20
917.49189591182096
 30
0.0015258207003583
 11
4572.3499999999876
 21
772.79189591182137
 31
0.0015258207003583
  0
LINE
  5
DB
  8
0
 10
4572.3499999999894
 20
1067.491895911822
 30
0.0015258207003583
 11
4572.3499999999894
 21
922.79189591181978
 31
0.0015258207003583
  0
LINE
  5
DC
  8
0
 10
4572.3499999999894
 20
1217.4918959118199
 30
0.0015258207003583
 11
4572.3499999999894
 21
1072.7918959118199
 31
0.0015258207003583
  0
LINE
  5
DD
  8
0
 10
4572.3499999999904
 20
1367.4918959118211
 30
0.0015258207003583
 11
4572.3499999999894
 21
1222.791895911821
 31
0.0015258207003583
  0
LINE
  5
DE
  8
0
 10
4572.3499999999904
 20
1517.4918959118211
 30
0.0015258207003583
 11
4572.3499999999904
 21
1372.791895911819
 31
0.0015258207003583
  0
LINE
  5
DF
  8
0
 10
4572.3499999999904
 20
1667.4918959118199
 30
0.0015258207003583
 11
4572.3499999999904
 21
1522.7918959118199
 31
0.0015258207003583
  0
LINE
  5
E0
  8
0
 10
4572.3499999999922
 20
1817.4918959118199
 30
0.0015258207003583
 11
4572.3499999999904
 21
1672.791895911821
 31
0.0015258207003583
  0
LINE
  5
E1
  8
0
 10
4572.3499999999922
 20
1967.4918959118211
 30
0.0015258207003583
 11
4572.3499999999922
 21
1822.791895911821
 31
0.0015258207003583
  0
LINE
  5
E2
  8
0
 10
4572.3499999999922
 20
1990.1418959114801
 30
0.0015258207003583
 11
4572.3499999999922
 21
1972.791895911819
 31
0.0015258207003583
  0
LINE
  5
E3
  8
0
 10
4427.6499999999915
 20
1972.7918959118199
 30
0.0015258207003583
 11
4427.6499999999915
 21
1990.1418959114931
 31
0.0015258207003583
  0
LINE
  5
E4
  8
0
 10
4427.6499999999915
 20
1822.791895911821
 30
0.0015258207003583
 11
4427.6499999999915
 21
1967.4918959118211
 31
0.0015258207003583
  0
LINE
  5
E5
  8
0
 10
4427.6499999999915
 20
1672.7918959118199
 30
0.0015258207003583
 11
4427.6499999999915
 21
1817.4918959118199
 31
0.0015258207003583
  0
LINE
  5
E6
  8
0
 10
4427.6499999999896
 20
1522.7918959118199
 30
0.0015258207003583
 11
4427.6499999999915
 21
1667.4918959118199
 31
0.0015258207003583
  0
LINE
  5
E7
  8
0
 10
4427.6499999999896
 20
1372.791895911819
 30
0.0015258207003583
 11
4427.6499999999896
 21
1517.4918959118211
 31
0.0015258207003583
  0
LINE
  5
E8
  8
0
 10
4427.6499999999896
 20
1222.7918959118219
 30
0.0015258207003583
 11
4427.6499999999896
 21
1367.4918959118211
 31
0.0015258207003583
  0
LINE
  5
E9
  8
0
 10
4427.6499999999896
 20
1072.791895911821
 30
0.0015258207003583
 11
4427.6499999999896
 21
1217.4918959118211
 31
0.0015258207003583
  0
LINE
  5
EA
  8
0
 10
4427.6499999999896
 20
922.79189591182057
 30
0.0015258207003583
 11
4427.6499999999896
 21
1067.491895911822
 31
0.0015258207003583
  0
LINE
  5
EB
  8
0
 10
4427.6499999999896
 20
772.79189591182205
 30
0.0015258207003583
 11
4427.6499999999896
 21
917.49189591182164
 31
0.0015258207003583
  0
LINE
  5
EC
  8
0
 10
4427.6499999999878
 20
622.79189591182148
 30
0.0015258207003583
 11
4427.6499999999896
 21
767.49189591182119
 31
0.0015258207003583
  0
LINE
  5
ED
  8
0
 10
4427.6499999999878
 20
472.79189591182109
 30
0.0015258207003583
 11
4427.6499999999878
 21
617.49189591182062
 31
0.0015258207003583
  0
LINE
  5
EE
  8
0
 10
4427.6499999999878
 20
322.79189591182052
 30
0.0015258207003583
 11
4427.6499999999878
 21
467.49189591182221
 31
0.0015258207003583
  0
LINE
  5
EF
  8
0
 10
4427.6499999999878
 20
172.79189591182211
 30
0.0015258207003583
 11
4427.6499999999878
 21
317.49189591182159
 31
0.0015258207003583
  0
LINE
  5
F0
  8
0
 10
4427.6499999999878
 20
22.79189591182158
 30
0.0015258207003583
 11
4427.6499999999878
 21
167.4918959118211
 31
0.0015258207003583
  0
LINE
  5
F1
  8
0
 10
4427.6499999999878
 20
0.1418959114932069
 30
0.0015258207003583
 11
4427.6499999999878
 21
17.4918959118217
 31
0.0015258207003583
  0
LINE
  5
F2
  8
0
 10
4422.3499999999876
 20
17.491895911821778
 30
0.0015258207003583
 11
4422.3499999999876
 21
0.1418959114932166
 31
0.0015258207003583
  0
LINE
  5
F3
  8
0
 10
4422.3499999999894
 20
167.4918959118211
 30
0.0015258207003583
 11
4422.3499999999894
 21
22.79189591182168
 31
0.0015258207003583
  0
LINE
  5
F4
  8
0
 10
4422.3499999999894
 20
317.49189591182193
 30
0.0015258207003583
 11
4422.3499999999894
 21
172.79189591182211
 31
0.0015258207003583
  0
LINE
  5
F5
  8
0
 10
4422.3499999999894
 20
467.49189591182221
 30
0.0015258207003583
 11
4422.3499999999894
 21
322.79189591182057
 31
0.0015258207003583
  0
LINE
  5
F6
  8
0
 10
4422.3499999999904
 20
617.49189591182062
 30
0.0015258207003583
 11
4422.3499999999894
 21
472.79189591182092
 31
0.0015258207003583
  0
LINE
  5
F7
  8
0
 10
4422.3499999999904
 20
767.49189591182096
 30
0.0015258207003583
 11
4422.3499999999904
 21
622.79189591182148
 31
0.0015258207003583
  0
LINE
  5
F8
  8
0
 10
4422.3499999999904
 20
917.49189591182187
 30
0.0015258207003583
 11
4422.3499999999904
 21
772.79189591182217
 31
0.0015258207003583
  0
LINE
  5
F9
  8
0
 10
4422.3499999999904
 20
1067.491895911822
 30
0.0015258207003583
 11
4422.3499999999904
 21
922.79189591182069
 31
0.0015258207003583
  0
LINE
  5
FA
  8
0
 10
4422.3499999999904
 20
1217.4918959118211
 30
0.0015258207003583
 11
4422.3499999999904
 21
1072.791895911821
 31
0.0015258207003583
  0
LINE
  5
FB
  8
0
 10
4422.3499999999904
 20
1367.4918959118211
 30
0.0015258207003583
 11
4422.3499999999904
 21
1222.7918959118219
 31
0.0015258207003583
  0
LINE
  5
FC
  8
0
 10
4422.3499999999913
 20
1517.4918959118211
 30
0.0015258207003583
 11
4422.3499999999904
 21
1372.7918959118199
 31
0.0015258207003583
  0
LINE
  5
FD
  8
0
 10
4422.3499999999913
 20
1667.4918959118199
 30
0.0015258207003583
 11
4422.3499999999913
 21
1522.7918959118199
 31
0.0015258207003583
  0
LINE
  5
FE
  8
0
 10
4422.3499999999913
 20
1817.4918959118199
 30
0.0015258207003583
 11
4422.3499999999913
 21
1672.791895911821
 31
0.0015258207003583
  0
LINE
  5
FF
  8
0
 10
4422.3499999999913
 20
1967.4918959118211
 30
0.0015258207003583
 11
4422.3499999999913
 21
1822.791895911821
 31
0.0015258207003583
  0
LINE
  5
100
  8
0
 10
4422.3499999999913
 20
1990.1418959114931
 30
0.0015258207003583
 11
4422.3499999999913
 21
1972.791895911819
 31
0.0015258207003583
  0
LINE
  5
101
  8
0
 10
4277.6499999999933
 20
1972.791895911819
 30
0.0015258207003583
 11
4277.6499999999933
 21
1990.141895911504
 31
0.0015258207003583
  0
LINE
  5
102
  8
0
 10
4277.6499999999933
 20
1822.791895911821
 30
0.0015258207003583
 11
4277.6499999999933
 21
1967.4918959118211
 31
0.0015258207003583
  0
LINE
  5
103
  8
0
 10
4277.6499999999915
 20
1672.7918959118199
 30
0.0015258207003583
 11
4277.6499999999933
 21
1817.4918959118199
 31
0.0015258207003583
  0
LINE
  5
104
  8
0
 10
4277.6499999999915
 20
1522.7918959118199
 30
0.0015258207003583
 11
4277.6499999999915
 21
1667.4918959118199
 31
0.0015258207003583
  0
LINE
  5
105
  8
0
 10
4277.6499999999896
 20
1372.791895911819
 30
0.0015258207003583
 11
4277.6499999999915
 21
1517.4918959118211
 31
0.0015258207003583
  0
LINE
  5
106
  8
0
 10
4277.6499999999896
 20
1222.791895911821
 30
0.0015258207003583
 11
4277.6499999999896
 21
1367.4918959118199
 31
0.0015258207003583
  0
LINE
  5
107
  8
0
 10
4277.6499999999896
 20
1072.791895911821
 30
0.0015258207003583
 11
4277.6499999999896
 21
1217.4918959118199
 31
0.0015258207003583
  0
LINE
  5
108
  8
0
 10
4277.6499999999896
 20
922.79189591182023
 30
0.0015258207003583
 11
4277.6499999999896
 21
1067.491895911822
 31
0.0015258207003583
  0
LINE
  5
109
  8
0
 10
4277.6499999999887
 20
772.79189591182194
 30
0.0015258207003583
 11
4277.6499999999896
 21
917.49189591182153
 31
0.0015258207003583
  0
LINE
  5
10A
  8
0
 10
4277.6499999999887
 20
622.79189591182137
 30
0.0015258207003583
 11
4277.6499999999887
 21
767.49189591182096
 31
0.0015258207003583
  0
LINE
  5
10B
  8
0
 10
4277.6499999999887
 20
472.79189591182092
 30
0.0015258207003583
 11
4277.6499999999887
 21
617.49189591182051
 31
0.0015258207003583
  0
LINE
  5
10C
  8
0
 10
4277.6499999999887
 20
322.79189591182052
 30
0.0015258207003583
 11
4277.6499999999887
 21
467.49189591182221
 31
0.0015258207003583
  0
LINE
  5
10D
  8
0
 10
4277.6499999999878
 20
172.79189591182211
 30
0.0015258207003583
 11
4277.6499999999887
 21
317.49189591182159
 31
0.0015258207003583
  0
LINE
  5
10E
  8
0
 10
4277.6499999999878
 20
22.79189591182158
 30
0.0015258207003583
 11
4277.6499999999878
 21
167.4918959118211
 31
0.0015258207003583
  0
LINE
  5
10F
  8
0
 10
4277.6499999999878
 20
0.1418959115040447
 30
0.0015258207003583
 11
4277.6499999999878
 21
17.491895911821711
 31
0.0015258207003583
  0
LINE
  5
110
  8
0
 10
4272.3499999999876
 20
17.491895911820691
 30
0.0015258207003583
 11
4272.3499999999876
 21
0.1418959115040544
 31
0.0015258207003583
  0
LINE
  5
111
  8
0
 10
4272.3499999999876
 20
167.49189591182031
 30
0.0015258207003583
 11
4272.3499999999876
 21
22.791895911820589
 31
0.0015258207003583
  0
LINE
  5
112
  8
0
 10
4272.3499999999894
 20
317.49189591182102
 30
0.0015258207003583
 11
4272.3499999999876
 21
172.79189591182131
 31
0.0015258207003583
  0
LINE
  5
113
  8
0
 10
4272.3499999999894
 20
467.49189591182142
 30
0.0015258207003583
 11
4272.3499999999894
 21
322.79189591181978
 31
0.0015258207003583
  0
LINE
  5
114
  8
0
 10
4272.3499999999894
 20
617.49189591182005
 30
0.0015258207003583
 11
4272.3499999999894
 21
472.79189591182012
 31
0.0015258207003583
  0
LINE
  5
115
  8
0
 10
4272.3499999999904
 20
767.49189591182062
 30
0.0015258207003583
 11
4272.3499999999894
 21
622.79189591182092
 31
0.0015258207003583
  0
LINE
  5
116
  8
0
 10
4272.3499999999904
 20
917.49189591182119
 30
0.0015258207003583
 11
4272.3499999999904
 21
772.79189591182148
 31
0.0015258207003583
  0
LINE
  5
117
  8
0
 10
4272.3499999999904
 20
1067.491895911822
 30
0.0015258207003583
 11
4272.3499999999904
 21
922.79189591182001
 31
0.0015258207003583
  0
LINE
  5
118
  8
0
 10
4272.3499999999904
 20
1217.4918959118199
 30
0.0015258207003583
 11
4272.3499999999904
 21
1072.791895911821
 31
0.0015258207003583
  0
LINE
  5
119
  8
0
 10
4272.3499999999913
 20
1367.4918959118211
 30
0.0015258207003583
 11
4272.3499999999904
 21
1222.791895911821
 31
0.0015258207003583
  0
LINE
  5
11A
  8
0
 10
4272.3499999999913
 20
1517.4918959118211
 30
0.0015258207003583
 11
4272.3499999999913
 21
1372.791895911819
 31
0.0015258207003583
  0
LINE
  5
11B
  8
0
 10
4272.3499999999913
 20
1667.4918959118199
 30
0.0015258207003583
 11
4272.3499999999913
 21
1522.7918959118199
 31
0.0015258207003583
  0
LINE
  5
11C
  8
0
 10
4272.3499999999922
 20
1817.4918959118199
 30
0.0015258207003583
 11
4272.3499999999913
 21
1672.791895911821
 31
0.0015258207003583
  0
LINE
  5
11D
  8
0
 10
4272.3499999999922
 20
1967.4918959118211
 30
0.0015258207003583
 11
4272.3499999999922
 21
1822.791895911821
 31
0.0015258207003583
  0
LINE
  5
11E
  8
0
 10
4272.3499999999922
 20
1990.141895911504
 30
0.0015258207003583
 11
4272.3499999999922
 21
1972.7918959118199
 31
0.0015258207003583
  0
LINE
  5
11F
  8
0
 10
4127.6499999999924
 20
1972.7918959118219
 30
0.0015258207003583
 11
4127.6499999999924
 21
1990.1418959115149
 31
0.0015258207003583
  0
LINE
  5
120
  8
0
 10
4127.6499999999924
 20
1822.7918959118231
 30
0.0015258207003583
 11
4127.6499999999924
 21
1967.4918959118229
 31
0.0015258207003583
  0
LINE
  5
121
  8
0
 10
4127.6499999999924
 20
1672.7918959118219
 30
0.0015258207003583
 11
4127.6499999999924
 21
1817.4918959118229
 31
0.0015258207003583
  0
LINE
  5
122
  8
0
 10
4127.6499999999924
 20
1522.7918959118219
 30
0.0015258207003583
 11
4127.6499999999924
 21
1667.4918959118211
 31
0.0015258207003583
  0
LINE
  5
123
  8
0
 10
4127.6499999999915
 20
1372.791895911821
 30
0.0015258207003583
 11
4127.6499999999924
 21
1517.4918959118229
 31
0.0015258207003583
  0
LINE
  5
124
  8
0
 10
4127.6499999999915
 20
1222.7918959118231
 30
0.0015258207003583
 11
4127.6499999999915
 21
1367.491895911822
 31
0.0015258207003583
  0
LINE
  5
125
  8
0
 10
4127.6499999999915
 20
1072.7918959118219
 30
0.0015258207003583
 11
4127.6499999999915
 21
1217.491895911822
 31
0.0015258207003583
  0
LINE
  5
126
  8
0
 10
4127.6499999999915
 20
922.79189591182126
 30
0.0015258207003583
 11
4127.6499999999915
 21
1067.4918959118229
 31
0.0015258207003583
  0
LINE
  5
127
  8
0
 10
4127.6499999999915
 20
772.79189591182273
 30
0.0015258207003583
 11
4127.6499999999915
 21
917.49189591182255
 31
0.0015258207003583
  0
LINE
  5
128
  8
0
 10
4127.6499999999915
 20
622.79189591182217
 30
0.0015258207003583
 11
4127.6499999999915
 21
767.49189591182164
 31
0.0015258207003583
  0
LINE
  5
129
  8
0
 10
4127.6499999999915
 20
472.79189591182143
 30
0.0015258207003583
 11
4127.6499999999915
 21
617.49189591182119
 31
0.0015258207003583
  0
LINE
  5
12A
  8
0
 10
4127.6499999999896
 20
322.79189591182069
 30
0.0015258207003583
 11
4127.6499999999915
 21
467.49189591182261
 31
0.0015258207003583
  0
LINE
  5
12B
  8
0
 10
4127.6499999999896
 20
172.79189591182231
 30
0.0015258207003583
 11
4127.6499999999896
 21
317.49189591182198
 31
0.0015258207003583
  0
LINE
  5
12C
  8
0
 10
4127.6499999999878
 20
22.791895911821619
 30
0.0015258207003583
 11
4127.6499999999896
 21
167.4918959118213
 31
0.0015258207003583
  0
LINE
  5
12D
  8
0
 10
4127.6499999999878
 20
0.1418959115148826
 30
0.0015258207003583
 11
4127.6499999999878
 21
17.491895911821729
 31
0.0015258207003583
  0
LINE
  5
12E
  8
0
 10
4122.3499999999894
 20
17.491895911820691
 30
0.0015258207003583
 11
4122.3499999999894
 21
0.1418959115148923
 31
0.0015258207003583
  0
LINE
  5
12F
  8
0
 10
4122.3499999999894
 20
167.49189591182051
 30
0.0015258207003583
 11
4122.3499999999894
 21
22.791895911820589
 31
0.0015258207003583
  0
LINE
  5
130
  8
0
 10
4122.3499999999894
 20
317.49189591182119
 30
0.0015258207003583
 11
4122.3499999999894
 21
172.79189591182131
 31
0.0015258207003583
  0
LINE
  5
131
  8
0
 10
4122.3499999999904
 20
467.49189591182198
 30
0.0015258207003583
 11
4122.3499999999894
 21
322.79189591181989
 31
0.0015258207003583
  0
LINE
  5
132
  8
0
 10
4122.3499999999904
 20
617.49189591182062
 30
0.0015258207003583
 11
4122.3499999999904
 21
472.7918959118208
 31
0.0015258207003583
  0
LINE
  5
133
  8
0
 10
4122.3499999999904
 20
767.4918959118213
 30
0.0015258207003583
 11
4122.3499999999904
 21
622.79189591182137
 31
0.0015258207003583
  0
LINE
  5
134
  8
0
 10
4122.3499999999913
 20
917.49189591182244
 30
0.0015258207003583
 11
4122.3499999999904
 21
772.79189591182228
 31
0.0015258207003583
  0
LINE
  5
135
  8
0
 10
4122.3499999999913
 20
1067.4918959118229
 30
0.0015258207003583
 11
4122.3499999999913
 21
922.79189591182126
 31
0.0015258207003583
  0
LINE
  5
136
  8
0
 10
4122.3499999999913
 20
1217.491895911822
 30
0.0015258207003583
 11
4122.3499999999913
 21
1072.7918959118219
 31
0.0015258207003583
  0
LINE
  5
137
  8
0
 10
4122.3499999999913
 20
1367.491895911822
 30
0.0015258207003583
 11
4122.3499999999913
 21
1222.7918959118231
 31
0.0015258207003583
  0
LINE
  5
138
  8
0
 10
4122.3499999999922
 20
1517.4918959118229
 30
0.0015258207003583
 11
4122.3499999999913
 21
1372.791895911821
 31
0.0015258207003583
  0
LINE
  5
139
  8
0
 10
4122.3499999999922
 20
1667.491895911822
 30
0.0015258207003583
 11
4122.3499999999922
 21
1522.7918959118219
 31
0.0015258207003583
  0
LINE
  5
13A
  8
0
 10
4122.3499999999922
 20
1817.4918959118229
 30
0.0015258207003583
 11
4122.3499999999922
 21
1672.7918959118231
 31
0.0015258207003583
  0
LINE
  5
13B
  8
0
 10
4122.3499999999922
 20
1967.4918959118229
 30
0.0015258207003583
 11
4122.3499999999922
 21
1822.7918959118231
 31
0.0015258207003583
  0
LINE
  5
13C
  8
0
 10
4122.3499999999922
 20
1990.1418959115149
 30
0.0015258207003583
 11
4122.3499999999922
 21
1972.7918959118219
 31
0.0015258207003583
  0
LINE
  5
13D
  8
0
 10
3977.6499999999928
 20
1972.791895911819
 30
0.0015258207003583
 11
3977.6499999999928
 21
1990.1418959115269
 31
0.0015258207003583
  0
LINE
  5
13E
  8
0
 10
3977.6499999999928
 20
1822.791895911821
 30
0.0015258207003583
 11
3977.6499999999928
 21
1967.4918959118211
 31
0.0015258207003583
  0
LINE
  5
13F
  8
0
 10
3977.6499999999928
 20
1672.7918959118199
 30
0.0015258207003583
 11
3977.6499999999928
 21
1817.4918959118199
 31
0.0015258207003583
  0
LINE
  5
140
  8
0
 10
3977.6499999999928
 20
1522.7918959118199
 30
0.0015258207003583
 11
3977.6499999999928
 21
1667.4918959118199
 31
0.0015258207003583
  0
LINE
  5
141
  8
0
 10
3977.6499999999928
 20
1372.791895911819
 30
0.0015258207003583
 11
3977.6499999999928
 21
1517.4918959118211
 31
0.0015258207003583
  0
LINE
  5
142
  8
0
 10
3977.6499999999928
 20
1222.791895911821
 30
0.0015258207003583
 11
3977.6499999999928
 21
1367.4918959118199
 31
0.0015258207003583
  0
LINE
  5
143
  8
0
 10
3977.6499999999919
 20
1072.791895911821
 30
0.0015258207003583
 11
3977.6499999999928
 21
1217.4918959118199
 31
0.0015258207003583
  0
LINE
  5
144
  8
0
 10
3977.6499999999919
 20
922.79189591182023
 30
0.0015258207003583
 11
3977.6499999999919
 21
1067.491895911822
 31
0.0015258207003583
  0
LINE
  5
145
  8
0
 10
3977.6499999999919
 20
772.79189591182205
 30
0.0015258207003583
 11
3977.6499999999919
 21
917.49189591182153
 31
0.0015258207003583
  0
LINE
  5
146
  8
0
 10
3977.6499999999919
 20
622.79189591182137
 30
0.0015258207003583
 11
3977.6499999999919
 21
767.49189591182096
 31
0.0015258207003583
  0
LINE
  5
147
  8
0
 10
3977.649999999991
 20
472.79189591182092
 30
0.0015258207003583
 11
3977.6499999999919
 21
617.49189591182039
 31
0.0015258207003583
  0
LINE
  5
148
  8
0
 10
3977.649999999991
 20
322.79189591182052
 30
0.0015258207003583
 11
3977.649999999991
 21
467.49189591182221
 31
0.0015258207003583
  0
LINE
  5
149
  8
0
 10
3977.6499999999901
 20
172.79189591182211
 30
0.0015258207003583
 11
3977.649999999991
 21
317.4918959118217
 31
0.0015258207003583
  0
LINE
  5
14A
  8
0
 10
3977.6499999999901
 20
22.791895911821609
 30
0.0015258207003583
 11
3977.6499999999901
 21
167.4918959118211
 31
0.0015258207003583
  0
LINE
  5
14B
  8
0
 10
3977.6499999999901
 20
0.1418959115278862
 30
0.0015258207003583
 11
3977.6499999999901
 21
17.491895911821729
 31
0.0015258207003583
  0
LINE
  5
14C
  8
0
 10
3972.3499999999899
 20
17.491895911820659
 30
0.0015258207003583
 11
3972.3499999999899
 21
0.1418959115278959
 31
0.0015258207003583
  0
LINE
  5
14D
  8
0
 10
3972.3499999999899
 20
167.49189591182019
 30
0.0015258207003583
 11
3972.3499999999899
 21
22.791895911820561
 31
0.0015258207003583
  0
LINE
  5
14E
  8
0
 10
3972.3499999999899
 20
317.49189591182102
 30
0.0015258207003583
 11
3972.3499999999899
 21
172.7918959118212
 31
0.0015258207003583
  0
LINE
  5
14F
  8
0
 10
3972.3499999999899
 20
467.49189591182159
 30
0.0015258207003583
 11
3972.3499999999899
 21
322.79189591181978
 31
0.0015258207003583
  0
LINE
  5
150
  8
0
 10
3972.3499999999908
 20
617.49189591182005
 30
0.0015258207003583
 11
3972.3499999999899
 21
472.79189591182052
 31
0.0015258207003583
  0
LINE
  5
151
  8
0
 10
3972.3499999999908
 20
767.49189591182085
 30
0.0015258207003583
 11
3972.3499999999908
 21
622.79189591182103
 31
0.0015258207003583
  0
LINE
  5
152
  8
0
 10
3972.3499999999908
 20
917.49189591182153
 30
0.0015258207003583
 11
3972.3499999999908
 21
772.79189591182171
 31
0.0015258207003583
  0
LINE
  5
153
  8
0
 10
3972.3499999999908
 20
1067.491895911822
 30
0.0015258207003583
 11
3972.3499999999908
 21
922.79189591182023
 31
0.0015258207003583
  0
LINE
  5
154
  8
0
 10
3972.3499999999931
 20
1217.4918959118211
 30
0.0015258207003583
 11
3972.3499999999908
 21
1072.791895911821
 31
0.0015258207003583
  0
LINE
  5
155
  8
0
 10
3972.3499999999931
 20
1367.4918959118211
 30
0.0015258207003583
 11
3972.3499999999931
 21
1222.791895911821
 31
0.0015258207003583
  0
LINE
  5
156
  8
0
 10
3972.3499999999931
 20
1517.4918959118211
 30
0.0015258207003583
 11
3972.3499999999931
 21
1372.791895911819
 31
0.0015258207003583
  0
LINE
  5
157
  8
0
 10
3972.3499999999931
 20
1667.4918959118199
 30
0.0015258207003583
 11
3972.3499999999931
 21
1522.7918959118199
 31
0.0015258207003583
  0
LINE
  5
158
  8
0
 10
3972.3499999999931
 20
1817.4918959118199
 30
0.0015258207003583
 11
3972.3499999999931
 21
1672.791895911821
 31
0.0015258207003583
  0
LINE
  5
159
  8
0
 10
3972.3499999999931
 20
1967.4918959118211
 30
0.0015258207003583
 11
3972.3499999999931
 21
1822.791895911821
 31
0.0015258207003583
  0
LINE
  5
15A
  8
0
 10
3972.3499999999931
 20
1990.1418959115269
 30
0.0015258207003583
 11
3972.3499999999931
 21
1972.7918959118199
 31
0.0015258207003583
  0
LINE
  5
15B
  8
0
 10
3827.6499999999942
 20
1972.791895911819
 30
0.0015258207003583
 11
3827.6499999999942
 21
1990.1418959115381
 31
0.0015258207003583
  0
LINE
  5
15C
  8
0
 10
3827.6499999999942
 20
1822.791895911821
 30
0.0015258207003583
 11
3827.6499999999942
 21
1967.4918959118211
 31
0.0015258207003583
  0
LINE
  5
15D
  8
0
 10
3827.6499999999942
 20
1672.7918959118199
 30
0.0015258207003583
 11
3827.6499999999942
 21
1817.4918959118199
 31
0.0015258207003583
  0
LINE
  5
15E
  8
0
 10
3827.6499999999942
 20
1522.7918959118199
 30
0.0015258207003583
 11
3827.6499999999942
 21
1667.4918959118199
 31
0.0015258207003583
  0
LINE
  5
15F
  8
0
 10
3827.6499999999928
 20
1372.7918959118199
 30
0.0015258207003583
 11
3827.6499999999942
 21
1517.4918959118211
 31
0.0015258207003583
  0
LINE
  5
160
  8
0
 10
3827.6499999999928
 20
1222.7918959118219
 30
0.0015258207003583
 11
3827.6499999999928
 21
1367.4918959118211
 31
0.0015258207003583
  0
LINE
  5
161
  8
0
 10
3827.6499999999919
 20
1072.791895911821
 30
0.0015258207003583
 11
3827.6499999999928
 21
1217.4918959118211
 31
0.0015258207003583
  0
LINE
  5
162
  8
0
 10
3827.6499999999919
 20
922.79189591182114
 30
0.0015258207003583
 11
3827.6499999999919
 21
1067.4918959118229
 31
0.0015258207003583
  0
LINE
  5
163
  8
0
 10
3827.649999999991
 20
772.79189591182285
 30
0.0015258207003583
 11
3827.6499999999919
 21
917.49189591182221
 31
0.0015258207003583
  0
LINE
  5
164
  8
0
 10
3827.649999999991
 20
622.79189591182217
 30
0.0015258207003583
 11
3827.649999999991
 21
767.49189591182164
 31
0.0015258207003583
  0
LINE
  5
165
  8
0
 10
3827.649999999991
 20
472.79189591182188
 30
0.0015258207003583
 11
3827.649999999991
 21
617.4918959118213
 31
0.0015258207003583
  0
LINE
  5
166
  8
0
 10
3827.649999999991
 20
322.79189591182143
 30
0.0015258207003583
 11
3827.649999999991
 21
467.49189591182301
 31
0.0015258207003583
  0
LINE
  5
167
  8
0
 10
3827.649999999991
 20
172.7918959118231
 30
0.0015258207003583
 11
3827.649999999991
 21
317.49189591182261
 31
0.0015258207003583
  0
LINE
  5
168
  8
0
 10
3827.649999999991
 20
22.791895911822682
 30
0.0015258207003583
 11
3827.649999999991
 21
167.4918959118221
 31
0.0015258207003583
  0
LINE
  5
169
  8
0
 10
3827.6499999999901
 20
0.141895911538724
 30
0.0015258207003583
 11
3827.649999999991
 21
17.491895911822809
 31
0.0015258207003583
  0
LINE
  5
16A
  8
0
 10
3822.3499999999899
 20
17.491895911821778
 30
0.0015258207003583
 11
3822.3499999999899
 21
0.1418959115387337
 31
0.0015258207003583
  0
LINE
  5
16B
  8
0
 10
3822.3499999999899
 20
167.4918959118211
 30
0.0015258207003583
 11
3822.3499999999899
 21
22.79189591182168
 31
0.0015258207003583
  0
LINE
  5
16C
  8
0
 10
3822.3499999999908
 20
317.4918959118217
 30
0.0015258207003583
 11
3822.3499999999899
 21
172.79189591182211
 31
0.0015258207003583
  0
LINE
  5
16D
  8
0
 10
3822.3499999999922
 20
467.49189591182198
 30
0.0015258207003583
 11
3822.3499999999908
 21
322.79189591182052
 31
0.0015258207003583
  0
LINE
  5
16E
  8
0
 10
3822.3499999999922
 20
617.49189591182039
 30
0.0015258207003583
 11
3822.3499999999922
 21
472.7918959118208
 31
0.0015258207003583
  0
LINE
  5
16F
  8
0
 10
3822.3499999999922
 20
767.49189591182085
 30
0.0015258207003583
 11
3822.3499999999922
 21
622.79189591182137
 31
0.0015258207003583
  0
LINE
  5
170
  8
0
 10
3822.3499999999931
 20
917.49189591182119
 30
0.0015258207003583
 11
3822.3499999999922
 21
772.79189591182148
 31
0.0015258207003583
  0
LINE
  5
171
  8
0
 10
3822.3499999999931
 20
1067.491895911822
 30
0.0015258207003583
 11
3822.3499999999922
 21
922.79189591182001
 31
0.0015258207003583
  0
LINE
  5
172
  8
0
 10
3822.3499999999931
 20
1217.4918959118199
 30
0.0015258207003583
 11
3822.3499999999931
 21
1072.7918959118199
 31
0.0015258207003583
  0
LINE
  5
173
  8
0
 10
3822.3499999999931
 20
1367.4918959118199
 30
0.0015258207003583
 11
3822.3499999999931
 21
1222.791895911821
 31
0.0015258207003583
  0
LINE
  5
174
  8
0
 10
3822.3499999999931
 20
1517.4918959118211
 30
0.0015258207003583
 11
3822.3499999999931
 21
1372.791895911819
 31
0.0015258207003583
  0
LINE
  5
175
  8
0
 10
3822.3499999999931
 20
1667.4918959118199
 30
0.0015258207003583
 11
3822.3499999999931
 21
1522.7918959118199
 31
0.0015258207003583
  0
LINE
  5
176
  8
0
 10
3822.349999999994
 20
1817.4918959118199
 30
0.0015258207003583
 11
3822.3499999999931
 21
1672.7918959118199
 31
0.0015258207003583
  0
LINE
  5
177
  8
0
 10
3822.349999999994
 20
1967.4918959118211
 30
0.0015258207003583
 11
3822.349999999994
 21
1822.791895911821
 31
0.0015258207003583
  0
LINE
  5
178
  8
0
 10
3822.349999999994
 20
1990.1418959115381
 30
0.0015258207003583
 11
3822.349999999994
 21
1972.791895911819
 31
0.0015258207003583
  0
LINE
  5
179
  8
0
 10
3677.6499999999942
 20
1972.7918959118199
 30
0.0015258207003583
 11
3677.6499999999942
 21
1990.141895911549
 31
0.0015258207003583
  0
LINE
  5
17A
  8
0
 10
3677.6499999999942
 20
1822.791895911821
 30
0.0015258207003583
 11
3677.6499999999942
 21
1967.4918959118211
 31
0.0015258207003583
  0
LINE
  5
17B
  8
0
 10
3677.6499999999942
 20
1672.7918959118199
 30
0.0015258207003583
 11
3677.6499999999942
 21
1817.4918959118199
 31
0.0015258207003583
  0
LINE
  5
17C
  8
0
 10
3677.6499999999942
 20
1522.7918959118199
 30
0.0015258207003583
 11
3677.6499999999942
 21
1667.4918959118199
 31
0.0015258207003583
  0
LINE
  5
17D
  8
0
 10
3677.6499999999942
 20
1372.791895911819
 30
0.0015258207003583
 11
3677.6499999999942
 21
1517.4918959118211
 31
0.0015258207003583
  0
LINE
  5
17E
  8
0
 10
3677.6499999999942
 20
1222.791895911821
 30
0.0015258207003583
 11
3677.6499999999942
 21
1367.4918959118211
 31
0.0015258207003583
  0
LINE
  5
17F
  8
0
 10
3677.6499999999928
 20
1072.791895911821
 30
0.0015258207003583
 11
3677.6499999999942
 21
1217.4918959118199
 31
0.0015258207003583
  0
LINE
  5
180
  8
0
 10
3677.6499999999928
 20
922.79189591182057
 30
0.0015258207003583
 11
3677.6499999999928
 21
1067.491895911822
 31
0.0015258207003583
  0
LINE
  5
181
  8
0
 10
3677.6499999999928
 20
772.79189591182228
 30
0.0015258207003583
 11
3677.6499999999928
 21
917.49189591182187
 31
0.0015258207003583
  0
LINE
  5
182
  8
0
 10
3677.6499999999919
 20
622.79189591182171
 30
0.0015258207003583
 11
3677.6499999999928
 21
767.4918959118213
 31
0.0015258207003583
  0
LINE
  5
183
  8
0
 10
3677.649999999991
 20
472.79189591182097
 30
0.0015258207003583
 11
3677.6499999999919
 21
617.49189591182062
 31
0.0015258207003583
  0
LINE
  5
184
  8
0
 10
3677.649999999991
 20
322.79189591182052
 30
0.0015258207003583
 11
3677.649999999991
 21
467.49189591182221
 31
0.0015258207003583
  0
LINE
  5
185
  8
0
 10
3677.649999999991
 20
172.79189591182211
 30
0.0015258207003583
 11
3677.649999999991
 21
317.4918959118217
 31
0.0015258207003583
  0
LINE
  5
186
  8
0
 10
3677.649999999991
 20
22.791895911821619
 30
0.0015258207003583
 11
3677.649999999991
 21
167.49189591182119
 31
0.0015258207003583
  0
LINE
  5
187
  8
0
 10
3677.649999999991
 20
0.1418959115495619
 30
0.0015258207003583
 11
3677.649999999991
 21
17.491895911821739
 31
0.0015258207003583
  0
LINE
  5
188
  8
0
 10
3672.3499999999908
 20
17.491895911820691
 30
0.0015258207003583
 11
3672.3499999999908
 21
0.1418959115495716
 31
0.0015258207003583
  0
LINE
  5
189
  8
0
 10
3672.3499999999922
 20
167.49189591182019
 30
0.0015258207003583
 11
3672.3499999999908
 21
22.791895911820589
 31
0.0015258207003583
  0
LINE
  5
18A
  8
0
 10
3672.3499999999922
 20
317.4918959118209
 30
0.0015258207003583
 11
3672.3499999999922
 21
172.7918959118212
 31
0.0015258207003583
  0
LINE
  5
18B
  8
0
 10
3672.3499999999922
 20
467.49189591182147
 30
0.0015258207003583
 11
3672.3499999999922
 21
322.79189591181972
 31
0.0015258207003583
  0
LINE
  5
18C
  8
0
 10
3672.3499999999922
 20
617.49189591182005
 30
0.0015258207003583
 11
3672.3499999999922
 21
472.79189591182029
 31
0.0015258207003583
  0
LINE
  5
18D
  8
0
 10
3672.3499999999931
 20
767.49189591182051
 30
0.0015258207003583
 11
3672.3499999999922
 21
622.79189591182069
 31
0.0015258207003583
  0
LINE
  5
18E
  8
0
 10
3672.3499999999931
 20
917.49189591182096
 30
0.0015258207003583
 11
3672.3499999999931
 21
772.79189591182137
 31
0.0015258207003583
  0
LINE
  5
18F
  8
0
 10
3672.3499999999931
 20
1067.4918959118211
 30
0.0015258207003583
 11
3672.3499999999931
 21
922.79189591181967
 31
0.0015258207003583
  0
LINE
  5
190
  8
0
 10
3672.3499999999931
 20
1217.4918959118199
 30
0.0015258207003583
 11
3672.3499999999931
 21
1072.7918959118199
 31
0.0015258207003583
  0
LINE
  5
191
  8
0
 10
3672.3499999999931
 20
1367.4918959118199
 30
0.0015258207003583
 11
3672.3499999999931
 21
1222.791895911821
 31
0.0015258207003583
  0
LINE
  5
192
  8
0
 10
3672.349999999994
 20
1517.4918959118211
 30
0.0015258207003583
 11
3672.3499999999931
 21
1372.791895911819
 31
0.0015258207003583
  0
LINE
  5
193
  8
0
 10
3672.349999999994
 20
1667.4918959118199
 30
0.0015258207003583
 11
3672.349999999994
 21
1522.7918959118199
 31
0.0015258207003583
  0
LINE
  5
194
  8
0
 10
3672.349999999994
 20
1817.4918959118199
 30
0.0015258207003583
 11
3672.349999999994
 21
1672.7918959118199
 31
0.0015258207003583
  0
LINE
  5
195
  8
0
 10
3672.349999999994
 20
1967.4918959118211
 30
0.0015258207003583
 11
3672.349999999994
 21
1822.791895911821
 31
0.0015258207003583
  0
LINE
  5
196
  8
0
 10
3672.349999999994
 20
1990.141895911549
 30
0.0015258207003583
 11
3672.349999999994
 21
1972.791895911819
 31
0.0015258207003583
  0
LINE
  5
197
  8
0
 10
3527.6499999999951
 20
1972.791895911819
 30
0.0015258207003583
 11
3527.6499999999951
 21
1990.141895911562
 31
0.0015258207003583
  0
LINE
  5
198
  8
0
 10
3527.6499999999942
 20
1822.791895911821
 30
0.0015258207003583
 11
3527.6499999999951
 21
1967.4918959118211
 31
0.0015258207003583
  0
LINE
  5
199
  8
0
 10
3527.6499999999942
 20
1672.7918959118199
 30
0.0015258207003583
 11
3527.6499999999942
 21
1817.4918959118199
 31
0.0015258207003583
  0
LINE
  5
19A
  8
0
 10
3527.6499999999942
 20
1522.7918959118199
 30
0.0015258207003583
 11
3527.6499999999942
 21
1667.4918959118199
 31
0.0015258207003583
  0
LINE
  5
19B
  8
0
 10
3527.6499999999942
 20
1372.791895911819
 30
0.0015258207003583
 11
3527.6499999999942
 21
1517.4918959118211
 31
0.0015258207003583
  0
LINE
  5
19C
  8
0
 10
3527.6499999999942
 20
1222.791895911821
 30
0.0015258207003583
 11
3527.6499999999942
 21
1367.4918959118199
 31
0.0015258207003583
  0
LINE
  5
19D
  8
0
 10
3527.6499999999942
 20
1072.791895911821
 30
0.0015258207003583
 11
3527.6499999999942
 21
1217.4918959118199
 31
0.0015258207003583
  0
LINE
  5
19E
  8
0
 10
3527.6499999999928
 20
922.79189591182023
 30
0.0015258207003583
 11
3527.6499999999942
 21
1067.491895911822
 31
0.0015258207003583
  0
LINE
  5
19F
  8
0
 10
3527.6499999999928
 20
772.79189591182205
 30
0.0015258207003583
 11
3527.6499999999928
 21
917.49189591182142
 31
0.0015258207003583
  0
LINE
  5
1A0
  8
0
 10
3527.6499999999928
 20
622.79189591182137
 30
0.0015258207003583
 11
3527.6499999999928
 21
767.49189591182096
 31
0.0015258207003583
  0
LINE
  5
1A1
  8
0
 10
3527.6499999999919
 20
472.79189591182092
 30
0.0015258207003583
 11
3527.6499999999928
 21
617.49189591182051
 31
0.0015258207003583
  0
LINE
  5
1A2
  8
0
 10
3527.649999999991
 20
322.79189591182052
 30
0.0015258207003583
 11
3527.6499999999919
 21
467.49189591182221
 31
0.0015258207003583
  0
LINE
  5
1A3
  8
0
 10
3527.649999999991
 20
172.79189591182211
 30
0.0015258207003583
 11
3527.649999999991
 21
317.4918959118217
 31
0.0015258207003583
  0
LINE
  5
1A4
  8
0
 10
3527.649999999991
 20
22.79189591182163
 30
0.0015258207003583
 11
3527.649999999991
 21
167.49189591182119
 31
0.0015258207003583
  0
LINE
  5
1A5
  8
0
 10
3527.649999999991
 20
0.1418959115625655
 30
0.0015258207003583
 11
3527.649999999991
 21
17.49189591182175
 31
0.0015258207003583
  0
LINE
  5
1A6
  8
0
 10
3522.3499999999922
 20
17.491895911820659
 30
0.0015258207003583
 11
3522.3499999999922
 21
0.1418959115625752
 31
0.0015258207003583
  0
LINE
  5
1A7
  8
0
 10
3522.3499999999922
 20
167.49189591182031
 30
0.0015258207003583
 11
3522.3499999999922
 21
22.791895911820561
 31
0.0015258207003583
  0
LINE
  5
1A8
  8
0
 10
3522.3499999999922
 20
317.49189591182102
 30
0.0015258207003583
 11
3522.3499999999922
 21
172.79189591182131
 31
0.0015258207003583
  0
LINE
  5
1A9
  8
0
 10
3522.3499999999922
 20
467.49189591182159
 30
0.0015258207003583
 11
3522.3499999999922
 21
322.79189591181978
 31
0.0015258207003583
  0
LINE
  5
1AA
  8
0
 10
3522.3499999999931
 20
617.49189591182017
 30
0.0015258207003583
 11
3522.3499999999922
 21
472.79189591182052
 31
0.0015258207003583
  0
LINE
  5
1AB
  8
0
 10
3522.3499999999931
 20
767.49189591182073
 30
0.0015258207003583
 11
3522.3499999999931
 21
622.79189591182114
 31
0.0015258207003583
  0
LINE
  5
1AC
  8
0
 10
3522.3499999999931
 20
917.49189591182142
 30
0.0015258207003583
 11
3522.3499999999931
 21
772.79189591182171
 31
0.0015258207003583
  0
LINE
  5
1AD
  8
0
 10
3522.3499999999931
 20
1067.491895911822
 30
0.0015258207003583
 11
3522.3499999999931
 21
922.79189591182001
 31
0.0015258207003583
  0
LINE
  5
1AE
  8
0
 10
3522.3499999999931
 20
1217.4918959118199
 30
0.0015258207003583
 11
3522.3499999999931
 21
1072.7918959118199
 31
0.0015258207003583
  0
LINE
  5
1AF
  8
0
 10
3522.349999999994
 20
1367.4918959118199
 30
0.0015258207003583
 11
3522.349999999994
 21
1222.791895911821
 31
0.0015258207003583
  0
LINE
  5
1B0
  8
0
 10
3522.349999999994
 20
1517.4918959118211
 30
0.0015258207003583
 11
3522.349999999994
 21
1372.791895911819
 31
0.0015258207003583
  0
LINE
  5
1B1
  8
0
 10
3522.349999999994
 20
1667.4918959118199
 30
0.0015258207003583
 11
3522.349999999994
 21
1522.7918959118199
 31
0.0015258207003583
  0
LINE
  5
1B2
  8
0
 10
3522.349999999994
 20
1817.4918959118199
 30
0.0015258207003583
 11
3522.349999999994
 21
1672.7918959118199
 31
0.0015258207003583
  0
LINE
  5
1B3
  8
0
 10
3522.3499999999949
 20
1967.4918959118211
 30
0.0015258207003583
 11
3522.349999999994
 21
1822.791895911821
 31
0.0015258207003583
  0
LINE
  5
1B4
  8
0
 10
3522.3499999999949
 20
1990.141895911562
 30
0.0015258207003583
 11
3522.3499999999949
 21
1972.791895911819
 31
0.0015258207003583
  0
LINE
  5
1B5
  8
0
 10
3377.649999999996
 20
1972.7918959118199
 30
0.0015258207003583
 11
3377.649999999996
 21
1990.141895911572
 31
0.0015258207003583
  0
LINE
  5
1B6
  8
0
 10
3377.6499999999951
 20
1822.7918959118219
 30
0.0015258207003583
 11
3377.649999999996
 21
1967.491895911822
 31
0.0015258207003583
  0
LINE
  5
1B7
  8
0
 10
3377.6499999999951
 20
1672.7918959118219
 30
0.0015258207003583
 11
3377.6499999999951
 21
1817.4918959118211
 31
0.0015258207003583
  0
LINE
  5
1B8
  8
0
 10
3377.6499999999942
 20
1522.791895911821
 30
0.0015258207003583
 11
3377.6499999999951
 21
1667.4918959118199
 31
0.0015258207003583
  0
LINE
  5
1B9
  8
0
 10
3377.6499999999942
 20
1372.7918959118199
 30
0.0015258207003583
 11
3377.6499999999942
 21
1517.491895911822
 31
0.0015258207003583
  0
LINE
  5
1BA
  8
0
 10
3377.6499999999942
 20
1222.7918959118219
 30
0.0015258207003583
 11
3377.6499999999942
 21
1367.491895911822
 31
0.0015258207003583
  0
LINE
  5
1BB
  8
0
 10
3377.6499999999942
 20
1072.791895911821
 30
0.0015258207003583
 11
3377.6499999999942
 21
1217.4918959118211
 31
0.0015258207003583
  0
LINE
  5
1BC
  8
0
 10
3377.6499999999942
 20
922.79189591182092
 30
0.0015258207003583
 11
3377.6499999999942
 21
1067.491895911822
 31
0.0015258207003583
  0
LINE
  5
1BD
  8
0
 10
3377.6499999999942
 20
772.79189591182251
 30
0.0015258207003583
 11
3377.6499999999942
 21
917.4918959118221
 31
0.0015258207003583
  0
LINE
  5
1BE
  8
0
 10
3377.6499999999928
 20
622.79189591182183
 30
0.0015258207003583
 11
3377.6499999999942
 21
767.49189591182153
 31
0.0015258207003583
  0
LINE
  5
1BF
  8
0
 10
3377.6499999999928
 20
472.7918959118212
 30
0.0015258207003583
 11
3377.6499999999928
 21
617.49189591182085
 31
0.0015258207003583
  0
LINE
  5
1C0
  8
0
 10
3377.6499999999928
 20
322.79189591182057
 30
0.0015258207003583
 11
3377.6499999999928
 21
467.49189591182238
 31
0.0015258207003583
  0
LINE
  5
1C1
  8
0
 10
3377.6499999999919
 20
172.79189591182219
 30
0.0015258207003583
 11
3377.6499999999928
 21
317.49189591182181
 31
0.0015258207003583
  0
LINE
  5
1C2
  8
0
 10
3377.6499999999919
 20
22.791895911821658
 30
0.0015258207003583
 11
3377.6499999999919
 21
167.4918959118213
 31
0.0015258207003583
  0
LINE
  5
1C3
  8
0
 10
3377.6499999999919
 20
0.1418959115723204
 30
0.0015258207003583
 11
3377.6499999999919
 21
17.491895911821771
 31
0.0015258207003583
  0
LINE
  5
1C4
  8
0
 10
3372.3499999999922
 20
17.491895911820681
 30
0.0015258207003583
 11
3372.3499999999922
 21
0.1418959115723302
 31
0.0015258207003583
  0
LINE
  5
1C5
  8
0
 10
3372.3499999999922
 20
167.49189591182019
 30
0.0015258207003583
 11
3372.3499999999922
 21
22.791895911820578
 31
0.0015258207003583
  0
LINE
  5
1C6
  8
0
 10
3372.3499999999931
 20
317.49189591182102
 30
0.0015258207003583
 11
3372.3499999999922
 21
172.7918959118212
 31
0.0015258207003583
  0
LINE
  5
1C7
  8
0
 10
3372.3499999999931
 20
467.49189591182159
 30
0.0015258207003583
 11
3372.3499999999931
 21
322.79189591181978
 31
0.0015258207003583
  0
LINE
  5
1C8
  8
0
 10
3372.3499999999931
 20
617.49189591182005
 30
0.0015258207003583
 11
3372.3499999999931
 21
472.79189591182029
 31
0.0015258207003583
  0
LINE
  5
1C9
  8
0
 10
3372.3499999999931
 20
767.49189591182085
 30
0.0015258207003583
 11
3372.3499999999931
 21
622.79189591182114
 31
0.0015258207003583
  0
LINE
  5
1CA
  8
0
 10
3372.349999999994
 20
917.49189591182164
 30
0.0015258207003583
 11
3372.3499999999931
 21
772.79189591182183
 31
0.0015258207003583
  0
LINE
  5
1CB
  8
0
 10
3372.349999999994
 20
1067.491895911822
 30
0.0015258207003583
 11
3372.349999999994
 21
922.79189591182069
 31
0.0015258207003583
  0
LINE
  5
1CC
  8
0
 10
3372.349999999994
 20
1217.4918959118211
 30
0.0015258207003583
 11
3372.349999999994
 21
1072.791895911821
 31
0.0015258207003583
  0
LINE
  5
1CD
  8
0
 10
3372.349999999994
 20
1367.4918959118211
 30
0.0015258207003583
 11
3372.349999999994
 21
1222.7918959118219
 31
0.0015258207003583
  0
LINE
  5
1CE
  8
0
 10
3372.3499999999949
 20
1517.491895911822
 30
0.0015258207003583
 11
3372.349999999994
 21
1372.7918959118199
 31
0.0015258207003583
  0
LINE
  5
1CF
  8
0
 10
3372.3499999999949
 20
1667.4918959118211
 30
0.0015258207003583
 11
3372.3499999999949
 21
1522.791895911821
 31
0.0015258207003583
  0
LINE
  5
1D0
  8
0
 10
3372.3499999999949
 20
1817.4918959118211
 30
0.0015258207003583
 11
3372.3499999999949
 21
1672.7918959118219
 31
0.0015258207003583
  0
LINE
  5
1D1
  8
0
 10
3372.3499999999958
 20
1967.491895911822
 30
0.0015258207003583
 11
3372.3499999999949
 21
1822.7918959118219
 31
0.0015258207003583
  0
LINE
  5
1D2
  8
0
 10
3372.3499999999958
 20
1990.141895911572
 30
0.0015258207003583
 11
3372.3499999999958
 21
1972.7918959118199
 31
0.0015258207003583
  0
LINE
  5
1D3
  8
0
 10
3227.6499999999969
 20
1972.791895911819
 30
0.0015258207003583
 11
3227.6499999999969
 21
1990.141895911584
 31
0.0015258207003583
  0
LINE
  5
1D4
  8
0
 10
3227.649999999996
 20
1822.791895911821
 30
0.0015258207003583
 11
3227.6499999999969
 21
1967.4918959118211
 31
0.0015258207003583
  0
LINE
  5
1D5
  8
0
 10
3227.6499999999951
 20
1672.7918959118199
 30
0.0015258207003583
 11
3227.649999999996
 21
1817.4918959118199
 31
0.0015258207003583
  0
LINE
  5
1D6
  8
0
 10
3227.6499999999951
 20
1522.7918959118199
 30
0.0015258207003583
 11
3227.6499999999951
 21
1667.4918959118199
 31
0.0015258207003583
  0
LINE
  5
1D7
  8
0
 10
3227.6499999999951
 20
1372.791895911819
 30
0.0015258207003583
 11
3227.6499999999951
 21
1517.4918959118211
 31
0.0015258207003583
  0
LINE
  5
1D8
  8
0
 10
3227.6499999999942
 20
1222.7918959118219
 30
0.0015258207003583
 11
3227.6499999999951
 21
1367.4918959118211
 31
0.0015258207003583
  0
LINE
  5
1D9
  8
0
 10
3227.6499999999942
 20
1072.791895911821
 30
0.0015258207003583
 11
3227.6499999999942
 21
1217.4918959118211
 31
0.0015258207003583
  0
LINE
  5
1DA
  8
0
 10
3227.6499999999928
 20
922.79189591182092
 30
0.0015258207003583
 11
3227.6499999999942
 21
1067.491895911822
 31
0.0015258207003583
  0
LINE
  5
1DB
  8
0
 10
3227.6499999999928
 20
772.79189591182273
 30
0.0015258207003583
 11
3227.6499999999928
 21
917.4918959118221
 31
0.0015258207003583
  0
LINE
  5
1DC
  8
0
 10
3227.6499999999928
 20
622.79189591182217
 30
0.0015258207003583
 11
3227.6499999999928
 21
767.49189591182164
 31
0.0015258207003583
  0
LINE
  5
1DD
  8
0
 10
3227.6499999999928
 20
472.79189591182183
 30
0.0015258207003583
 11
3227.6499999999928
 21
617.4918959118213
 31
0.0015258207003583
  0
LINE
  5
1DE
  8
0
 10
3227.6499999999928
 20
322.79189591182143
 30
0.0015258207003583
 11
3227.6499999999928
 21
467.49189591182301
 31
0.0015258207003583
  0
LINE
  5
1DF
  8
0
 10
3227.6499999999928
 20
172.7918959118231
 30
0.0015258207003583
 11
3227.6499999999928
 21
317.49189591182261
 31
0.0015258207003583
  0
LINE
  5
1E0
  8
0
 10
3227.6499999999919
 20
22.791895911822731
 30
0.0015258207003583
 11
3227.6499999999928
 21
167.49189591182221
 31
0.0015258207003583
  0
LINE
  5
1E1
  8
0
 10
3227.6499999999928
 20
0.1418959115842412
 30
0.0015258207003583
 11
3227.6499999999928
 21
17.491895911822841
 31
0.0015258207003583
  0
LINE
  5
1E2
  8
0
 10
3222.3499999999922
 20
17.491895911821778
 30
0.0015258207003583
 11
3222.3499999999922
 21
0.1418959115842509
 31
0.0015258207003583
  0
LINE
  5
1E3
  8
0
 10
3222.3499999999931
 20
167.4918959118213
 30
0.0015258207003583
 11
3222.3499999999922
 21
22.791895911821669
 31
0.0015258207003583
  0
LINE
  5
1E4
  8
0
 10
3222.3499999999931
 20
317.49189591182181
 30
0.0015258207003583
 11
3222.3499999999931
 21
172.79189591182211
 31
0.0015258207003583
  0
LINE
  5
1E5
  8
0
 10
3222.349999999994
 20
467.49189591182221
 30
0.0015258207003583
 11
3222.3499999999931
 21
322.79189591182057
 31
0.0015258207003583
  0
LINE
  5
1E6
  8
0
 10
3222.349999999994
 20
617.49189591182051
 30
0.0015258207003583
 11
3222.349999999994
 21
472.79189591182109
 31
0.0015258207003583
  0
LINE
  5
1E7
  8
0
 10
3222.349999999994
 20
767.49189591182119
 30
0.0015258207003583
 11
3222.349999999994
 21
622.79189591182148
 31
0.0015258207003583
  0
LINE
  5
1E8
  8
0
 10
3222.349999999994
 20
917.49189591182153
 30
0.0015258207003583
 11
3222.349999999994
 21
772.79189591182205
 31
0.0015258207003583
  0
LINE
  5
1E9
  8
0
 10
3222.349999999994
 20
1067.491895911822
 30
0.0015258207003583
 11
3222.349999999994
 21
922.79189591182035
 31
0.0015258207003583
  0
LINE
  5
1EA
  8
0
 10
3222.349999999994
 20
1217.4918959118211
 30
0.0015258207003583
 11
3222.349999999994
 21
1072.791895911821
 31
0.0015258207003583
  0
LINE
  5
1EB
  8
0
 10
3222.3499999999949
 20
1367.4918959118211
 30
0.0015258207003583
 11
3222.349999999994
 21
1222.7918959118219
 31
0.0015258207003583
  0
LINE
  5
1EC
  8
0
 10
3222.3499999999949
 20
1517.4918959118211
 30
0.0015258207003583
 11
3222.3499999999949
 21
1372.791895911819
 31
0.0015258207003583
  0
LINE
  5
1ED
  8
0
 10
3222.3499999999949
 20
1667.4918959118199
 30
0.0015258207003583
 11
3222.3499999999949
 21
1522.7918959118199
 31
0.0015258207003583
  0
LINE
  5
1EE
  8
0
 10
3222.3499999999958
 20
1817.4918959118199
 30
0.0015258207003583
 11
3222.3499999999949
 21
1672.791895911821
 31
0.0015258207003583
  0
LINE
  5
1EF
  8
0
 10
3222.3499999999958
 20
1967.4918959118211
 30
0.0015258207003583
 11
3222.3499999999958
 21
1822.791895911821
 31
0.0015258207003583
  0
LINE
  5
1F0
  8
0
 10
3222.3499999999958
 20
1990.141895911584
 30
0.0015258207003583
 11
3222.3499999999958
 21
1972.791895911819
 31
0.0015258207003583
  0
LINE
  5
1F1
  8
0
 10
3077.6499999999969
 20
1972.7918959118199
 30
0.0015258207003583
 11
3077.6499999999969
 21
1990.1418959115961
 31
0.0015258207003583
  0
LINE
  5
1F2
  8
0
 10
3077.649999999996
 20
1822.7918959118219
 30
0.0015258207003583
 11
3077.6499999999969
 21
1967.491895911822
 31
0.0015258207003583
  0
LINE
  5
1F3
  8
0
 10
3077.649999999996
 20
1672.7918959118219
 30
0.0015258207003583
 11
3077.649999999996
 21
1817.4918959118211
 31
0.0015258207003583
  0
LINE
  5
1F4
  8
0
 10
3077.649999999996
 20
1522.791895911821
 30
0.0015258207003583
 11
3077.649999999996
 21
1667.4918959118199
 31
0.0015258207003583
  0
LINE
  5
1F5
  8
0
 10
3077.6499999999951
 20
1372.7918959118199
 30
0.0015258207003583
 11
3077.649999999996
 21
1517.491895911822
 31
0.0015258207003583
  0
LINE
  5
1F6
  8
0
 10
3077.6499999999951
 20
1222.7918959118219
 30
0.0015258207003583
 11
3077.6499999999951
 21
1367.4918959118211
 31
0.0015258207003583
  0
LINE
  5
1F7
  8
0
 10
3077.6499999999951
 20
1072.791895911821
 30
0.0015258207003583
 11
3077.6499999999951
 21
1217.4918959118211
 31
0.0015258207003583
  0
LINE
  5
1F8
  8
0
 10
3077.6499999999942
 20
922.79189591182092
 30
0.0015258207003583
 11
3077.6499999999951
 21
1067.491895911822
 31
0.0015258207003583
  0
LINE
  5
1F9
  8
0
 10
3077.6499999999942
 20
772.79189591182273
 30
0.0015258207003583
 11
3077.6499999999942
 21
917.4918959118221
 31
0.0015258207003583
  0
LINE
  5
1FA
  8
0
 10
3077.6499999999942
 20
622.79189591182194
 30
0.0015258207003583
 11
3077.6499999999942
 21
767.49189591182153
 31
0.0015258207003583
  0
LINE
  5
1FB
  8
0
 10
3077.6499999999942
 20
472.79189591182131
 30
0.0015258207003583
 11
3077.6499999999942
 21
617.49189591182096
 31
0.0015258207003583
  0
LINE
  5
1FC
  8
0
 10
3077.6499999999942
 20
322.79189591182069
 30
0.0015258207003583
 11
3077.6499999999942
 21
467.49189591182238
 31
0.0015258207003583
  0
LINE
  5
1FD
  8
0
 10
3077.6499999999942
 20
172.79189591182219
 30
0.0015258207003583
 11
3077.6499999999942
 21
317.49189591182193
 31
0.0015258207003583
  0
LINE
  5
1FE
  8
0
 10
3077.6499999999928
 20
22.791895911821669
 30
0.0015258207003583
 11
3077.6499999999942
 21
167.4918959118213
 31
0.0015258207003583
  0
LINE
  5
1FF
  8
0
 10
3077.6499999999928
 20
0.1418959115961619
 30
0.0015258207003583
 11
3077.6499999999928
 21
17.491895911821789
 31
0.0015258207003583
  0
LINE
  5
200
  8
0
 10
3072.3499999999931
 20
17.49189591182067
 30
0.0015258207003583
 11
3072.3499999999931
 21
0.1418959115961716
 31
0.0015258207003583
  0
LINE
  5
201
  8
0
 10
3072.3499999999931
 20
167.49189591182051
 30
0.0015258207003583
 11
3072.3499999999931
 21
22.791895911820578
 31
0.0015258207003583
  0
LINE
  5
202
  8
0
 10
3072.349999999994
 20
317.49189591182108
 30
0.0015258207003583
 11
3072.3499999999931
 21
172.7918959118212
 31
0.0015258207003583
  0
LINE
  5
203
  8
0
 10
3072.349999999994
 20
467.49189591182181
 30
0.0015258207003583
 11
3072.349999999994
 21
322.79189591181989
 31
0.0015258207003583
  0
LINE
  5
204
  8
0
 10
3072.349999999994
 20
617.49189591182039
 30
0.0015258207003583
 11
3072.349999999994
 21
472.79189591182057
 31
0.0015258207003583
  0
LINE
  5
205
  8
0
 10
3072.349999999994
 20
767.4918959118213
 30
0.0015258207003583
 11
3072.349999999994
 21
622.79189591182137
 31
0.0015258207003583
  0
LINE
  5
206
  8
0
 10
3072.349999999994
 20
917.49189591182187
 30
0.0015258207003583
 11
3072.349999999994
 21
772.79189591182205
 31
0.0015258207003583
  0
LINE
  5
207
  8
0
 10
3072.3499999999949
 20
1067.491895911822
 30
0.0015258207003583
 11
3072.349999999994
 21
922.79189591182069
 31
0.0015258207003583
  0
LINE
  5
208
  8
0
 10
3072.3499999999949
 20
1217.4918959118211
 30
0.0015258207003583
 11
3072.3499999999949
 21
1072.791895911821
 31
0.0015258207003583
  0
LINE
  5
209
  8
0
 10
3072.3499999999949
 20
1367.4918959118211
 30
0.0015258207003583
 11
3072.3499999999949
 21
1222.7918959118219
 31
0.0015258207003583
  0
LINE
  5
20A
  8
0
 10
3072.3499999999958
 20
1517.491895911822
 30
0.0015258207003583
 11
3072.3499999999949
 21
1372.7918959118199
 31
0.0015258207003583
  0
LINE
  5
20B
  8
0
 10
3072.3499999999958
 20
1667.4918959118199
 30
0.0015258207003583
 11
3072.3499999999958
 21
1522.791895911821
 31
0.0015258207003583
  0
LINE
  5
20C
  8
0
 10
3072.3499999999958
 20
1817.4918959118211
 30
0.0015258207003583
 11
3072.3499999999958
 21
1672.7918959118219
 31
0.0015258207003583
  0
LINE
  5
20D
  8
0
 10
3072.3499999999972
 20
1967.491895911822
 30
0.0015258207003583
 11
3072.3499999999958
 21
1822.7918959118219
 31
0.0015258207003583
  0
LINE
  5
20E
  8
0
 10
3072.3499999999972
 20
1990.1418959115961
 30
0.0015258207003583
 11
3072.3499999999972
 21
1972.7918959118199
 31
0.0015258207003583
  0
LINE
  5
20F
  8
0
 10
2927.6499999999969
 20
1972.7918959118231
 30
0.0015258207003583
 11
2927.6499999999969
 21
1990.1418959116061
 31
0.0015258207003583
  0
LINE
  5
210
  8
0
 10
2927.649999999996
 20
1822.791895911824
 30
0.0015258207003583
 11
2927.6499999999969
 21
1967.4918959118229
 31
0.0015258207003583
  0
LINE
  5
211
  8
0
 10
2927.649999999996
 20
1672.7918959118231
 30
0.0015258207003583
 11
2927.649999999996
 21
1817.4918959118229
 31
0.0015258207003583
  0
LINE
  5
212
  8
0
 10
2927.649999999996
 20
1522.7918959118231
 30
0.0015258207003583
 11
2927.649999999996
 21
1667.491895911822
 31
0.0015258207003583
  0
LINE
  5
213
  8
0
 10
2927.6499999999951
 20
1372.7918959118219
 30
0.0015258207003583
 11
2927.649999999996
 21
1517.491895911824
 31
0.0015258207003583
  0
LINE
  5
214
  8
0
 10
2927.6499999999951
 20
1222.791895911824
 30
0.0015258207003583
 11
2927.6499999999951
 21
1367.4918959118229
 31
0.0015258207003583
  0
LINE
  5
215
  8
0
 10
2927.6499999999942
 20
1072.7918959118219
 30
0.0015258207003583
 11
2927.6499999999951
 21
1217.491895911822
 31
0.0015258207003583
  0
LINE
  5
216
  8
0
 10
2927.6499999999942
 20
922.79189591182217
 30
0.0015258207003583
 11
2927.6499999999942
 21
1067.491895911824
 31
0.0015258207003583
  0
LINE
  5
217
  8
0
 10
2927.6499999999942
 20
772.79189591182353
 30
0.0015258207003583
 11
2927.6499999999942
 21
917.49189591182312
 31
0.0015258207003583
  0
LINE
  5
218
  8
0
 10
2927.6499999999942
 20
622.79189591182262
 30
0.0015258207003583
 11
2927.6499999999942
 21
767.49189591182255
 31
0.0015258207003583
  0
LINE
  5
219
  8
0
 10
2927.6499999999942
 20
472.79189591182183
 30
0.0015258207003583
 11
2927.6499999999942
 21
617.49189591182164
 31
0.0015258207003583
  0
LINE
  5
21A
  8
0
 10
2927.6499999999942
 20
322.79189591182109
 30
0.0015258207003583
 11
2927.6499999999942
 21
467.49189591182301
 31
0.0015258207003583
  0
LINE
  5
21B
  8
0
 10
2927.6499999999942
 20
172.79189591182251
 30
0.0015258207003583
 11
2927.6499999999942
 21
317.49189591182221
 31
0.0015258207003583
  0
LINE
  5
21C
  8
0
 10
2927.6499999999942
 20
22.791895911821701
 30
0.0015258207003583
 11
2927.6499999999942
 21
167.4918959118215
 31
0.0015258207003583
  0
LINE
  5
21D
  8
0
 10
2927.6499999999942
 20
0.1418959116069998
 30
0.0015258207003583
 11
2927.6499999999942
 21
17.491895911821821
 31
0.0015258207003583
  0
LINE
  5
21E
  8
0
 10
2922.3499999999931
 20
17.491895911820681
 30
0.0015258207003583
 11
2922.349999999994
 21
0.1418959116070095
 31
0.0015258207003583
  0
LINE
  5
21F
  8
0
 10
2922.349999999994
 20
167.49189591182039
 30
0.0015258207003583
 11
2922.349999999994
 21
22.791895911820578
 31
0.0015258207003583
  0
LINE
  5
220
  8
0
 10
2922.349999999994
 20
317.4918959118213
 30
0.0015258207003583
 11
2922.349999999994
 21
172.7918959118214
 31
0.0015258207003583
  0
LINE
  5
221
  8
0
 10
2922.349999999994
 20
467.4918959118221
 30
0.0015258207003583
 11
2922.349999999994
 21
322.79189591182012
 31
0.0015258207003583
  0
LINE
  5
222
  8
0
 10
2922.349999999994
 20
617.49189591182073
 30
0.0015258207003583
 11
2922.349999999994
 21
472.79189591182092
 31
0.0015258207003583
  0
LINE
  5
223
  8
0
 10
2922.349999999994
 20
767.49189591182164
 30
0.0015258207003583
 11
2922.349999999994
 21
622.79189591182183
 31
0.0015258207003583
  0
LINE
  5
224
  8
0
 10
2922.3499999999949
 20
917.49189591182244
 30
0.0015258207003583
 11
2922.349999999994
 21
772.79189591182273
 31
0.0015258207003583
  0
LINE
  5
225
  8
0
 10
2922.3499999999949
 20
1067.4918959118229
 30
0.0015258207003583
 11
2922.3499999999949
 21
922.79189591182126
 31
0.0015258207003583
  0
LINE
  5
226
  8
0
 10
2922.3499999999958
 20
1217.491895911822
 30
0.0015258207003583
 11
2922.3499999999949
 21
1072.7918959118219
 31
0.0015258207003583
  0
LINE
  5
227
  8
0
 10
2922.3499999999958
 20
1367.4918959118229
 30
0.0015258207003583
 11
2922.3499999999958
 21
1222.7918959118231
 31
0.0015258207003583
  0
LINE
  5
228
  8
0
 10
2922.3499999999958
 20
1517.4918959118229
 30
0.0015258207003583
 11
2922.3499999999958
 21
1372.791895911821
 31
0.0015258207003583
  0
LINE
  5
229
  8
0
 10
2922.3499999999972
 20
1667.491895911822
 30
0.0015258207003583
 11
2922.3499999999958
 21
1522.7918959118219
 31
0.0015258207003583
  0
LINE
  5
22A
  8
0
 10
2922.3499999999972
 20
1817.4918959118229
 30
0.0015258207003583
 11
2922.3499999999972
 21
1672.7918959118231
 31
0.0015258207003583
  0
LINE
  5
22B
  8
0
 10
2922.3499999999981
 20
1967.4918959118229
 30
0.0015258207003583
 11
2922.3499999999972
 21
1822.791895911824
 31
0.0015258207003583
  0
LINE
  5
22C
  8
0
 10
2922.3499999999981
 20
1990.1418959116061
 30
0.0015258207003583
 11
2922.3499999999981
 21
1972.7918959118231
 31
0.0015258207003583
  0
LINE
  5
22D
  8
0
 10
2777.6499999999978
 20
1972.791895911819
 30
0.0015258207003583
 11
2777.6499999999978
 21
1990.141895911619
 31
0.0015258207003583
  0
LINE
  5
22E
  8
0
 10
2777.6499999999978
 20
1822.791895911821
 30
0.0015258207003583
 11
2777.6499999999978
 21
1967.4918959118211
 31
0.0015258207003583
  0
LINE
  5
22F
  8
0
 10
2777.6499999999969
 20
1672.791895911821
 30
0.0015258207003583
 11
2777.6499999999969
 21
1817.4918959118199
 31
0.0015258207003583
  0
LINE
  5
230
  8
0
 10
2777.6499999999969
 20
1522.7918959118199
 30
0.0015258207003583
 11
2777.6499999999969
 21
1667.4918959118199
 31
0.0015258207003583
  0
LINE
  5
231
  8
0
 10
2777.6499999999969
 20
1372.7918959118199
 30
0.0015258207003583
 11
2777.6499999999969
 21
1517.4918959118211
 31
0.0015258207003583
  0
LINE
  5
232
  8
0
 10
2777.649999999996
 20
1222.7918959118219
 30
0.0015258207003583
 11
2777.6499999999969
 21
1367.4918959118211
 31
0.0015258207003583
  0
LINE
  5
233
  8
0
 10
2777.649999999996
 20
1072.791895911821
 30
0.0015258207003583
 11
2777.649999999996
 21
1217.4918959118211
 31
0.0015258207003583
  0
LINE
  5
234
  8
0
 10
2777.649999999996
 20
922.79189591182069
 30
0.0015258207003583
 11
2777.649999999996
 21
1067.491895911822
 31
0.0015258207003583
  0
LINE
  5
235
  8
0
 10
2777.649999999996
 20
772.79189591182217
 30
0.0015258207003583
 11
2777.649999999996
 21
917.49189591182187
 31
0.0015258207003583
  0
LINE
  5
236
  8
0
 10
2777.6499999999951
 20
622.79189591182148
 30
0.0015258207003583
 11
2777.649999999996
 21
767.49189591182119
 31
0.0015258207003583
  0
LINE
  5
237
  8
0
 10
2777.6499999999951
 20
472.79189591182109
 30
0.0015258207003583
 11
2777.6499999999951
 21
617.49189591182062
 31
0.0015258207003583
  0
LINE
  5
238
  8
0
 10
2777.6499999999942
 20
322.79189591182057
 30
0.0015258207003583
 11
2777.6499999999951
 21
467.49189591182221
 31
0.0015258207003583
  0
LINE
  5
239
  8
0
 10
2777.6499999999942
 20
172.79189591182219
 30
0.0015258207003583
 11
2777.6499999999942
 21
317.49189591182181
 31
0.0015258207003583
  0
LINE
  5
23A
  8
0
 10
2777.6499999999942
 20
22.79189591182168
 30
0.0015258207003583
 11
2777.6499999999942
 21
167.49189591182119
 31
0.0015258207003583
  0
LINE
  5
23B
  8
0
 10
2777.6499999999942
 20
0.1418959116189205
 30
0.0015258207003583
 11
2777.6499999999942
 21
17.491895911821789
 31
0.0015258207003583
  0
LINE
  5
23C
  8
0
 10
2772.349999999994
 20
17.491895911820649
 30
0.0015258207003583
 11
2772.349999999994
 21
0.1418959116189302
 31
0.0015258207003583
  0
LINE
  5
23D
  8
0
 10
2772.349999999994
 20
167.49189591182
 30
0.0015258207003583
 11
2772.349999999994
 21
22.791895911820539
 31
0.0015258207003583
  0
LINE
  5
23E
  8
0
 10
2772.3499999999949
 20
317.49189591182068
 30
0.0015258207003583
 11
2772.349999999994
 21
172.79189591182109
 31
0.0015258207003583
  0
LINE
  5
23F
  8
0
 10
2772.3499999999949
 20
467.49189591182119
 30
0.0015258207003583
 11
2772.3499999999949
 21
322.79189591181938
 31
0.0015258207003583
  0
LINE
  5
240
  8
0
 10
2772.3499999999958
 20
617.4918959118196
 30
0.0015258207003583
 11
2772.3499999999958
 21
472.79189591181989
 31
0.0015258207003583
  0
LINE
  5
241
  8
0
 10
2772.3499999999958
 20
767.49189591182017
 30
0.0015258207003583
 11
2772.3499999999958
 21
622.79189591182057
 31
0.0015258207003583
  0
LINE
  5
242
  8
0
 10
2772.3499999999958
 20
917.49189591182096
 30
0.0015258207003583
 11
2772.3499999999958
 21
772.79189591182114
 31
0.0015258207003583
  0
LINE
  5
243
  8
0
 10
2772.3499999999958
 20
1067.4918959118211
 30
0.0015258207003583
 11
2772.3499999999958
 21
922.79189591181967
 31
0.0015258207003583
  0
LINE
  5
244
  8
0
 10
2772.3499999999972
 20
1217.4918959118199
 30
0.0015258207003583
 11
2772.3499999999958
 21
1072.7918959118199
 31
0.0015258207003583
  0
LINE
  5
245
  8
0
 10
2772.3499999999972
 20
1367.4918959118199
 30
0.0015258207003583
 11
2772.3499999999972
 21
1222.791895911821
 31
0.0015258207003583
  0
LINE
  5
246
  8
0
 10
2772.3499999999972
 20
1517.4918959118211
 30
0.0015258207003583
 11
2772.3499999999972
 21
1372.791895911819
 31
0.0015258207003583
  0
LINE
  5
247
  8
0
 10
2772.3499999999981
 20
1667.491895911819
 30
0.0015258207003583
 11
2772.3499999999972
 21
1522.7918959118199
 31
0.0015258207003583
  0
LINE
  5
248
  8
0
 10
2772.3499999999981
 20
1817.4918959118199
 30
0.0015258207003583
 11
2772.3499999999981
 21
1672.7918959118199
 31
0.0015258207003583
  0
LINE
  5
249
  8
0
 10
2772.3499999999981
 20
1967.4918959118211
 30
0.0015258207003583
 11
2772.3499999999981
 21
1822.791895911821
 31
0.0015258207003583
  0
LINE
  5
24A
  8
0
 10
2772.3499999999981
 20
1990.141895911619
 30
0.0015258207003583
 11
2772.3499999999981
 21
1972.791895911819
 31
0.0015258207003583
  0
LINE
  5
24B
  8
0
 10
2627.6499999999992
 20
1972.791895911821
 30
0.0015258207003583
 11
2627.6499999999978
 21
1990.1418959116299
 31
0.0015258207003583
  0
LINE
  5
24C
  8
0
 10
2627.6499999999969
 20
1822.7918959118231
 30
0.0015258207003583
 11
2627.6499999999978
 21
1967.491895911822
 31
0.0015258207003583
  0
LINE
  5
24D
  8
0
 10
2627.6499999999969
 20
1672.7918959118219
 30
0.0015258207003583
 11
2627.6499999999969
 21
1817.491895911822
 31
0.0015258207003583
  0
LINE
  5
24E
  8
0
 10
2627.6499999999969
 20
1522.7918959118219
 30
0.0015258207003583
 11
2627.6499999999969
 21
1667.4918959118211
 31
0.0015258207003583
  0
LINE
  5
24F
  8
0
 10
2627.6499999999969
 20
1372.791895911821
 30
0.0015258207003583
 11
2627.6499999999969
 21
1517.4918959118229
 31
0.0015258207003583
  0
LINE
  5
250
  8
0
 10
2627.6499999999969
 20
1222.7918959118231
 30
0.0015258207003583
 11
2627.6499999999969
 21
1367.491895911822
 31
0.0015258207003583
  0
LINE
  5
251
  8
0
 10
2627.6499999999969
 20
1072.7918959118219
 30
0.0015258207003583
 11
2627.6499999999969
 21
1217.491895911822
 31
0.0015258207003583
  0
LINE
  5
252
  8
0
 10
2627.649999999996
 20
922.7918959118216
 30
0.0015258207003583
 11
2627.6499999999969
 21
1067.4918959118229
 31
0.0015258207003583
  0
LINE
  5
253
  8
0
 10
2627.649999999996
 20
772.79189591182308
 30
0.0015258207003583
 11
2627.649999999996
 21
917.49189591182278
 31
0.0015258207003583
  0
LINE
  5
254
  8
0
 10
2627.649999999996
 20
622.79189591182251
 30
0.0015258207003583
 11
2627.649999999996
 21
767.49189591182221
 31
0.0015258207003583
  0
LINE
  5
255
  8
0
 10
2627.649999999996
 20
472.79189591182211
 30
0.0015258207003583
 11
2627.649999999996
 21
617.49189591182164
 31
0.0015258207003583
  0
LINE
  5
256
  8
0
 10
2627.649999999996
 20
322.79189591182171
 30
0.0015258207003583
 11
2627.649999999996
 21
467.49189591182329
 31
0.0015258207003583
  0
LINE
  5
257
  8
0
 10
2627.649999999996
 20
172.7918959118233
 30
0.0015258207003583
 11
2627.649999999996
 21
317.49189591182289
 31
0.0015258207003583
  0
LINE
  5
258
  8
0
 10
2627.6499999999951
 20
22.79189591182277
 30
0.0015258207003583
 11
2627.649999999996
 21
167.4918959118223
 31
0.0015258207003583
  0
LINE
  5
259
  8
0
 10
2627.6499999999942
 20
0.1418959116308412
 30
0.0015258207003583
 11
2627.6499999999942
 21
17.49189591182289
 31
0.0015258207003583
  0
LINE
  5
25A
  8
0
 10
2622.3499999999949
 20
17.491895911821761
 30
0.0015258207003583
 11
2622.3499999999949
 21
0.1418959116308509
 31
0.0015258207003583
  0
LINE
  5
25B
  8
0
 10
2622.3499999999949
 20
167.4918959118213
 30
0.0015258207003583
 11
2622.3499999999949
 21
22.791895911821658
 31
0.0015258207003583
  0
LINE
  5
25C
  8
0
 10
2622.3499999999958
 20
317.49189591182198
 30
0.0015258207003583
 11
2622.3499999999949
 21
172.79189591182231
 31
0.0015258207003583
  0
LINE
  5
25D
  8
0
 10
2622.3499999999958
 20
467.49189591182261
 30
0.0015258207003583
 11
2622.3499999999958
 21
322.79189591182069
 31
0.0015258207003583
  0
LINE
  5
25E
  8
0
 10
2622.3499999999958
 20
617.49189591182096
 30
0.0015258207003583
 11
2622.3499999999958
 21
472.79189591182143
 31
0.0015258207003583
  0
LINE
  5
25F
  8
0
 10
2622.3499999999972
 20
767.49189591182153
 30
0.0015258207003583
 11
2622.3499999999958
 21
622.79189591182194
 31
0.0015258207003583
  0
LINE
  5
260
  8
0
 10
2622.3499999999972
 20
917.49189591182244
 30
0.0015258207003583
 11
2622.3499999999972
 21
772.79189591182273
 31
0.0015258207003583
  0
LINE
  5
261
  8
0
 10
2622.3499999999972
 20
1067.4918959118229
 30
0.0015258207003583
 11
2622.3499999999972
 21
922.79189591182126
 31
0.0015258207003583
  0
LINE
  5
262
  8
0
 10
2622.3499999999972
 20
1217.4918959118211
 30
0.0015258207003583
 11
2622.3499999999972
 21
1072.7918959118219
 31
0.0015258207003583
  0
LINE
  5
263
  8
0
 10
2622.3499999999972
 20
1367.491895911822
 30
0.0015258207003583
 11
2622.3499999999972
 21
1222.7918959118219
 31
0.0015258207003583
  0
LINE
  5
264
  8
0
 10
2622.3499999999981
 20
1517.491895911822
 30
0.0015258207003583
 11
2622.3499999999972
 21
1372.791895911821
 31
0.0015258207003583
  0
LINE
  5
265
  8
0
 10
2622.3499999999981
 20
1667.4918959118211
 30
0.0015258207003583
 11
2622.3499999999981
 21
1522.791895911821
 31
0.0015258207003583
  0
LINE
  5
266
  8
0
 10
2622.3499999999981
 20
1817.4918959118211
 30
0.0015258207003583
 11
2622.3499999999981
 21
1672.7918959118219
 31
0.0015258207003583
  0
LINE
  5
267
  8
0
 10
2622.349999999999
 20
1967.491895911822
 30
0.0015258207003583
 11
2622.3499999999981
 21
1822.7918959118219
 31
0.0015258207003583
  0
LINE
  5
268
  8
0
 10
2622.349999999999
 20
1990.1418959116299
 30
0.0015258207003583
 11
2622.349999999999
 21
1972.791895911821
 31
0.0015258207003583
  0
LINE
  5
269
  8
0
 10
2477.6499999999992
 20
1972.791895911819
 30
0.0015258207003583
 11
2477.6499999999992
 21
1990.141895911642
 31
0.0015258207003583
  0
LINE
  5
26A
  8
0
 10
2477.6499999999978
 20
1822.791895911821
 30
0.0015258207003583
 11
2477.6499999999992
 21
1967.4918959118211
 31
0.0015258207003583
  0
LINE
  5
26B
  8
0
 10
2477.6499999999978
 20
1672.791895911821
 30
0.0015258207003583
 11
2477.6499999999978
 21
1817.4918959118199
 31
0.0015258207003583
  0
LINE
  5
26C
  8
0
 10
2477.6499999999978
 20
1522.7918959118199
 30
0.0015258207003583
 11
2477.6499999999978
 21
1667.4918959118199
 31
0.0015258207003583
  0
LINE
  5
26D
  8
0
 10
2477.6499999999978
 20
1372.791895911819
 30
0.0015258207003583
 11
2477.6499999999978
 21
1517.4918959118211
 31
0.0015258207003583
  0
LINE
  5
26E
  8
0
 10
2477.6499999999969
 20
1222.791895911821
 30
0.0015258207003583
 11
2477.6499999999978
 21
1367.4918959118211
 31
0.0015258207003583
  0
LINE
  5
26F
  8
0
 10
2477.6499999999969
 20
1072.791895911821
 30
0.0015258207003583
 11
2477.6499999999969
 21
1217.4918959118199
 31
0.0015258207003583
  0
LINE
  5
270
  8
0
 10
2477.6499999999969
 20
922.79189591182023
 30
0.0015258207003583
 11
2477.6499999999969
 21
1067.491895911822
 31
0.0015258207003583
  0
LINE
  5
271
  8
0
 10
2477.6499999999969
 20
772.79189591182217
 30
0.0015258207003583
 11
2477.6499999999969
 21
917.49189591182153
 31
0.0015258207003583
  0
LINE
  5
272
  8
0
 10
2477.649999999996
 20
622.79189591182148
 30
0.0015258207003583
 11
2477.6499999999969
 21
767.49189591182096
 31
0.0015258207003583
  0
LINE
  5
273
  8
0
 10
2477.649999999996
 20
472.79189591182097
 30
0.0015258207003583
 11
2477.6499999999969
 21
617.49189591182062
 31
0.0015258207003583
  0
LINE
  5
274
  8
0
 10
2477.649999999996
 20
322.79189591182057
 30
0.0015258207003583
 11
2477.649999999996
 21
467.49189591182221
 31
0.0015258207003583
  0
LINE
  5
275
  8
0
 10
2477.6499999999951
 20
172.79189591182219
 30
0.0015258207003583
 11
2477.649999999996
 21
317.49189591182181
 31
0.0015258207003583
  0
LINE
  5
276
  8
0
 10
2477.6499999999951
 20
22.791895911821701
 30
0.0015258207003583
 11
2477.6499999999951
 21
167.4918959118213
 31
0.0015258207003583
  0
LINE
  5
277
  8
0
 10
2477.6499999999951
 20
0.1418959116427619
 30
0.0015258207003583
 11
2477.6499999999951
 21
17.49189591182181
 31
0.0015258207003583
  0
LINE
  5
278
  8
0
 10
2472.3499999999958
 20
17.491895911820649
 30
0.0015258207003583
 11
2472.3499999999949
 21
0.1418959116427717
 31
0.0015258207003583
  0
LINE
  5
279
  8
0
 10
2472.3499999999958
 20
167.49189591182011
 30
0.0015258207003583
 11
2472.3499999999958
 21
22.791895911820539
 31
0.0015258207003583
  0
LINE
  5
27A
  8
0
 10
2472.3499999999958
 20
317.49189591182068
 30
0.0015258207003583
 11
2472.3499999999958
 21
172.79189591182109
 31
0.0015258207003583
  0
LINE
  5
27B
  8
0
 10
2472.3499999999958
 20
467.49189591182119
 30
0.0015258207003583
 11
2472.3499999999958
 21
322.79189591181938
 31
0.0015258207003583
  0
LINE
  5
27C
  8
0
 10
2472.3499999999958
 20
617.49189591181971
 30
0.0015258207003583
 11
2472.3499999999958
 21
472.79189591182001
 31
0.0015258207003583
  0
LINE
  5
27D
  8
0
 10
2472.3499999999958
 20
767.49189591182017
 30
0.0015258207003583
 11
2472.3499999999958
 21
622.79189591182057
 31
0.0015258207003583
  0
LINE
  5
27E
  8
0
 10
2472.3499999999972
 20
917.49189591182062
 30
0.0015258207003583
 11
2472.3499999999958
 21
772.79189591182114
 31
0.0015258207003583
  0
LINE
  5
27F
  8
0
 10
2472.3499999999972
 20
1067.4918959118211
 30
0.0015258207003583
 11
2472.3499999999972
 21
922.79189591181967
 31
0.0015258207003583
  0
LINE
  5
280
  8
0
 10
2472.3499999999972
 20
1217.4918959118199
 30
0.0015258207003583
 11
2472.3499999999972
 21
1072.7918959118199
 31
0.0015258207003583
  0
LINE
  5
281
  8
0
 10
2472.3499999999981
 20
1367.4918959118199
 30
0.0015258207003583
 11
2472.3499999999972
 21
1222.791895911821
 31
0.0015258207003583
  0
LINE
  5
282
  8
0
 10
2472.3499999999981
 20
1517.4918959118211
 30
0.0015258207003583
 11
2472.3499999999981
 21
1372.791895911819
 31
0.0015258207003583
  0
LINE
  5
283
  8
0
 10
2472.3499999999981
 20
1667.491895911819
 30
0.0015258207003583
 11
2472.3499999999981
 21
1522.7918959118199
 31
0.0015258207003583
  0
LINE
  5
284
  8
0
 10
2472.349999999999
 20
1817.4918959118199
 30
0.0015258207003583
 11
2472.3499999999981
 21
1672.7918959118199
 31
0.0015258207003583
  0
LINE
  5
285
  8
0
 10
2472.349999999999
 20
1967.4918959118211
 30
0.0015258207003583
 11
2472.3499999999981
 21
1822.791895911821
 31
0.0015258207003583
  0
LINE
  5
286
  8
0
 10
2472.349999999999
 20
1990.141895911642
 30
0.0015258207003583
 11
2472.349999999999
 21
1972.791895911819
 31
0.0015258207003583
  0
LINE
  5
287
  8
0
 10
2327.6499999999992
 20
1972.791895911819
 30
0.0015258207003583
 11
2327.6499999999992
 21
1990.1418959116529
 31
0.0015258207003583
  0
LINE
  5
288
  8
0
 10
2327.6499999999978
 20
1822.791895911821
 30
0.0015258207003583
 11
2327.6499999999992
 21
1967.4918959118211
 31
0.0015258207003583
  0
LINE
  5
289
  8
0
 10
2327.6499999999978
 20
1672.791895911821
 30
0.0015258207003583
 11
2327.6499999999978
 21
1817.4918959118199
 31
0.0015258207003583
  0
LINE
  5
28A
  8
0
 10
2327.6499999999978
 20
1522.7918959118199
 30
0.0015258207003583
 11
2327.6499999999978
 21
1667.4918959118199
 31
0.0015258207003583
  0
LINE
  5
28B
  8
0
 10
2327.6499999999978
 20
1372.791895911819
 30
0.0015258207003583
 11
2327.6499999999978
 21
1517.4918959118211
 31
0.0015258207003583
  0
LINE
  5
28C
  8
0
 10
2327.6499999999969
 20
1222.791895911821
 30
0.0015258207003583
 11
2327.6499999999969
 21
1367.4918959118211
 31
0.0015258207003583
  0
LINE
  5
28D
  8
0
 10
2327.6499999999969
 20
1072.791895911821
 30
0.0015258207003583
 11
2327.6499999999969
 21
1217.4918959118211
 31
0.0015258207003583
  0
LINE
  5
28E
  8
0
 10
2327.6499999999969
 20
922.79189591182035
 30
0.0015258207003583
 11
2327.6499999999969
 21
1067.491895911822
 31
0.0015258207003583
  0
LINE
  5
28F
  8
0
 10
2327.6499999999969
 20
772.79189591182205
 30
0.0015258207003583
 11
2327.6499999999969
 21
917.49189591182153
 31
0.0015258207003583
  0
LINE
  5
290
  8
0
 10
2327.6499999999969
 20
622.79189591182148
 30
0.0015258207003583
 11
2327.6499999999969
 21
767.49189591182096
 31
0.0015258207003583
  0
LINE
  5
291
  8
0
 10
2327.649999999996
 20
472.79189591182109
 30
0.0015258207003583
 11
2327.6499999999969
 21
617.49189591182062
 31
0.0015258207003583
  0
LINE
  5
292
  8
0
 10
2327.649999999996
 20
322.79189591182057
 30
0.0015258207003583
 11
2327.649999999996
 21
467.49189591182221
 31
0.0015258207003583
  0
LINE
  5
293
  8
0
 10
2327.649999999996
 20
172.79189591182219
 30
0.0015258207003583
 11
2327.649999999996
 21
317.49189591182181
 31
0.0015258207003583
  0
LINE
  5
294
  8
0
 10
2327.6499999999951
 20
22.791895911821701
 30
0.0015258207003583
 11
2327.649999999996
 21
167.49189591182119
 31
0.0015258207003583
  0
LINE
  5
295
  8
0
 10
2327.649999999996
 20
0.1418959116535998
 30
0.0015258207003583
 11
2327.649999999996
 21
17.491895911821828
 31
0.0015258207003583
  0
LINE
  5
296
  8
0
 10
2322.3499999999958
 20
17.491895911820649
 30
0.0015258207003583
 11
2322.3499999999958
 21
0.1418959116536095
 31
0.0015258207003583
  0
LINE
  5
297
  8
0
 10
2322.3499999999958
 20
167.49189591182011
 30
0.0015258207003583
 11
2322.3499999999958
 21
22.791895911820539
 31
0.0015258207003583
  0
LINE
  5
298
  8
0
 10
2322.3499999999958
 20
317.49189591182068
 30
0.0015258207003583
 11
2322.3499999999958
 21
172.79189591182109
 31
0.0015258207003583
  0
LINE
  5
299
  8
0
 10
2322.3499999999972
 20
467.4918959118213
 30
0.0015258207003583
 11
2322.3499999999958
 21
322.79189591181949
 31
0.0015258207003583
  0
LINE
  5
29A
  8
0
 10
2322.3499999999972
 20
617.4918959118196
 30
0.0015258207003583
 11
2322.3499999999972
 21
472.79189591182001
 31
0.0015258207003583
  0
LINE
  5
29B
  8
0
 10
2322.3499999999972
 20
767.49189591182039
 30
0.0015258207003583
 11
2322.3499999999972
 21
622.79189591182057
 31
0.0015258207003583
  0
LINE
  5
29C
  8
0
 10
2322.3499999999981
 20
917.49189591182096
 30
0.0015258207003583
 11
2322.3499999999972
 21
772.79189591182137
 31
0.0015258207003583
  0
LINE
  5
29D
  8
0
 10
2322.3499999999981
 20
1067.491895911822
 30
0.0015258207003583
 11
2322.3499999999981
 21
922.79189591181978
 31
0.0015258207003583
  0
LINE
  5
29E
  8
0
 10
2322.3499999999981
 20
1217.4918959118199
 30
0.0015258207003583
 11
2322.3499999999981
 21
1072.7918959118199
 31
0.0015258207003583
  0
LINE
  5
29F
  8
0
 10
2322.3499999999981
 20
1367.4918959118199
 30
0.0015258207003583
 11
2322.3499999999981
 21
1222.791895911821
 31
0.0015258207003583
  0
LINE
  5
2A0
  8
0
 10
2322.349999999999
 20
1517.4918959118211
 30
0.0015258207003583
 11
2322.3499999999981
 21
1372.791895911819
 31
0.0015258207003583
  0
LINE
  5
2A1
  8
0
 10
2322.349999999999
 20
1667.491895911819
 30
0.0015258207003583
 11
2322.349999999999
 21
1522.7918959118199
 31
0.0015258207003583
  0
LINE
  5
2A2
  8
0
 10
2322.349999999999
 20
1817.4918959118199
 30
0.0015258207003583
 11
2322.349999999999
 21
1672.7918959118199
 31
0.0015258207003583
  0
LINE
  5
2A3
  8
0
 10
2322.349999999999
 20
1967.4918959118211
 30
0.0015258207003583
 11
2322.349999999999
 21
1822.791895911821
 31
0.0015258207003583
  0
LINE
  5
2A4
  8
0
 10
2322.349999999999
 20
1990.1418959116529
 30
0.0015258207003583
 11
2322.349999999999
 21
1972.791895911819
 31
0.0015258207003583
  0
LINE
  5
2A5
  8
0
 10
2177.6499999999992
 20
1972.791895911821
 30
0.0015258207003583
 11
2177.6499999999992
 21
1990.141895911665
 31
0.0015258207003583
  0
LINE
  5
2A6
  8
0
 10
2177.6499999999992
 20
1822.7918959118219
 30
0.0015258207003583
 11
2177.6499999999992
 21
1967.491895911822
 31
0.0015258207003583
  0
LINE
  5
2A7
  8
0
 10
2177.6499999999992
 20
1672.7918959118219
 30
0.0015258207003583
 11
2177.6499999999992
 21
1817.4918959118211
 31
0.0015258207003583
  0
LINE
  5
2A8
  8
0
 10
2177.6499999999978
 20
1522.791895911821
 30
0.0015258207003583
 11
2177.6499999999992
 21
1667.4918959118211
 31
0.0015258207003583
  0
LINE
  5
2A9
  8
0
 10
2177.6499999999978
 20
1372.7918959118199
 30
0.0015258207003583
 11
2177.6499999999978
 21
1517.491895911822
 31
0.0015258207003583
  0
LINE
  5
2AA
  8
0
 10
2177.6499999999978
 20
1222.7918959118219
 30
0.0015258207003583
 11
2177.6499999999978
 21
1367.491895911822
 31
0.0015258207003583
  0
LINE
  5
2AB
  8
0
 10
2177.6499999999978
 20
1072.791895911821
 30
0.0015258207003583
 11
2177.6499999999978
 21
1217.4918959118211
 31
0.0015258207003583
  0
LINE
  5
2AC
  8
0
 10
2177.6499999999978
 20
922.79189591182069
 30
0.0015258207003583
 11
2177.6499999999978
 21
1067.4918959118229
 31
0.0015258207003583
  0
LINE
  5
2AD
  8
0
 10
2177.6499999999978
 20
772.79189591182228
 30
0.0015258207003583
 11
2177.6499999999978
 21
917.49189591182187
 31
0.0015258207003583
  0
LINE
  5
2AE
  8
0
 10
2177.6499999999978
 20
622.79189591182183
 30
0.0015258207003583
 11
2177.6499999999978
 21
767.49189591182142
 31
0.0015258207003583
  0
LINE
  5
2AF
  8
0
 10
2177.6499999999969
 20
472.79189591182143
 30
0.0015258207003583
 11
2177.6499999999969
 21
617.49189591182085
 31
0.0015258207003583
  0
LINE
  5
2B0
  8
0
 10
2177.6499999999969
 20
322.7918959118208
 30
0.0015258207003583
 11
2177.6499999999969
 21
467.4918959118225
 31
0.0015258207003583
  0
LINE
  5
2B1
  8
0
 10
2177.649999999996
 20
172.79189591182231
 30
0.0015258207003583
 11
2177.6499999999969
 21
317.49189591182198
 31
0.0015258207003583
  0
LINE
  5
2B2
  8
0
 10
2177.6499999999951
 20
22.791895911821729
 30
0.0015258207003583
 11
2177.649999999996
 21
167.4918959118213
 31
0.0015258207003583
  0
LINE
  5
2B3
  8
0
 10
2177.649999999996
 20
0.1418959116655205
 30
0.0015258207003583
 11
2177.6499999999951
 21
17.49189591182185
 31
0.0015258207003583
  0
LINE
  5
2B4
  8
0
 10
2172.3499999999958
 20
17.491895911820869
 30
0.0015258207003583
 11
2172.3499999999958
 21
0.1418959116655303
 31
0.0015258207003583
  0
LINE
  5
2B5
  8
0
 10
2172.3499999999958
 20
167.49189591182039
 30
0.0015258207003583
 11
2172.3499999999958
 21
22.79189591182077
 31
0.0015258207003583
  0
LINE
  5
2B6
  8
0
 10
2172.3499999999958
 20
317.49189591182102
 30
0.0015258207003583
 11
2172.3499999999958
 21
172.7918959118214
 31
0.0015258207003583
  0
LINE
  5
2B7
  8
0
 10
2172.3499999999958
 20
467.49189591182159
 30
0.0015258207003583
 11
2172.3499999999958
 21
322.79189591181978
 31
0.0015258207003583
  0
LINE
  5
2B8
  8
0
 10
2172.3499999999958
 20
617.49189591182017
 30
0.0015258207003583
 11
2172.3499999999958
 21
472.7918959118204
 31
0.0015258207003583
  0
LINE
  5
2B9
  8
0
 10
2172.3499999999972
 20
767.49189591182085
 30
0.0015258207003583
 11
2172.3499999999958
 21
622.79189591182137
 31
0.0015258207003583
  0
LINE
  5
2BA
  8
0
 10
2172.3499999999981
 20
917.49189591182153
 30
0.0015258207003583
 11
2172.3499999999972
 21
772.79189591182205
 31
0.0015258207003583
  0
LINE
  5
2BB
  8
0
 10
2172.3499999999981
 20
1067.491895911822
 30
0.0015258207003583
 11
2172.3499999999981
 21
922.79189591182035
 31
0.0015258207003583
  0
LINE
  5
2BC
  8
0
 10
2172.3499999999981
 20
1217.4918959118211
 30
0.0015258207003583
 11
2172.3499999999981
 21
1072.791895911821
 31
0.0015258207003583
  0
LINE
  5
2BD
  8
0
 10
2172.3499999999981
 20
1367.4918959118211
 30
0.0015258207003583
 11
2172.3499999999981
 21
1222.7918959118219
 31
0.0015258207003583
  0
LINE
  5
2BE
  8
0
 10
2172.349999999999
 20
1517.491895911822
 30
0.0015258207003583
 11
2172.3499999999981
 21
1372.7918959118199
 31
0.0015258207003583
  0
LINE
  5
2BF
  8
0
 10
2172.349999999999
 20
1667.4918959118199
 30
0.0015258207003583
 11
2172.349999999999
 21
1522.791895911821
 31
0.0015258207003583
  0
LINE
  5
2C0
  8
0
 10
2172.349999999999
 20
1817.4918959118211
 30
0.0015258207003583
 11
2172.349999999999
 21
1672.791895911821
 31
0.0015258207003583
  0
LINE
  5
2C1
  8
0
 10
2172.349999999999
 20
1967.491895911822
 30
0.0015258207003583
 11
2172.349999999999
 21
1822.7918959118219
 31
0.0015258207003583
  0
LINE
  5
2C2
  8
0
 10
2172.349999999999
 20
1990.141895911665
 30
0.0015258207003583
 11
2172.349999999999
 21
1972.791895911821
 31
0.0015258207003583
  0
LINE
  5
2C3
  8
0
 10
2027.6500000000001
 20
1972.791895911821
 30
0.0015258207003583
 11
2027.6500000000001
 21
1990.1418959116779
 31
0.0015258207003583
  0
LINE
  5
2C4
  8
0
 10
2027.649999999999
 20
1822.7918959118219
 30
0.0015258207003583
 11
2027.6500000000001
 21
1967.491895911822
 31
0.0015258207003583
  0
LINE
  5
2C5
  8
0
 10
2027.649999999999
 20
1672.7918959118219
 30
0.0015258207003583
 11
2027.6500000000001
 21
1817.4918959118211
 31
0.0015258207003583
  0
LINE
  5
2C6
  8
0
 10
2027.649999999999
 20
1522.791895911821
 30
0.0015258207003583
 11
2027.649999999999
 21
1667.4918959118211
 31
0.0015258207003583
  0
LINE
  5
2C7
  8
0
 10
2027.649999999999
 20
1372.791895911821
 30
0.0015258207003583
 11
2027.649999999999
 21
1517.491895911822
 31
0.0015258207003583
  0
LINE
  5
2C8
  8
0
 10
2027.649999999998
 20
1222.7918959118231
 30
0.0015258207003583
 11
2027.649999999999
 21
1367.491895911822
 31
0.0015258207003583
  0
LINE
  5
2C9
  8
0
 10
2027.6499999999969
 20
1072.7918959118219
 30
0.0015258207003583
 11
2027.649999999998
 21
1217.491895911822
 31
0.0015258207003583
  0
LINE
  5
2CA
  8
0
 10
2027.6499999999969
 20
922.7918959118216
 30
0.0015258207003583
 11
2027.6499999999969
 21
1067.4918959118229
 31
0.0015258207003583
  0
LINE
  5
2CB
  8
0
 10
2027.6499999999969
 20
772.7918959118233
 30
0.0015258207003583
 11
2027.6499999999969
 21
917.49189591182278
 31
0.0015258207003583
  0
LINE
  5
2CC
  8
0
 10
2027.6499999999969
 20
622.79189591182285
 30
0.0015258207003583
 11
2027.6499999999969
 21
767.49189591182244
 31
0.0015258207003583
  0
LINE
  5
2CD
  8
0
 10
2027.6499999999951
 20
472.79189591182222
 30
0.0015258207003583
 11
2027.6499999999969
 21
617.49189591182164
 31
0.0015258207003583
  0
LINE
  5
2CE
  8
0
 10
2027.6499999999969
 20
322.79189591182171
 30
0.0015258207003583
 11
2027.6499999999969
 21
467.49189591182341
 31
0.0015258207003583
  0
LINE
  5
2CF
  8
0
 10
2027.6499999999951
 20
172.7918959118233
 30
0.0015258207003583
 11
2027.6499999999969
 21
317.49189591182289
 31
0.0015258207003583
  0
LINE
  5
2D0
  8
0
 10
2027.6499999999951
 20
22.791895911822809
 30
0.0015258207003583
 11
2027.6499999999969
 21
167.49189591182241
 31
0.0015258207003583
  0
LINE
  5
2D1
  8
0
 10
2027.6499999999969
 20
0.1418959116785241
 30
0.0015258207003583
 11
2027.6499999999969
 21
17.491895911822919
 31
0.0015258207003583
  0
LINE
  5
2D2
  8
0
 10
2022.349999999996
 20
17.491895911821938
 30
0.0015258207003583
 11
2022.349999999996
 21
0.1418959116785338
 31
0.0015258207003583
  0
LINE
  5
2D3
  8
0
 10
2022.3499999999981
 20
167.4918959118215
 30
0.0015258207003583
 11
2022.349999999996
 21
22.79189591182185
 31
0.0015258207003583
  0
LINE
  5
2D4
  8
0
 10
2022.3499999999981
 20
317.49189591182193
 30
0.0015258207003583
 11
2022.3499999999981
 21
172.79189591182219
 31
0.0015258207003583
  0
LINE
  5
2D5
  8
0
 10
2022.3499999999981
 20
467.49189591182238
 30
0.0015258207003583
 11
2022.3499999999981
 21
322.79189591182069
 31
0.0015258207003583
  0
LINE
  5
2D6
  8
0
 10
2022.3499999999981
 20
617.49189591182073
 30
0.0015258207003583
 11
2022.3499999999981
 21
472.7918959118212
 31
0.0015258207003583
  0
LINE
  5
2D7
  8
0
 10
2022.3499999999981
 20
767.4918959118213
 30
0.0015258207003583
 11
2022.3499999999981
 21
622.79189591182171
 31
0.0015258207003583
  0
LINE
  5
2D8
  8
0
 10
2022.3499999999981
 20
917.49189591182187
 30
0.0015258207003583
 11
2022.3499999999981
 21
772.79189591182217
 31
0.0015258207003583
  0
LINE
  5
2D9
  8
0
 10
2022.349999999999
 20
1067.491895911822
 30
0.0015258207003583
 11
2022.3499999999981
 21
922.79189591182069
 31
0.0015258207003583
  0
LINE
  5
2DA
  8
0
 10
2022.349999999999
 20
1217.4918959118211
 30
0.0015258207003583
 11
2022.349999999999
 21
1072.791895911821
 31
0.0015258207003583
  0
LINE
  5
2DB
  8
0
 10
2022.349999999999
 20
1367.4918959118211
 30
0.0015258207003583
 11
2022.349999999999
 21
1222.7918959118219
 31
0.0015258207003583
  0
LINE
  5
2DC
  8
0
 10
2022.349999999999
 20
1517.491895911822
 30
0.0015258207003583
 11
2022.349999999999
 21
1372.7918959118199
 31
0.0015258207003583
  0
LINE
  5
2DD
  8
0
 10
2022.349999999999
 20
1667.4918959118199
 30
0.0015258207003583
 11
2022.349999999999
 21
1522.791895911821
 31
0.0015258207003583
  0
LINE
  5
2DE
  8
0
 10
2022.349999999999
 20
1817.4918959118211
 30
0.0015258207003583
 11
2022.349999999999
 21
1672.7918959118219
 31
0.0015258207003583
  0
LINE
  5
2DF
  8
0
 10
2022.349999999999
 20
1967.491895911822
 30
0.0015258207003583
 11
2022.349999999999
 21
1822.7918959118219
 31
0.0015258207003583
  0
LINE
  5
2E0
  8
0
 10
2022.349999999999
 20
1990.1418959116779
 30
0.0015258207003583
 11
2022.349999999999
 21
1972.7918959118199
 31
0.0015258207003583
  0
LINE
  5
2E1
  8
0
 10
1877.6500000000001
 20
1972.7918959118199
 30
0.0015258207003583
 11
1877.6500000000001
 21
1990.14189591169
 31
0.0015258207003583
  0
LINE
  5
2E2
  8
0
 10
1877.650000000001
 20
1822.791895911821
 30
0.0015258207003583
 11
1877.6500000000001
 21
1967.4918959118211
 31
0.0015258207003583
  0
LINE
  5
2E3
  8
0
 10
1877.6500000000001
 20
1672.791895911821
 30
0.0015258207003583
 11
1877.6500000000001
 21
1817.4918959118199
 31
0.0015258207003583
  0
LINE
  5
2E4
  8
0
 10
1877.6500000000001
 20
1522.7918959118199
 30
0.0015258207003583
 11
1877.6500000000001
 21
1667.4918959118199
 31
0.0015258207003583
  0
LINE
  5
2E5
  8
0
 10
1877.6500000000001
 20
1372.791895911819
 30
0.0015258207003583
 11
1877.6500000000001
 21
1517.4918959118211
 31
0.0015258207003583
  0
LINE
  5
2E6
  8
0
 10
1877.6500000000001
 20
1222.791895911821
 30
0.0015258207003583
 11
1877.6500000000001
 21
1367.4918959118211
 31
0.0015258207003583
  0
LINE
  5
2E7
  8
0
 10
1877.649999999999
 20
1072.791895911821
 30
0.0015258207003583
 11
1877.649999999999
 21
1217.4918959118199
 31
0.0015258207003583
  0
LINE
  5
2E8
  8
0
 10
1877.649999999999
 20
922.79189591182035
 30
0.0015258207003583
 11
1877.649999999999
 21
1067.491895911822
 31
0.0015258207003583
  0
LINE
  5
2E9
  8
0
 10
1877.649999999999
 20
772.79189591182205
 30
0.0015258207003583
 11
1877.649999999999
 21
917.49189591182153
 31
0.0015258207003583
  0
LINE
  5
2EA
  8
0
 10
1877.649999999998
 20
622.79189591182148
 30
0.0015258207003583
 11
1877.649999999998
 21
767.49189591182119
 31
0.0015258207003583
  0
LINE
  5
2EB
  8
0
 10
1877.6499999999969
 20
472.79189591182109
 30
0.0015258207003583
 11
1877.649999999998
 21
617.49189591182062
 31
0.0015258207003583
  0
LINE
  5
2EC
  8
0
 10
1877.6499999999969
 20
322.79189591182052
 30
0.0015258207003583
 11
1877.6499999999969
 21
467.49189591182221
 31
0.0015258207003583
  0
LINE
  5
2ED
  8
0
 10
1877.6499999999969
 20
172.79189591182219
 30
0.0015258207003583
 11
1877.6499999999969
 21
317.49189591182181
 31
0.0015258207003583
  0
LINE
  5
2EE
  8
0
 10
1877.6499999999969
 20
22.79189591182174
 30
0.0015258207003583
 11
1877.6499999999969
 21
167.4918959118213
 31
0.0015258207003583
  0
LINE
  5
2EF
  8
0
 10
1877.6499999999969
 20
0.1418959116904448
 30
0.0015258207003583
 11
1877.6499999999969
 21
17.49189591182185
 31
0.0015258207003583
  0
LINE
  5
2F0
  8
0
 10
1872.349999999997
 20
17.49189591182083
 30
0.0015258207003583
 11
1872.349999999997
 21
0.1418959116904546
 31
0.0015258207003583
  0
LINE
  5
2F1
  8
0
 10
1872.349999999997
 20
167.49189591182039
 30
0.0015258207003583
 11
1872.349999999997
 21
22.791895911820731
 31
0.0015258207003583
  0
LINE
  5
2F2
  8
0
 10
1872.3499999999981
 20
317.49189591182102
 30
0.0015258207003583
 11
1872.3499999999981
 21
172.7918959118214
 31
0.0015258207003583
  0
LINE
  5
2F3
  8
0
 10
1872.3499999999981
 20
467.49189591182142
 30
0.0015258207003583
 11
1872.3499999999981
 21
322.79189591181978
 31
0.0015258207003583
  0
LINE
  5
2F4
  8
0
 10
1872.349999999999
 20
617.49189591181982
 30
0.0015258207003583
 11
1872.3499999999981
 21
472.79189591182018
 31
0.0015258207003583
  0
LINE
  5
2F5
  8
0
 10
1872.3499999999981
 20
767.49189591182039
 30
0.0015258207003583
 11
1872.3499999999981
 21
622.79189591182069
 31
0.0015258207003583
  0
LINE
  5
2F6
  8
0
 10
1872.349999999999
 20
917.49189591182096
 30
0.0015258207003583
 11
1872.3499999999981
 21
772.79189591182137
 31
0.0015258207003583
  0
LINE
  5
2F7
  8
0
 10
1872.349999999999
 20
1067.491895911822
 30
0.0015258207003583
 11
1872.349999999999
 21
922.79189591181978
 31
0.0015258207003583
  0
LINE
  5
2F8
  8
0
 10
1872.349999999999
 20
1217.4918959118199
 30
0.0015258207003583
 11
1872.349999999999
 21
1072.7918959118199
 31
0.0015258207003583
  0
LINE
  5
2F9
  8
0
 10
1872.349999999999
 20
1367.4918959118199
 30
0.0015258207003583
 11
1872.349999999999
 21
1222.791895911821
 31
0.0015258207003583
  0
LINE
  5
2FA
  8
0
 10
1872.3499999999999
 20
1517.4918959118211
 30
0.0015258207003583
 11
1872.349999999999
 21
1372.791895911819
 31
0.0015258207003583
  0
LINE
  5
2FB
  8
0
 10
1872.3499999999999
 20
1667.491895911819
 30
0.0015258207003583
 11
1872.3499999999999
 21
1522.7918959118199
 31
0.0015258207003583
  0
LINE
  5
2FC
  8
0
 10
1872.350000000001
 20
1817.4918959118199
 30
0.0015258207003583
 11
1872.3499999999999
 21
1672.7918959118199
 31
0.0015258207003583
  0
LINE
  5
2FD
  8
0
 10
1872.350000000001
 20
1967.4918959118211
 30
0.0015258207003583
 11
1872.350000000001
 21
1822.791895911821
 31
0.0015258207003583
  0
LINE
  5
2FE
  8
0
 10
1872.3499999999999
 20
1990.14189591169
 30
0.0015258207003583
 11
1872.350000000001
 21
1972.791895911819
 31
0.0015258207003583
  0
LINE
  5
2FF
  8
0
 10
1727.650000000001
 20
1972.7918959118231
 30
0.0015258207003583
 11
1727.650000000001
 21
1990.1418959117
 31
0.0015258207003583
  0
LINE
  5
300
  8
0
 10
1727.6500000000001
 20
1822.7918959118249
 30
0.0015258207003583
 11
1727.650000000001
 21
1967.491895911824
 31
0.0015258207003583
  0
LINE
  5
301
  8
0
 10
1727.6500000000001
 20
1672.791895911824
 30
0.0015258207003583
 11
1727.6500000000001
 21
1817.491895911824
 31
0.0015258207003583
  0
LINE
  5
302
  8
0
 10
1727.6500000000001
 20
1522.7918959118231
 30
0.0015258207003583
 11
1727.6500000000001
 21
1667.4918959118229
 31
0.0015258207003583
  0
LINE
  5
303
  8
0
 10
1727.649999999999
 20
1372.7918959118219
 30
0.0015258207003583
 11
1727.6500000000001
 21
1517.491895911824
 31
0.0015258207003583
  0
LINE
  5
304
  8
0
 10
1727.649999999998
 20
1222.791895911824
 30
0.0015258207003583
 11
1727.649999999999
 21
1367.4918959118229
 31
0.0015258207003583
  0
LINE
  5
305
  8
0
 10
1727.649999999998
 20
1072.7918959118231
 30
0.0015258207003583
 11
1727.649999999998
 21
1217.4918959118229
 31
0.0015258207003583
  0
LINE
  5
306
  8
0
 10
1727.649999999998
 20
922.79189591182217
 30
0.0015258207003583
 11
1727.649999999998
 21
1067.491895911824
 31
0.0015258207003583
  0
LINE
  5
307
  8
0
 10
1727.649999999998
 20
772.79189591182364
 30
0.0015258207003583
 11
1727.649999999998
 21
917.49189591182335
 31
0.0015258207003583
  0
LINE
  5
308
  8
0
 10
1727.649999999998
 20
622.79189591182262
 30
0.0015258207003583
 11
1727.649999999998
 21
767.49189591182255
 31
0.0015258207003583
  0
LINE
  5
309
  8
0
 10
1727.649999999998
 20
472.79189591182183
 30
0.0015258207003583
 11
1727.649999999998
 21
617.49189591182164
 31
0.0015258207003583
  0
LINE
  5
30A
  8
0
 10
1727.6499999999969
 20
322.79189591182109
 30
0.0015258207003583
 11
1727.649999999998
 21
467.49189591182301
 31
0.0015258207003583
  0
LINE
  5
30B
  8
0
 10
1727.6499999999969
 20
172.79189591182251
 30
0.0015258207003583
 11
1727.6499999999969
 21
317.49189591182233
 31
0.0015258207003583
  0
LINE
  5
30C
  8
0
 10
1727.6499999999969
 20
22.791895911821779
 30
0.0015258207003583
 11
1727.649999999998
 21
167.49189591182159
 31
0.0015258207003583
  0
LINE
  5
30D
  8
0
 10
1727.6499999999969
 20
0.1418959117001998
 30
0.0015258207003583
 11
1727.6499999999969
 21
17.491895911821889
 31
0.0015258207003583
  0
LINE
  5
30E
  8
0
 10
1722.3499999999981
 20
17.491895911820858
 30
0.0015258207003583
 11
1722.3499999999981
 21
0.1418959117002095
 31
0.0015258207003583
  0
LINE
  5
30F
  8
0
 10
1722.3499999999981
 20
167.49189591182059
 30
0.0015258207003583
 11
1722.3499999999981
 21
22.79189591182076
 31
0.0015258207003583
  0
LINE
  5
310
  8
0
 10
1722.349999999997
 20
317.49189591182147
 30
0.0015258207003583
 11
1722.3499999999981
 21
172.7918959118216
 31
0.0015258207003583
  0
LINE
  5
311
  8
0
 10
1722.3499999999981
 20
467.49189591182238
 30
0.0015258207003583
 11
1722.3499999999981
 21
322.79189591182029
 31
0.0015258207003583
  0
LINE
  5
312
  8
0
 10
1722.3499999999981
 20
617.49189591182119
 30
0.0015258207003583
 11
1722.3499999999981
 21
472.7918959118212
 31
0.0015258207003583
  0
LINE
  5
313
  8
0
 10
1722.3499999999981
 20
767.4918959118221
 30
0.0015258207003583
 11
1722.3499999999981
 21
622.79189591182217
 31
0.0015258207003583
  0
LINE
  5
314
  8
0
 10
1722.349999999999
 20
917.49189591182278
 30
0.0015258207003583
 11
1722.3499999999981
 21
772.79189591182296
 31
0.0015258207003583
  0
LINE
  5
315
  8
0
 10
1722.349999999999
 20
1067.491895911824
 30
0.0015258207003583
 11
1722.349999999999
 21
922.7918959118216
 31
0.0015258207003583
  0
LINE
  5
316
  8
0
 10
1722.349999999999
 20
1217.491895911822
 30
0.0015258207003583
 11
1722.349999999999
 21
1072.7918959118219
 31
0.0015258207003583
  0
LINE
  5
317
  8
0
 10
1722.349999999999
 20
1367.4918959118229
 30
0.0015258207003583
 11
1722.349999999999
 21
1222.7918959118231
 31
0.0015258207003583
  0
LINE
  5
318
  8
0
 10
1722.349999999999
 20
1517.491895911824
 30
0.0015258207003583
 11
1722.349999999999
 21
1372.7918959118219
 31
0.0015258207003583
  0
LINE
  5
319
  8
0
 10
1722.3499999999999
 20
1667.4918959118229
 30
0.0015258207003583
 11
1722.3499999999999
 21
1522.7918959118219
 31
0.0015258207003583
  0
LINE
  5
31A
  8
0
 10
1722.350000000001
 20
1817.4918959118229
 30
0.0015258207003583
 11
1722.3499999999999
 21
1672.7918959118231
 31
0.0015258207003583
  0
LINE
  5
31B
  8
0
 10
1722.350000000001
 20
1967.491895911824
 30
0.0015258207003583
 11
1722.350000000001
 21
1822.791895911824
 31
0.0015258207003583
  0
LINE
  5
31C
  8
0
 10
1722.350000000001
 20
1990.1418959117
 30
0.0015258207003583
 11
1722.350000000001
 21
1972.7918959118231
 31
0.0015258207003583
  0
LINE
  5
31D
  8
0
 10
1577.650000000001
 20
1972.791895911821
 30
0.0015258207003583
 11
1577.650000000001
 21
1990.1418959117129
 31
0.0015258207003583
  0
LINE
  5
31E
  8
0
 10
1577.650000000001
 20
1822.7918959118219
 30
0.0015258207003583
 11
1577.650000000001
 21
1967.491895911822
 31
0.0015258207003583
  0
LINE
  5
31F
  8
0
 10
1577.6500000000001
 20
1672.7918959118219
 30
0.0015258207003583
 11
1577.650000000001
 21
1817.4918959118211
 31
0.0015258207003583
  0
LINE
  5
320
  8
0
 10
1577.6500000000001
 20
1522.791895911821
 30
0.0015258207003583
 11
1577.6500000000001
 21
1667.4918959118211
 31
0.0015258207003583
  0
LINE
  5
321
  8
0
 10
1577.6500000000001
 20
1372.7918959118199
 30
0.0015258207003583
 11
1577.6500000000001
 21
1517.491895911822
 31
0.0015258207003583
  0
LINE
  5
322
  8
0
 10
1577.6500000000001
 20
1222.7918959118219
 30
0.0015258207003583
 11
1577.6500000000001
 21
1367.491895911822
 31
0.0015258207003583
  0
LINE
  5
323
  8
0
 10
1577.6500000000001
 20
1072.791895911821
 30
0.0015258207003583
 11
1577.6500000000001
 21
1217.4918959118211
 31
0.0015258207003583
  0
LINE
  5
324
  8
0
 10
1577.6500000000001
 20
922.79189591182114
 30
0.0015258207003583
 11
1577.6500000000001
 21
1067.4918959118229
 31
0.0015258207003583
  0
LINE
  5
325
  8
0
 10
1577.649999999999
 20
772.79189591182251
 30
0.0015258207003583
 11
1577.6500000000001
 21
917.49189591182221
 31
0.0015258207003583
  0
LINE
  5
326
  8
0
 10
1577.649999999999
 20
622.79189591182205
 30
0.0015258207003583
 11
1577.649999999999
 21
767.49189591182164
 31
0.0015258207003583
  0
LINE
  5
327
  8
0
 10
1577.649999999998
 20
472.79189591182143
 30
0.0015258207003583
 11
1577.649999999998
 21
617.49189591182085
 31
0.0015258207003583
  0
LINE
  5
328
  8
0
 10
1577.649999999998
 20
322.79189591182069
 30
0.0015258207003583
 11
1577.649999999998
 21
467.4918959118225
 31
0.0015258207003583
  0
LINE
  5
329
  8
0
 10
1577.649999999998
 20
172.79189591182231
 30
0.0015258207003583
 11
1577.649999999999
 21
317.49189591182193
 31
0.0015258207003583
  0
LINE
  5
32A
  8
0
 10
1577.649999999998
 20
22.791895911821761
 30
0.0015258207003583
 11
1577.649999999998
 21
167.49189591182139
 31
0.0015258207003583
  0
LINE
  5
32B
  8
0
 10
1577.649999999998
 20
0.1418959117132034
 30
0.0015258207003583
 11
1577.649999999998
 21
17.491895911821882
 31
0.0015258207003583
  0
LINE
  5
32C
  8
0
 10
1572.3499999999981
 20
17.491895911820809
 30
0.0015258207003583
 11
1572.3499999999981
 21
0.1418959117132131
 31
0.0015258207003583
  0
LINE
  5
32D
  8
0
 10
1572.3499999999981
 20
167.49189591182019
 30
0.0015258207003583
 11
1572.3499999999981
 21
22.791895911820699
 31
0.0015258207003583
  0
LINE
  5
32E
  8
0
 10
1572.3499999999981
 20
317.49189591182068
 30
0.0015258207003583
 11
1572.3499999999981
 21
172.7918959118212
 31
0.0015258207003583
  0
LINE
  5
32F
  8
0
 10
1572.3499999999981
 20
467.49189591182142
 30
0.0015258207003583
 11
1572.3499999999981
 21
322.79189591181938
 31
0.0015258207003583
  0
LINE
  5
330
  8
0
 10
1572.349999999999
 20
617.49189591181971
 30
0.0015258207003583
 11
1572.349999999999
 21
472.79189591182001
 31
0.0015258207003583
  0
LINE
  5
331
  8
0
 10
1572.3499999999999
 20
767.49189591182039
 30
0.0015258207003583
 11
1572.349999999999
 21
622.79189591182069
 31
0.0015258207003583
  0
LINE
  5
332
  8
0
 10
1572.3499999999999
 20
917.49189591182142
 30
0.0015258207003583
 11
1572.3499999999999
 21
772.79189591182137
 31
0.0015258207003583
  0
LINE
  5
333
  8
0
 10
1572.3499999999999
 20
1067.491895911822
 30
0.0015258207003583
 11
1572.3499999999999
 21
922.79189591182023
 31
0.0015258207003583
  0
LINE
  5
334
  8
0
 10
1572.3499999999999
 20
1217.4918959118211
 30
0.0015258207003583
 11
1572.3499999999999
 21
1072.791895911821
 31
0.0015258207003583
  0
LINE
  5
335
  8
0
 10
1572.350000000001
 20
1367.4918959118211
 30
0.0015258207003583
 11
1572.3499999999999
 21
1222.7918959118219
 31
0.0015258207003583
  0
LINE
  5
336
  8
0
 10
1572.350000000001
 20
1517.491895911822
 30
0.0015258207003583
 11
1572.350000000001
 21
1372.7918959118199
 31
0.0015258207003583
  0
LINE
  5
337
  8
0
 10
1572.350000000001
 20
1667.4918959118199
 30
0.0015258207003583
 11
1572.350000000001
 21
1522.791895911821
 31
0.0015258207003583
  0
LINE
  5
338
  8
0
 10
1572.350000000001
 20
1817.4918959118211
 30
0.0015258207003583
 11
1572.350000000001
 21
1672.791895911821
 31
0.0015258207003583
  0
LINE
  5
339
  8
0
 10
1572.350000000001
 20
1967.491895911822
 30
0.0015258207003583
 11
1572.350000000001
 21
1822.7918959118219
 31
0.0015258207003583
  0
LINE
  5
33A
  8
0
 10
1572.350000000001
 20
1990.1418959117129
 30
0.0015258207003583
 11
1572.350000000001
 21
1972.7918959118199
 31
0.0015258207003583
  0
LINE
  5
33B
  8
0
 10
1427.650000000001
 20
1972.791895911819
 30
0.0015258207003583
 11
1427.6500000000019
 21
1990.1418959117241
 31
0.0015258207003583
  0
LINE
  5
33C
  8
0
 10
1427.650000000001
 20
1822.7918959118199
 30
0.0015258207003583
 11
1427.650000000001
 21
1967.4918959118199
 31
0.0015258207003583
  0
LINE
  5
33D
  8
0
 10
1427.650000000001
 20
1672.7918959118199
 30
0.0015258207003583
 11
1427.650000000001
 21
1817.491895911819
 31
0.0015258207003583
  0
LINE
  5
33E
  8
0
 10
1427.6500000000001
 20
1522.7918959118199
 30
0.0015258207003583
 11
1427.650000000001
 21
1667.491895911819
 31
0.0015258207003583
  0
LINE
  5
33F
  8
0
 10
1427.6500000000001
 20
1372.791895911819
 30
0.0015258207003583
 11
1427.6500000000001
 21
1517.4918959118211
 31
0.0015258207003583
  0
LINE
  5
340
  8
0
 10
1427.6500000000001
 20
1222.791895911821
 30
0.0015258207003583
 11
1427.6500000000001
 21
1367.4918959118199
 31
0.0015258207003583
  0
LINE
  5
341
  8
0
 10
1427.649999999999
 20
1072.791895911821
 30
0.0015258207003583
 11
1427.6500000000001
 21
1217.4918959118199
 31
0.0015258207003583
  0
LINE
  5
342
  8
0
 10
1427.649999999999
 20
922.79189591182035
 30
0.0015258207003583
 11
1427.649999999999
 21
1067.491895911822
 31
0.0015258207003583
  0
LINE
  5
343
  8
0
 10
1427.649999999999
 20
772.79189591182217
 30
0.0015258207003583
 11
1427.649999999999
 21
917.49189591182164
 31
0.0015258207003583
  0
LINE
  5
344
  8
0
 10
1427.649999999999
 20
622.79189591182171
 30
0.0015258207003583
 11
1427.649999999999
 21
767.4918959118213
 31
0.0015258207003583
  0
LINE
  5
345
  8
0
 10
1427.649999999998
 20
472.79189591182143
 30
0.0015258207003583
 11
1427.649999999999
 21
617.49189591182085
 31
0.0015258207003583
  0
LINE
  5
346
  8
0
 10
1427.649999999998
 20
322.79189591182097
 30
0.0015258207003583
 11
1427.649999999999
 21
467.4918959118225
 31
0.0015258207003583
  0
LINE
  5
347
  8
0
 10
1427.649999999998
 20
172.79189591182271
 30
0.0015258207003583
 11
1427.649999999999
 21
317.49189591182221
 31
0.0015258207003583
  0
LINE
  5
348
  8
0
 10
1427.649999999998
 20
22.791895911822291
 30
0.0015258207003583
 11
1427.649999999998
 21
167.4918959118217
 31
0.0015258207003583
  0
LINE
  5
349
  8
0
 10
1427.649999999998
 20
0.1418959117245827
 30
0.0015258207003583
 11
1427.649999999998
 21
17.491895911822411
 31
0.0015258207003583
  0
LINE
  5
34A
  8
0
 10
1422.3499999999981
 20
17.491895911822478
 30
0.0015258207003583
 11
1422.3499999999981
 21
0.1418959117245924
 31
0.0015258207003583
  0
LINE
  5
34B
  8
0
 10
1422.3499999999981
 20
167.4918959118217
 30
0.0015258207003583
 11
1422.3499999999981
 21
22.791895911822369
 31
0.0015258207003583
  0
LINE
  5
34C
  8
0
 10
1422.3499999999981
 20
317.4918959118221
 30
0.0015258207003583
 11
1422.3499999999981
 21
172.79189591182271
 31
0.0015258207003583
  0
LINE
  5
34D
  8
0
 10
1422.3499999999981
 20
467.49189591182238
 30
0.0015258207003583
 11
1422.3499999999981
 21
322.79189591182092
 31
0.0015258207003583
  0
LINE
  5
34E
  8
0
 10
1422.349999999999
 20
617.49189591182073
 30
0.0015258207003583
 11
1422.3499999999981
 21
472.79189591182131
 31
0.0015258207003583
  0
LINE
  5
34F
  8
0
 10
1422.349999999999
 20
767.4918959118213
 30
0.0015258207003583
 11
1422.349999999999
 21
622.79189591182171
 31
0.0015258207003583
  0
LINE
  5
350
  8
0
 10
1422.3499999999999
 20
917.49189591182187
 30
0.0015258207003583
 11
1422.349999999999
 21
772.79189591182217
 31
0.0015258207003583
  0
LINE
  5
351
  8
0
 10
1422.350000000001
 20
1067.491895911822
 30
0.0015258207003583
 11
1422.3499999999999
 21
922.79189591182069
 31
0.0015258207003583
  0
LINE
  5
352
  8
0
 10
1422.350000000001
 20
1217.4918959118211
 30
0.0015258207003583
 11
1422.350000000001
 21
1072.791895911821
 31
0.0015258207003583
  0
LINE
  5
353
  8
0
 10
1422.350000000001
 20
1367.4918959118211
 30
0.0015258207003583
 11
1422.350000000001
 21
1222.7918959118219
 31
0.0015258207003583
  0
LINE
  5
354
  8
0
 10
1422.350000000001
 20
1517.4918959118211
 30
0.0015258207003583
 11
1422.350000000001
 21
1372.7918959118199
 31
0.0015258207003583
  0
LINE
  5
355
  8
0
 10
1422.350000000001
 20
1667.4918959118199
 30
0.0015258207003583
 11
1422.350000000001
 21
1522.7918959118199
 31
0.0015258207003583
  0
LINE
  5
356
  8
0
 10
1422.350000000002
 20
1817.4918959118199
 30
0.0015258207003583
 11
1422.350000000001
 21
1672.7918959118199
 31
0.0015258207003583
  0
LINE
  5
357
  8
0
 10
1422.350000000002
 20
1967.4918959118199
 30
0.0015258207003583
 11
1422.350000000002
 21
1822.791895911821
 31
0.0015258207003583
  0
LINE
  5
358
  8
0
 10
1422.350000000002
 20
1990.1418959117241
 30
0.0015258207003583
 11
1422.350000000002
 21
1972.791895911819
 31
0.0015258207003583
  0
LINE
  5
359
  8
0
 10
1277.650000000003
 20
1972.791895911819
 30
0.0015258207003583
 11
1277.650000000003
 21
1990.1418959117359
 31
0.0015258207003583
  0
LINE
  5
35A
  8
0
 10
1277.650000000003
 20
1822.791895911821
 30
0.0015258207003583
 11
1277.650000000003
 21
1967.4918959118211
 31
0.0015258207003583
  0
LINE
  5
35B
  8
0
 10
1277.650000000001
 20
1672.791895911821
 30
0.0015258207003583
 11
1277.6500000000019
 21
1817.4918959118199
 31
0.0015258207003583
  0
LINE
  5
35C
  8
0
 10
1277.650000000001
 20
1522.7918959118199
 30
0.0015258207003583
 11
1277.650000000001
 21
1667.4918959118199
 31
0.0015258207003583
  0
LINE
  5
35D
  8
0
 10
1277.650000000001
 20
1372.791895911819
 30
0.0015258207003583
 11
1277.650000000001
 21
1517.4918959118211
 31
0.0015258207003583
  0
LINE
  5
35E
  8
0
 10
1277.650000000001
 20
1222.791895911821
 30
0.0015258207003583
 11
1277.650000000001
 21
1367.4918959118211
 31
0.0015258207003583
  0
LINE
  5
35F
  8
0
 10
1277.650000000001
 20
1072.791895911821
 30
0.0015258207003583
 11
1277.650000000001
 21
1217.4918959118199
 31
0.0015258207003583
  0
LINE
  5
360
  8
0
 10
1277.6500000000001
 20
922.79189591182023
 30
0.0015258207003583
 11
1277.650000000001
 21
1067.491895911822
 31
0.0015258207003583
  0
LINE
  5
361
  8
0
 10
1277.6500000000001
 20
772.79189591182217
 30
0.0015258207003583
 11
1277.6500000000001
 21
917.49189591182153
 31
0.0015258207003583
  0
LINE
  5
362
  8
0
 10
1277.649999999999
 20
622.79189591182148
 30
0.0015258207003583
 11
1277.649999999999
 21
767.49189591182119
 31
0.0015258207003583
  0
LINE
  5
363
  8
0
 10
1277.649999999999
 20
472.79189591182109
 30
0.0015258207003583
 11
1277.649999999999
 21
617.49189591182062
 31
0.0015258207003583
  0
LINE
  5
364
  8
0
 10
1277.649999999998
 20
322.79189591182069
 30
0.0015258207003583
 11
1277.649999999999
 21
467.49189591182221
 31
0.0015258207003583
  0
LINE
  5
365
  8
0
 10
1277.649999999999
 20
172.79189591182219
 30
0.0015258207003583
 11
1277.649999999999
 21
317.49189591182181
 31
0.0015258207003583
  0
LINE
  5
366
  8
0
 10
1277.649999999999
 20
22.791895911821769
 30
0.0015258207003583
 11
1277.649999999999
 21
167.4918959118213
 31
0.0015258207003583
  0
LINE
  5
367
  8
0
 10
1277.649999999999
 20
0.141895911735962
 30
0.0015258207003583
 11
1277.649999999999
 21
17.491895911821889
 31
0.0015258207003583
  0
LINE
  5
368
  8
0
 10
1272.349999999999
 20
17.491895911820851
 30
0.0015258207003583
 11
1272.349999999999
 21
0.1418959117359717
 31
0.0015258207003583
  0
LINE
  5
369
  8
0
 10
1272.349999999999
 20
167.49189591182051
 30
0.0015258207003583
 11
1272.349999999999
 21
22.791895911820738
 31
0.0015258207003583
  0
LINE
  5
36A
  8
0
 10
1272.349999999999
 20
317.49189591182119
 30
0.0015258207003583
 11
1272.349999999999
 21
172.79189591182151
 31
0.0015258207003583
  0
LINE
  5
36B
  8
0
 10
1272.349999999999
 20
467.49189591182193
 30
0.0015258207003583
 11
1272.349999999999
 21
322.79189591182001
 31
0.0015258207003583
  0
LINE
  5
36C
  8
0
 10
1272.350000000001
 20
617.49189591182039
 30
0.0015258207003583
 11
1272.3499999999999
 21
472.79189591182057
 31
0.0015258207003583
  0
LINE
  5
36D
  8
0
 10
1272.350000000001
 20
767.49189591182073
 30
0.0015258207003583
 11
1272.350000000001
 21
622.79189591182103
 31
0.0015258207003583
  0
LINE
  5
36E
  8
0
 10
1272.350000000001
 20
917.49189591182142
 30
0.0015258207003583
 11
1272.350000000001
 21
772.79189591182171
 31
0.0015258207003583
  0
LINE
  5
36F
  8
0
 10
1272.350000000001
 20
1067.491895911822
 30
0.0015258207003583
 11
1272.3499999999999
 21
922.79189591182001
 31
0.0015258207003583
  0
LINE
  5
370
  8
0
 10
1272.350000000001
 20
1217.4918959118199
 30
0.0015258207003583
 11
1272.350000000001
 21
1072.7918959118199
 31
0.0015258207003583
  0
LINE
  5
371
  8
0
 10
1272.350000000001
 20
1367.4918959118211
 30
0.0015258207003583
 11
1272.350000000001
 21
1222.791895911821
 31
0.0015258207003583
  0
LINE
  5
372
  8
0
 10
1272.350000000001
 20
1517.4918959118211
 30
0.0015258207003583
 11
1272.350000000001
 21
1372.791895911819
 31
0.0015258207003583
  0
LINE
  5
373
  8
0
 10
1272.350000000001
 20
1667.4918959118199
 30
0.0015258207003583
 11
1272.350000000001
 21
1522.7918959118199
 31
0.0015258207003583
  0
LINE
  5
374
  8
0
 10
1272.350000000001
 20
1817.4918959118199
 30
0.0015258207003583
 11
1272.350000000001
 21
1672.791895911821
 31
0.0015258207003583
  0
LINE
  5
375
  8
0
 10
1272.350000000001
 20
1967.4918959118211
 30
0.0015258207003583
 11
1272.350000000001
 21
1822.791895911821
 31
0.0015258207003583
  0
LINE
  5
376
  8
0
 10
1272.350000000002
 20
1990.1418959117359
 30
0.0015258207003583
 11
1272.350000000002
 21
1972.791895911819
 31
0.0015258207003583
  0
LINE
  5
377
  8
0
 10
1127.650000000003
 20
1972.7918959118199
 30
0.0015258207003583
 11
1127.650000000003
 21
1990.141895911747
 31
0.0015258207003583
  0
LINE
  5
378
  8
0
 10
1127.650000000004
 20
1822.7918959118219
 30
0.0015258207003583
 11
1127.650000000003
 21
1967.4918959118211
 31
0.0015258207003583
  0
LINE
  5
379
  8
0
 10
1127.650000000003
 20
1672.791895911821
 30
0.0015258207003583
 11
1127.650000000004
 21
1817.4918959118211
 31
0.0015258207003583
  0
LINE
  5
37A
  8
0
 10
1127.6500000000019
 20
1522.791895911821
 30
0.0015258207003583
 11
1127.650000000003
 21
1667.4918959118199
 31
0.0015258207003583
  0
LINE
  5
37B
  8
0
 10
1127.650000000003
 20
1372.7918959118199
 30
0.0015258207003583
 11
1127.650000000003
 21
1517.491895911822
 31
0.0015258207003583
  0
LINE
  5
37C
  8
0
 10
1127.650000000003
 20
1222.7918959118219
 30
0.0015258207003583
 11
1127.650000000003
 21
1367.4918959118211
 31
0.0015258207003583
  0
LINE
  5
37D
  8
0
 10
1127.650000000003
 20
1072.791895911821
 30
0.0015258207003583
 11
1127.650000000003
 21
1217.4918959118211
 31
0.0015258207003583
  0
LINE
  5
37E
  8
0
 10
1127.6500000000019
 20
922.79189591182035
 30
0.0015258207003583
 11
1127.650000000003
 21
1067.491895911822
 31
0.0015258207003583
  0
LINE
  5
37F
  8
0
 10
1127.650000000001
 20
772.79189591182194
 30
0.0015258207003583
 11
1127.650000000001
 21
917.49189591182164
 31
0.0015258207003583
  0
LINE
  5
380
  8
0
 10
1127.650000000001
 20
622.79189591182137
 30
0.0015258207003583
 11
1127.650000000001
 21
767.49189591182096
 31
0.0015258207003583
  0
LINE
  5
381
  8
0
 10
1127.6500000000001
 20
472.79189591182069
 30
0.0015258207003583
 11
1127.6500000000001
 21
617.49189591182051
 31
0.0015258207003583
  0
LINE
  5
382
  8
0
 10
1127.6500000000001
 20
322.79189591182029
 30
0.0015258207003583
 11
1127.6500000000001
 21
467.4918959118221
 31
0.0015258207003583
  0
LINE
  5
383
  8
0
 10
1127.6500000000001
 20
172.79189591182191
 30
0.0015258207003583
 11
1127.6500000000001
 21
317.49189591182147
 31
0.0015258207003583
  0
LINE
  5
384
  8
0
 10
1127.6500000000001
 20
22.79189591182125
 30
0.0015258207003583
 11
1127.6500000000001
 21
167.49189591182079
 31
0.0015258207003583
  0
LINE
  5
385
  8
0
 10
1127.6500000000001
 20
0.1418959117473413
 30
0.0015258207003583
 11
1127.6500000000001
 21
17.49189591182137
 31
0.0015258207003583
  0
LINE
  5
386
  8
0
 10
1122.349999999999
 20
17.491895911821391
 30
0.0015258207003583
 11
1122.349999999999
 21
0.141895911747351
 31
0.0015258207003583
  0
LINE
  5
387
  8
0
 10
1122.349999999999
 20
167.4918959118209
 30
0.0015258207003583
 11
1122.349999999999
 21
22.791895911821278
 31
0.0015258207003583
  0
LINE
  5
388
  8
0
 10
1122.3499999999999
 20
317.49189591182159
 30
0.0015258207003583
 11
1122.349999999999
 21
172.79189591182191
 31
0.0015258207003583
  0
LINE
  5
389
  8
0
 10
1122.3499999999999
 20
467.49189591182221
 30
0.0015258207003583
 11
1122.349999999999
 21
322.7918959118204
 31
0.0015258207003583
  0
LINE
  5
38A
  8
0
 10
1122.350000000001
 20
617.49189591182073
 30
0.0015258207003583
 11
1122.3499999999999
 21
472.79189591182109
 31
0.0015258207003583
  0
LINE
  5
38B
  8
0
 10
1122.350000000001
 20
767.4918959118213
 30
0.0015258207003583
 11
1122.350000000001
 21
622.79189591182148
 31
0.0015258207003583
  0
LINE
  5
38C
  8
0
 10
1122.350000000001
 20
917.49189591182187
 30
0.0015258207003583
 11
1122.350000000001
 21
772.79189591182217
 31
0.0015258207003583
  0
LINE
  5
38D
  8
0
 10
1122.350000000001
 20
1067.491895911822
 30
0.0015258207003583
 11
1122.350000000001
 21
922.79189591182069
 31
0.0015258207003583
  0
LINE
  5
38E
  8
0
 10
1122.350000000001
 20
1217.4918959118211
 30
0.0015258207003583
 11
1122.350000000001
 21
1072.791895911821
 31
0.0015258207003583
  0
LINE
  5
38F
  8
0
 10
1122.350000000001
 20
1367.4918959118211
 30
0.0015258207003583
 11
1122.350000000001
 21
1222.7918959118219
 31
0.0015258207003583
  0
LINE
  5
390
  8
0
 10
1122.350000000002
 20
1517.491895911822
 30
0.0015258207003583
 11
1122.350000000001
 21
1372.7918959118199
 31
0.0015258207003583
  0
LINE
  5
391
  8
0
 10
1122.350000000002
 20
1667.4918959118199
 30
0.0015258207003583
 11
1122.350000000002
 21
1522.791895911821
 31
0.0015258207003583
  0
LINE
  5
392
  8
0
 10
1122.350000000001
 20
1817.4918959118211
 30
0.0015258207003583
 11
1122.350000000001
 21
1672.791895911821
 31
0.0015258207003583
  0
LINE
  5
393
  8
0
 10
1122.350000000002
 20
1967.4918959118211
 30
0.0015258207003583
 11
1122.350000000002
 21
1822.7918959118219
 31
0.0015258207003583
  0
LINE
  5
394
  8
0
 10
1122.350000000002
 20
1990.141895911747
 30
0.0015258207003583
 11
1122.350000000002
 21
1972.7918959118199
 31
0.0015258207003583
  0
LINE
  5
395
  8
0
 10
977.65000000000407
 20
1972.791895911821
 30
0.0015258207003583
 11
977.65000000000373
 21
1990.1418959117591
 31
0.0015258207003583
  0
LINE
  5
396
  8
0
 10
977.65000000000316
 20
1822.7918959118219
 30
0.0015258207003583
 11
977.65000000000373
 21
1967.491895911822
 31
0.0015258207003583
  0
LINE
  5
397
  8
0
 10
977.65000000000316
 20
1672.7918959118219
 30
0.0015258207003583
 11
977.65000000000316
 21
1817.4918959118211
 31
0.0015258207003583
  0
LINE
  5
398
  8
0
 10
977.65000000000316
 20
1522.791895911821
 30
0.0015258207003583
 11
977.65000000000316
 21
1667.4918959118211
 31
0.0015258207003583
  0
LINE
  5
399
  8
0
 10
977.65000000000316
 20
1372.7918959118199
 30
0.0015258207003583
 11
977.65000000000316
 21
1517.491895911822
 31
0.0015258207003583
  0
LINE
  5
39A
  8
0
 10
977.65000000000316
 20
1222.7918959118219
 30
0.0015258207003583
 11
977.65000000000316
 21
1367.491895911822
 31
0.0015258207003583
  0
LINE
  5
39B
  8
0
 10
977.65000000000282
 20
1072.791895911821
 30
0.0015258207003583
 11
977.65000000000316
 21
1217.4918959118211
 31
0.0015258207003583
  0
LINE
  5
39C
  8
0
 10
977.65000000000191
 20
922.79189591182069
 30
0.0015258207003583
 11
977.65000000000282
 21
1067.491895911822
 31
0.0015258207003583
  0
LINE
  5
39D
  8
0
 10
977.65000000000191
 20
772.79189591182217
 30
0.0015258207003583
 11
977.65000000000191
 21
917.49189591182187
 31
0.0015258207003583
  0
LINE
  5
39E
  8
0
 10
977.65000000000191
 20
622.79189591182148
 30
0.0015258207003583
 11
977.65000000000191
 21
767.4918959118213
 31
0.0015258207003583
  0
LINE
  5
39F
  8
0
 10
977.65000000000191
 20
472.79189591182069
 30
0.0015258207003583
 11
977.65000000000191
 21
617.49189591182051
 31
0.0015258207003583
  0
LINE
  5
3A0
  8
0
 10
977.65000000000146
 20
322.79189591182029
 30
0.0015258207003583
 11
977.65000000000191
 21
467.4918959118221
 31
0.0015258207003583
  0
LINE
  5
3A1
  8
0
 10
977.65000000000055
 20
172.79189591182171
 30
0.0015258207003583
 11
977.65000000000111
 21
317.49189591182142
 31
0.0015258207003583
  0
LINE
  5
3A2
  8
0
 10
977.64999999999998
 20
22.791895911821001
 30
0.0015258207003583
 11
977.65000000000055
 21
167.49189591182071
 31
0.0015258207003583
  0
LINE
  5
3A3
  8
0
 10
977.64999999999998
 20
0.1418959117589913
 30
0.0015258207003583
 11
977.64999999999998
 21
17.491895911821121
 31
0.0015258207003583
  0
LINE
  5
3A4
  8
0
 10
972.34999999999991
 20
17.4918959118211
 30
0.0015258207003583
 11
972.34999999999991
 21
0.141895911759001
 31
0.0015258207003583
  0
LINE
  5
3A5
  8
0
 10
972.35000000000082
 20
167.49189591182059
 30
0.0015258207003583
 11
972.34999999999991
 21
22.791895911821001
 31
0.0015258207003583
  0
LINE
  5
3A6
  8
0
 10
972.35000000000127
 20
317.49189591182147
 30
0.0015258207003583
 11
972.35000000000082
 21
172.7918959118216
 31
0.0015258207003583
  0
LINE
  5
3A7
  8
0
 10
972.35000000000127
 20
467.49189591182221
 30
0.0015258207003583
 11
972.35000000000127
 21
322.79189591182029
 31
0.0015258207003583
  0
LINE
  5
3A8
  8
0
 10
972.35000000000218
 20
617.49189591182051
 30
0.0015258207003583
 11
972.35000000000127
 21
472.7918959118208
 31
0.0015258207003583
  0
LINE
  5
3A9
  8
0
 10
972.35000000000218
 20
767.49189591182119
 30
0.0015258207003583
 11
972.35000000000218
 21
622.79189591182137
 31
0.0015258207003583
  0
LINE
  5
3AA
  8
0
 10
972.35000000000264
 20
917.49189591182187
 30
0.0015258207003583
 11
972.35000000000218
 21
772.79189591182217
 31
0.0015258207003583
  0
LINE
  5
3AB
  8
0
 10
972.35000000000264
 20
1067.491895911822
 30
0.0015258207003583
 11
972.35000000000264
 21
922.79189591182069
 31
0.0015258207003583
  0
LINE
  5
3AC
  8
0
 10
972.35000000000264
 20
1217.4918959118211
 30
0.0015258207003583
 11
972.35000000000264
 21
1072.791895911821
 31
0.0015258207003583
  0
LINE
  5
3AD
  8
0
 10
972.35000000000264
 20
1367.491895911822
 30
0.0015258207003583
 11
972.35000000000264
 21
1222.7918959118219
 31
0.0015258207003583
  0
LINE
  5
3AE
  8
0
 10
972.35000000000264
 20
1517.491895911822
 30
0.0015258207003583
 11
972.35000000000264
 21
1372.7918959118199
 31
0.0015258207003583
  0
LINE
  5
3AF
  8
0
 10
972.35000000000355
 20
1667.4918959118199
 30
0.0015258207003583
 11
972.35000000000264
 21
1522.791895911821
 31
0.0015258207003583
  0
LINE
  5
3B0
  8
0
 10
972.35000000000355
 20
1817.4918959118211
 30
0.0015258207003583
 11
972.35000000000355
 21
1672.7918959118219
 31
0.0015258207003583
  0
LINE
  5
3B1
  8
0
 10
972.35000000000355
 20
1967.491895911822
 30
0.0015258207003583
 11
972.35000000000355
 21
1822.7918959118219
 31
0.0015258207003583
  0
LINE
  5
3B2
  8
0
 10
972.35000000000355
 20
1990.1418959117591
 30
0.0015258207003583
 11
972.35000000000355
 21
1972.791895911821
 31
0.0015258207003583
  0
LINE
  5
3B3
  8
0
 10
827.65000000000407
 20
1972.791895911819
 30
0.0015258207003583
 11
827.65000000000407
 21
1990.14189591177
 31
0.0015258207003583
  0
LINE
  5
3B4
  8
0
 10
827.65000000000373
 20
1822.791895911821
 30
0.0015258207003583
 11
827.65000000000407
 21
1967.4918959118199
 31
0.0015258207003583
  0
LINE
  5
3B5
  8
0
 10
827.65000000000316
 20
1672.7918959118199
 30
0.0015258207003583
 11
827.65000000000373
 21
1817.4918959118199
 31
0.0015258207003583
  0
LINE
  5
3B6
  8
0
 10
827.65000000000191
 20
1522.7918959118199
 30
0.0015258207003583
 11
827.65000000000282
 21
1667.4918959118199
 31
0.0015258207003583
  0
LINE
  5
3B7
  8
0
 10
827.65000000000282
 20
1372.791895911819
 30
0.0015258207003583
 11
827.65000000000282
 21
1517.4918959118211
 31
0.0015258207003583
  0
LINE
  5
3B8
  8
0
 10
827.65000000000191
 20
1222.791895911821
 30
0.0015258207003583
 11
827.65000000000282
 21
1367.4918959118199
 31
0.0015258207003583
  0
LINE
  5
3B9
  8
0
 10
827.65000000000146
 20
1072.791895911821
 30
0.0015258207003583
 11
827.65000000000191
 21
1217.4918959118199
 31
0.0015258207003583
  0
LINE
  5
3BA
  8
0
 10
827.65000000000146
 20
922.79189591182035
 30
0.0015258207003583
 11
827.65000000000191
 21
1067.491895911822
 31
0.0015258207003583
  0
LINE
  5
3BB
  8
0
 10
827.65000000000089
 20
772.79189591182228
 30
0.0015258207003583
 11
827.65000000000146
 21
917.49189591182187
 31
0.0015258207003583
  0
LINE
  5
3BC
  8
0
 10
827.65000000000055
 20
622.79189591182194
 30
0.0015258207003583
 11
827.65000000000089
 21
767.49189591182142
 31
0.0015258207003583
  0
LINE
  5
3BD
  8
0
 10
827.65000000000055
 20
472.79189591182143
 30
0.0015258207003583
 11
827.65000000000055
 21
617.49189591182085
 31
0.0015258207003583
  0
LINE
  5
3BE
  8
0
 10
827.65000000000055
 20
322.79189591182097
 30
0.0015258207003583
 11
827.65000000000055
 21
467.49189591182261
 31
0.0015258207003583
  0
LINE
  5
3BF
  8
0
 10
827.65000000000055
 20
172.79189591182271
 30
0.0015258207003583
 11
827.65000000000055
 21
317.49189591182221
 31
0.0015258207003583
  0
LINE
  5
3C0
  8
0
 10
827.65000000000055
 20
22.79189591182233
 30
0.0015258207003583
 11
827.65000000000055
 21
167.4918959118217
 31
0.0015258207003583
  0
LINE
  5
3C1
  8
0
 10
827.65000000000055
 20
0.1418959117700999
 30
0.0015258207003583
 11
827.65000000000055
 21
17.49189591182245
 31
0.0015258207003583
  0
LINE
  5
3C2
  8
0
 10
822.35000000000082
 20
17.491895911822489
 30
0.0015258207003583
 11
822.35000000000082
 21
0.1418959117701096
 31
0.0015258207003583
  0
LINE
  5
3C3
  8
0
 10
822.35000000000082
 20
167.4918959118217
 30
0.0015258207003583
 11
822.35000000000082
 21
22.79189591182238
 31
0.0015258207003583
  0
LINE
  5
3C4
  8
0
 10
822.35000000000116
 20
317.49189591182221
 30
0.0015258207003583
 11
822.35000000000082
 21
172.79189591182271
 31
0.0015258207003583
  0
LINE
  5
3C5
  8
0
 10
822.35000000000173
 20
467.4918959118225
 30
0.0015258207003583
 11
822.35000000000116
 21
322.79189591182092
 31
0.0015258207003583
  0
LINE
  5
3C6
  8
0
 10
822.35000000000218
 20
617.49189591182085
 30
0.0015258207003583
 11
822.35000000000173
 21
472.79189591182143
 31
0.0015258207003583
  0
LINE
  5
3C7
  8
0
 10
822.35000000000218
 20
767.49189591182119
 30
0.0015258207003583
 11
822.35000000000218
 21
622.79189591182148
 31
0.0015258207003583
  0
LINE
  5
3C8
  8
0
 10
822.35000000000264
 20
917.49189591182153
 30
0.0015258207003583
 11
822.35000000000218
 21
772.79189591182194
 31
0.0015258207003583
  0
LINE
  5
3C9
  8
0
 10
822.35000000000218
 20
1067.491895911822
 30
0.0015258207003583
 11
822.35000000000218
 21
922.79189591182035
 31
0.0015258207003583
  0
LINE
  5
3CA
  8
0
 10
822.35000000000218
 20
1217.4918959118199
 30
0.0015258207003583
 11
822.35000000000218
 21
1072.791895911821
 31
0.0015258207003583
  0
LINE
  5
3CB
  8
0
 10
822.35000000000264
 20
1367.4918959118199
 30
0.0015258207003583
 11
822.35000000000218
 21
1222.791895911821
 31
0.0015258207003583
  0
LINE
  5
3CC
  8
0
 10
822.35000000000355
 20
1517.4918959118211
 30
0.0015258207003583
 11
822.35000000000264
 21
1372.791895911819
 31
0.0015258207003583
  0
LINE
  5
3CD
  8
0
 10
822.350000000004
 20
1667.491895911819
 30
0.0015258207003583
 11
822.35000000000355
 21
1522.7918959118199
 31
0.0015258207003583
  0
LINE
  5
3CE
  8
0
 10
822.350000000004
 20
1817.491895911819
 30
0.0015258207003583
 11
822.350000000004
 21
1672.7918959118199
 31
0.0015258207003583
  0
LINE
  5
3CF
  8
0
 10
822.350000000004
 20
1967.4918959118199
 30
0.0015258207003583
 11
822.350000000004
 21
1822.791895911821
 31
0.0015258207003583
  0
LINE
  5
3D0
  8
0
 10
822.350000000004
 20
1990.14189591177
 30
0.0015258207003583
 11
822.350000000004
 21
1972.791895911819
 31
0.0015258207003583
  0
LINE
  5
3D1
  8
0
 10
677.65000000000464
 20
1972.7918959118199
 30
0.0015258207003583
 11
677.65000000000464
 21
1990.1418959117809
 31
0.0015258207003583
  0
LINE
  5
3D2
  8
0
 10
677.65000000000464
 20
1822.791895911821
 30
0.0015258207003583
 11
677.65000000000464
 21
1967.4918959118211
 31
0.0015258207003583
  0
LINE
  5
3D3
  8
0
 10
677.65000000000418
 20
1672.791895911821
 30
0.0015258207003583
 11
677.65000000000418
 21
1817.4918959118199
 31
0.0015258207003583
  0
LINE
  5
3D4
  8
0
 10
677.65000000000327
 20
1522.7918959118199
 30
0.0015258207003583
 11
677.65000000000373
 21
1667.4918959118199
 31
0.0015258207003583
  0
LINE
  5
3D5
  8
0
 10
677.65000000000327
 20
1372.791895911819
 30
0.0015258207003583
 11
677.65000000000327
 21
1517.4918959118211
 31
0.0015258207003583
  0
LINE
  5
3D6
  8
0
 10
677.65000000000271
 20
1222.791895911821
 30
0.0015258207003583
 11
677.65000000000327
 21
1367.4918959118199
 31
0.0015258207003583
  0
LINE
  5
3D7
  8
0
 10
677.65000000000271
 20
1072.7918959118199
 30
0.0015258207003583
 11
677.65000000000327
 21
1217.4918959118199
 31
0.0015258207003583
  0
LINE
  5
3D8
  8
0
 10
677.65000000000191
 20
922.79189591182023
 30
0.0015258207003583
 11
677.65000000000271
 21
1067.491895911822
 31
0.0015258207003583
  0
LINE
  5
3D9
  8
0
 10
677.65000000000146
 20
772.79189591182183
 30
0.0015258207003583
 11
677.65000000000191
 21
917.49189591182142
 31
0.0015258207003583
  0
LINE
  5
3DA
  8
0
 10
677.65000000000191
 20
622.79189591182114
 30
0.0015258207003583
 11
677.65000000000191
 21
767.49189591182073
 31
0.0015258207003583
  0
LINE
  5
3DB
  8
0
 10
677.65000000000191
 20
472.79189591182057
 30
0.0015258207003583
 11
677.65000000000191
 21
617.49189591182039
 31
0.0015258207003583
  0
LINE
  5
3DC
  8
0
 10
677.65000000000146
 20
322.79189591182012
 30
0.0015258207003583
 11
677.65000000000191
 21
467.49189591182181
 31
0.0015258207003583
  0
LINE
  5
3DD
  8
0
 10
677.65000000000146
 20
172.7918959118216
 30
0.0015258207003583
 11
677.65000000000146
 21
317.49189591182119
 31
0.0015258207003583
  0
LINE
  5
3DE
  8
0
 10
677.65000000000146
 20
22.791895911821001
 30
0.0015258207003583
 11
677.65000000000146
 21
167.49189591182059
 31
0.0015258207003583
  0
LINE
  5
3DF
  8
0
 10
677.650000000001
 20
0.1418959117817499
 30
0.0015258207003583
 11
677.650000000001
 21
17.491895911821121
 31
0.0015258207003583
  0
LINE
  5
3E0
  8
0
 10
672.35000000000116
 20
17.491895911821111
 30
0.0015258207003583
 11
672.35000000000116
 21
0.1418959117817596
 31
0.0015258207003583
  0
LINE
  5
3E1
  8
0
 10
672.35000000000173
 20
167.49189591182059
 30
0.0015258207003583
 11
672.35000000000116
 21
22.791895911821008
 31
0.0015258207003583
  0
LINE
  5
3E2
  8
0
 10
672.35000000000207
 20
317.49189591182119
 30
0.0015258207003583
 11
672.35000000000207
 21
172.7918959118216
 31
0.0015258207003583
  0
LINE
  5
3E3
  8
0
 10
672.35000000000264
 20
467.49189591182193
 30
0.0015258207003583
 11
672.35000000000207
 21
322.79189591182012
 31
0.0015258207003583
  0
LINE
  5
3E4
  8
0
 10
672.35000000000298
 20
617.49189591182051
 30
0.0015258207003583
 11
672.35000000000264
 21
472.79189591182069
 31
0.0015258207003583
  0
LINE
  5
3E5
  8
0
 10
672.350000000004
 20
767.49189591182119
 30
0.0015258207003583
 11
672.35000000000298
 21
622.79189591182148
 31
0.0015258207003583
  0
LINE
  5
3E6
  8
0
 10
672.35000000000446
 20
917.49189591182142
 30
0.0015258207003583
 11
672.350000000004
 21
772.79189591182183
 31
0.0015258207003583
  0
LINE
  5
3E7
  8
0
 10
672.35000000000491
 20
1067.491895911822
 30
0.0015258207003583
 11
672.35000000000446
 21
922.79189591182023
 31
0.0015258207003583
  0
LINE
  5
3E8
  8
0
 10
672.35000000000446
 20
1217.4918959118211
 30
0.0015258207003583
 11
672.35000000000446
 21
1072.791895911821
 31
0.0015258207003583
  0
LINE
  5
3E9
  8
0
 10
672.35000000000446
 20
1367.4918959118211
 30
0.0015258207003583
 11
672.35000000000446
 21
1222.791895911821
 31
0.0015258207003583
  0
LINE
  5
3EA
  8
0
 10
672.35000000000491
 20
1517.4918959118211
 30
0.0015258207003583
 11
672.35000000000446
 21
1372.791895911819
 31
0.0015258207003583
  0
LINE
  5
3EB
  8
0
 10
672.35000000000446
 20
1667.4918959118199
 30
0.0015258207003583
 11
672.35000000000446
 21
1522.7918959118199
 31
0.0015258207003583
  0
LINE
  5
3EC
  8
0
 10
672.35000000000491
 20
1817.4918959118199
 30
0.0015258207003583
 11
672.35000000000446
 21
1672.791895911821
 31
0.0015258207003583
  0
LINE
  5
3ED
  8
0
 10
672.35000000000446
 20
1967.4918959118211
 30
0.0015258207003583
 11
672.35000000000446
 21
1822.791895911821
 31
0.0015258207003583
  0
LINE
  5
3EE
  8
0
 10
672.35000000000446
 20
1990.1418959117809
 30
0.0015258207003583
 11
672.35000000000446
 21
1972.7918959118199
 31
0.0015258207003583
  0
LINE
  5
3EF
  8
0
 10
527.65000000000509
 20
1972.7918959118219
 30
0.0015258207003583
 11
527.65000000000509
 21
1990.1418959117921
 31
0.0015258207003583
  0
LINE
  5
3F0
  8
0
 10
527.65000000000509
 20
1822.7918959118231
 30
0.0015258207003583
 11
527.65000000000509
 21
1967.4918959118229
 31
0.0015258207003583
  0
LINE
  5
3F1
  8
0
 10
527.65000000000509
 20
1672.7918959118219
 30
0.0015258207003583
 11
527.65000000000509
 21
1817.4918959118229
 31
0.0015258207003583
  0
LINE
  5
3F2
  8
0
 10
527.65000000000327
 20
1522.7918959118219
 30
0.0015258207003583
 11
527.65000000000418
 21
1667.491895911822
 31
0.0015258207003583
  0
LINE
  5
3F3
  8
0
 10
527.65000000000327
 20
1372.791895911821
 30
0.0015258207003583
 11
527.65000000000327
 21
1517.4918959118229
 31
0.0015258207003583
  0
LINE
  5
3F4
  8
0
 10
527.65000000000225
 20
1222.7918959118231
 30
0.0015258207003583
 11
527.65000000000327
 21
1367.4918959118229
 31
0.0015258207003583
  0
LINE
  5
3F5
  8
0
 10
527.65000000000146
 20
1072.7918959118219
 30
0.0015258207003583
 11
527.65000000000225
 21
1217.491895911822
 31
0.0015258207003583
  0
LINE
  5
3F6
  8
0
 10
527.65000000000146
 20
922.79189591182126
 30
0.0015258207003583
 11
527.65000000000225
 21
1067.4918959118229
 31
0.0015258207003583
  0
LINE
  5
3F7
  8
0
 10
527.65000000000146
 20
772.79189591182262
 30
0.0015258207003583
 11
527.65000000000146
 21
917.49189591182255
 31
0.0015258207003583
  0
LINE
  5
3F8
  8
0
 10
527.65000000000146
 20
622.79189591182194
 30
0.0015258207003583
 11
527.65000000000146
 21
767.49189591182176
 31
0.0015258207003583
  0
LINE
  5
3F9
  8
0
 10
527.65000000000146
 20
472.79189591182131
 30
0.0015258207003583
 11
527.65000000000146
 21
617.49189591182119
 31
0.0015258207003583
  0
LINE
  5
3FA
  8
0
 10
527.65000000000146
 20
322.79189591182057
 30
0.0015258207003583
 11
527.65000000000146
 21
467.49189591182238
 31
0.0015258207003583
  0
LINE
  5
3FB
  8
0
 10
527.65000000000146
 20
172.791895911822
 30
0.0015258207003583
 11
527.65000000000146
 21
317.49189591182181
 31
0.0015258207003583
  0
LINE
  5
3FC
  8
0
 10
527.65000000000146
 20
22.7918959118213
 30
0.0015258207003583
 11
527.65000000000146
 21
167.49189591182099
 31
0.0015258207003583
  0
LINE
  5
3FD
  8
0
 10
527.65000000000146
 20
0.1418959117928584
 30
0.0015258207003583
 11
527.65000000000146
 21
17.49189591182142
 31
0.0015258207003583
  0
LINE
  5
3FE
  8
0
 10
522.35000000000116
 20
17.491895911821398
 30
0.0015258207003583
 11
522.35000000000116
 21
0.1418959117928682
 31
0.0015258207003583
  0
LINE
  5
3FF
  8
0
 10
522.35000000000116
 20
167.49189591182119
 30
0.0015258207003583
 11
522.35000000000116
 21
22.7918959118213
 31
0.0015258207003583
  0
LINE
  5
400
  8
0
 10
522.35000000000116
 20
317.49189591182193
 30
0.0015258207003583
 11
522.35000000000116
 21
172.79189591182219
 31
0.0015258207003583
  0
LINE
  5
401
  8
0
 10
522.35000000000116
 20
467.49189591182278
 30
0.0015258207003583
 11
522.35000000000116
 21
322.79189591182069
 31
0.0015258207003583
  0
LINE
  5
402
  8
0
 10
522.35000000000207
 20
617.49189591182142
 30
0.0015258207003583
 11
522.35000000000207
 21
472.79189591182148
 31
0.0015258207003583
  0
LINE
  5
403
  8
0
 10
522.35000000000298
 20
767.4918959118221
 30
0.0015258207003583
 11
522.35000000000298
 21
622.79189591182228
 31
0.0015258207003583
  0
LINE
  5
404
  8
0
 10
522.35000000000298
 20
917.49189591182278
 30
0.0015258207003583
 11
522.35000000000298
 21
772.79189591182296
 31
0.0015258207003583
  0
LINE
  5
405
  8
0
 10
522.35000000000298
 20
1067.4918959118229
 30
0.0015258207003583
 11
522.35000000000298
 21
922.7918959118216
 31
0.0015258207003583
  0
LINE
  5
406
  8
0
 10
522.350000000004
 20
1217.491895911822
 30
0.0015258207003583
 11
522.35000000000298
 21
1072.7918959118219
 31
0.0015258207003583
  0
LINE
  5
407
  8
0
 10
522.350000000004
 20
1367.4918959118229
 30
0.0015258207003583
 11
522.350000000004
 21
1222.7918959118231
 31
0.0015258207003583
  0
LINE
  5
408
  8
0
 10
522.350000000004
 20
1517.4918959118229
 30
0.0015258207003583
 11
522.350000000004
 21
1372.791895911821
 31
0.0015258207003583
  0
LINE
  5
409
  8
0
 10
522.350000000004
 20
1667.491895911822
 30
0.0015258207003583
 11
522.350000000004
 21
1522.7918959118219
 31
0.0015258207003583
  0
LINE
  5
40A
  8
0
 10
522.350000000004
 20
1817.4918959118229
 30
0.0015258207003583
 11
522.350000000004
 21
1672.7918959118231
 31
0.0015258207003583
  0
LINE
  5
40B
  8
0
 10
522.35000000000491
 20
1967.4918959118229
 30
0.0015258207003583
 11
522.350000000004
 21
1822.791895911824
 31
0.0015258207003583
  0
LINE
  5
40C
  8
0
 10
522.35000000000491
 20
1990.1418959117921
 30
0.0015258207003583
 11
522.35000000000491
 21
1972.7918959118219
 31
0.0015258207003583
  0
LINE
  5
40D
  8
0
 10
377.65000000000509
 20
1972.791895911821
 30
0.0015258207003583
 11
377.650000000006
 21
1990.1418959118059
 31
0.0015258207003583
  0
LINE
  5
40E
  8
0
 10
377.65000000000509
 20
1822.7918959118219
 30
0.0015258207003583
 11
377.650000000006
 21
1967.491895911822
 31
0.0015258207003583
  0
LINE
  5
40F
  8
0
 10
377.65000000000509
 20
1672.7918959118219
 30
0.0015258207003583
 11
377.65000000000509
 21
1817.4918959118211
 31
0.0015258207003583
  0
LINE
  5
410
  8
0
 10
377.65000000000418
 20
1522.791895911821
 30
0.0015258207003583
 11
377.65000000000509
 21
1667.4918959118211
 31
0.0015258207003583
  0
LINE
  5
411
  8
0
 10
377.65000000000418
 20
1372.7918959118199
 30
0.0015258207003583
 11
377.65000000000418
 21
1517.491895911822
 31
0.0015258207003583
  0
LINE
  5
412
  8
0
 10
377.65000000000327
 20
1222.7918959118219
 30
0.0015258207003583
 11
377.65000000000327
 21
1367.491895911822
 31
0.0015258207003583
  0
LINE
  5
413
  8
0
 10
377.65000000000231
 20
1072.791895911821
 30
0.0015258207003583
 11
377.65000000000327
 21
1217.4918959118211
 31
0.0015258207003583
  0
LINE
  5
414
  8
0
 10
377.65000000000231
 20
922.79189591182114
 30
0.0015258207003583
 11
377.65000000000231
 21
1067.4918959118229
 31
0.0015258207003583
  0
LINE
  5
415
  8
0
 10
377.65000000000231
 20
772.79189591182251
 30
0.0015258207003583
 11
377.65000000000231
 21
917.49189591182221
 31
0.0015258207003583
  0
LINE
  5
416
  8
0
 10
377.65000000000231
 20
622.79189591182194
 30
0.0015258207003583
 11
377.65000000000231
 21
767.49189591182164
 31
0.0015258207003583
  0
LINE
  5
417
  8
0
 10
377.65000000000231
 20
472.79189591182143
 30
0.0015258207003583
 11
377.65000000000231
 21
617.49189591182085
 31
0.0015258207003583
  0
LINE
  5
418
  8
0
 10
377.65000000000151
 20
322.79189591182092
 30
0.0015258207003583
 11
377.65000000000231
 21
467.49189591182261
 31
0.0015258207003583
  0
LINE
  5
419
  8
0
 10
377.65000000000151
 20
172.79189591182239
 30
0.0015258207003583
 11
377.65000000000151
 21
317.49189591182198
 31
0.0015258207003583
  0
LINE
  5
41A
  8
0
 10
377.65000000000151
 20
22.79189591182184
 30
0.0015258207003583
 11
377.65000000000151
 21
167.49189591182139
 31
0.0015258207003583
  0
LINE
  5
41B
  8
0
 10
377.65000000000231
 20
0.1418959118064035
 30
0.0015258207003583
 11
377.65000000000151
 21
17.49189591182196
 31
0.0015258207003583
  0
LINE
  5
41C
  8
0
 10
372.35000000000218
 20
17.491895911820791
 30
0.0015258207003583
 11
372.35000000000218
 21
0.1418959118064132
 31
0.0015258207003583
  0
LINE
  5
41D
  8
0
 10
372.35000000000309
 20
167.49189591182039
 30
0.0015258207003583
 11
372.35000000000218
 21
22.791895911820689
 31
0.0015258207003583
  0
LINE
  5
41E
  8
0
 10
372.35000000000309
 20
317.49189591182108
 30
0.0015258207003583
 11
372.35000000000309
 21
172.7918959118214
 31
0.0015258207003583
  0
LINE
  5
41F
  8
0
 10
372.35000000000309
 20
467.49189591182159
 30
0.0015258207003583
 11
372.35000000000309
 21
322.79189591181978
 31
0.0015258207003583
  0
LINE
  5
420
  8
0
 10
372.35000000000309
 20
617.49189591182005
 30
0.0015258207003583
 11
372.35000000000309
 21
472.79189591182052
 31
0.0015258207003583
  0
LINE
  5
421
  8
0
 10
372.35000000000309
 20
767.49189591182073
 30
0.0015258207003583
 11
372.35000000000309
 21
622.79189591182103
 31
0.0015258207003583
  0
LINE
  5
422
  8
0
 10
372.35000000000309
 20
917.49189591182142
 30
0.0015258207003583
 11
372.35000000000309
 21
772.79189591182171
 31
0.0015258207003583
  0
LINE
  5
423
  8
0
 10
372.35000000000309
 20
1067.491895911822
 30
0.0015258207003583
 11
372.35000000000309
 21
922.79189591182001
 31
0.0015258207003583
  0
LINE
  5
424
  8
0
 10
372.35000000000309
 20
1217.4918959118211
 30
0.0015258207003583
 11
372.35000000000309
 21
1072.791895911821
 31
0.0015258207003583
  0
LINE
  5
425
  8
0
 10
372.350000000004
 20
1367.4918959118211
 30
0.0015258207003583
 11
372.35000000000309
 21
1222.7918959118219
 31
0.0015258207003583
  0
LINE
  5
426
  8
0
 10
372.350000000004
 20
1517.491895911822
 30
0.0015258207003583
 11
372.350000000004
 21
1372.7918959118199
 31
0.0015258207003583
  0
LINE
  5
427
  8
0
 10
372.350000000004
 20
1667.4918959118199
 30
0.0015258207003583
 11
372.350000000004
 21
1522.791895911821
 31
0.0015258207003583
  0
LINE
  5
428
  8
0
 10
372.350000000004
 20
1817.4918959118211
 30
0.0015258207003583
 11
372.350000000004
 21
1672.7918959118219
 31
0.0015258207003583
  0
LINE
  5
429
  8
0
 10
372.35000000000582
 20
1967.491895911822
 30
0.0015258207003583
 11
372.35000000000491
 21
1822.7918959118219
 31
0.0015258207003583
  0
LINE
  5
42A
  8
0
 10
372.35000000000582
 20
1990.1418959118059
 30
0.0015258207003583
 11
372.35000000000582
 21
1972.791895911821
 31
0.0015258207003583
  0
LINE
  5
42B
  8
0
 10
227.650000000006
 20
1972.791895911819
 30
0.0015258207003583
 11
227.650000000006
 21
1990.1418959118171
 31
0.0015258207003583
  0
LINE
  5
42C
  8
0
 10
227.650000000006
 20
1822.791895911821
 30
0.0015258207003583
 11
227.650000000006
 21
1967.4918959118199
 31
0.0015258207003583
  0
LINE
  5
42D
  8
0
 10
227.650000000006
 20
1672.791895911821
 30
0.0015258207003583
 11
227.650000000006
 21
1817.4918959118199
 31
0.0015258207003583
  0
LINE
  5
42E
  8
0
 10
227.650000000006
 20
1522.7918959118199
 30
0.0015258207003583
 11
227.650000000006
 21
1667.4918959118199
 31
0.0015258207003583
  0
LINE
  5
42F
  8
0
 10
227.65000000000509
 20
1372.7918959118199
 30
0.0015258207003583
 11
227.650000000006
 21
1517.4918959118211
 31
0.0015258207003583
  0
LINE
  5
430
  8
0
 10
227.65000000000509
 20
1222.791895911821
 30
0.0015258207003583
 11
227.65000000000509
 21
1367.4918959118211
 31
0.0015258207003583
  0
LINE
  5
431
  8
0
 10
227.65000000000509
 20
1072.791895911821
 30
0.0015258207003583
 11
227.65000000000509
 21
1217.4918959118211
 31
0.0015258207003583
  0
LINE
  5
432
  8
0
 10
227.65000000000509
 20
922.79189591182035
 30
0.0015258207003583
 11
227.65000000000509
 21
1067.491895911822
 31
0.0015258207003583
  0
LINE
  5
433
  8
0
 10
227.65000000000421
 20
772.79189591182228
 30
0.0015258207003583
 11
227.65000000000509
 21
917.49189591182164
 31
0.0015258207003583
  0
LINE
  5
434
  8
0
 10
227.65000000000421
 20
622.79189591182183
 30
0.0015258207003583
 11
227.65000000000421
 21
767.49189591182142
 31
0.0015258207003583
  0
LINE
  5
435
  8
0
 10
227.65000000000421
 20
472.79189591182143
 30
0.0015258207003583
 11
227.65000000000421
 21
617.49189591182085
 31
0.0015258207003583
  0
LINE
  5
436
  8
0
 10
227.6500000000033
 20
322.79189591182109
 30
0.0015258207003583
 11
227.6500000000033
 21
467.49189591182261
 31
0.0015258207003583
  0
LINE
  5
437
  8
0
 10
227.65000000000231
 20
172.79189591182279
 30
0.0015258207003583
 11
227.6500000000033
 21
317.49189591182233
 31
0.0015258207003583
  0
LINE
  5
438
  8
0
 10
227.65000000000231
 20
22.791895911822358
 30
0.0015258207003583
 11
227.65000000000231
 21
167.49189591182181
 31
0.0015258207003583
  0
LINE
  5
439
  8
0
 10
227.65000000000231
 20
0.1418959118177827
 30
0.0015258207003583
 11
227.65000000000231
 21
17.491895911822489
 31
0.0015258207003583
  0
LINE
  5
43A
  8
0
 10
222.35000000000309
 20
17.491895911822471
 30
0.0015258207003583
 11
222.35000000000309
 21
0.1418959118177925
 31
0.0015258207003583
  0
LINE
  5
43B
  8
0
 10
222.35000000000309
 20
167.49189591182181
 30
0.0015258207003583
 11
222.35000000000309
 21
22.791895911822369
 31
0.0015258207003583
  0
LINE
  5
43C
  8
0
 10
222.35000000000309
 20
317.49189591182233
 30
0.0015258207003583
 11
222.35000000000309
 21
172.79189591182279
 31
0.0015258207003583
  0
LINE
  5
43D
  8
0
 10
222.35000000000309
 20
467.49189591182289
 30
0.0015258207003583
 11
222.35000000000309
 21
322.79189591182109
 31
0.0015258207003583
  0
LINE
  5
43E
  8
0
 10
222.35000000000309
 20
617.49189591182119
 30
0.0015258207003583
 11
222.35000000000309
 21
472.79189591182183
 31
0.0015258207003583
  0
LINE
  5
43F
  8
0
 10
222.350000000004
 20
767.49189591182153
 30
0.0015258207003583
 11
222.35000000000309
 21
622.79189591182205
 31
0.0015258207003583
  0
LINE
  5
440
  8
0
 10
222.350000000004
 20
917.49189591182187
 30
0.0015258207003583
 11
222.350000000004
 21
772.79189591182251
 31
0.0015258207003583
  0
LINE
  5
441
  8
0
 10
222.350000000004
 20
1067.491895911822
 30
0.0015258207003583
 11
222.350000000004
 21
922.79189591182069
 31
0.0015258207003583
  0
LINE
  5
442
  8
0
 10
222.35000000000491
 20
1217.4918959118199
 30
0.0015258207003583
 11
222.350000000004
 21
1072.791895911821
 31
0.0015258207003583
  0
LINE
  5
443
  8
0
 10
222.35000000000491
 20
1367.4918959118211
 30
0.0015258207003583
 11
222.35000000000491
 21
1222.791895911821
 31
0.0015258207003583
  0
LINE
  5
444
  8
0
 10
222.35000000000491
 20
1517.4918959118211
 30
0.0015258207003583
 11
222.35000000000491
 21
1372.791895911819
 31
0.0015258207003583
  0
LINE
  5
445
  8
0
 10
222.35000000000579
 20
1667.491895911819
 30
0.0015258207003583
 11
222.35000000000579
 21
1522.7918959118199
 31
0.0015258207003583
  0
LINE
  5
446
  8
0
 10
222.35000000000579
 20
1817.491895911819
 30
0.0015258207003583
 11
222.35000000000579
 21
1672.7918959118199
 31
0.0015258207003583
  0
LINE
  5
447
  8
0
 10
222.35000000000579
 20
1967.4918959118199
 30
0.0015258207003583
 11
222.35000000000579
 21
1822.791895911821
 31
0.0015258207003583
  0
LINE
  5
448
  8
0
 10
222.35000000000579
 20
1990.1418959118171
 30
0.0015258207003583
 11
222.35000000000579
 21
1972.791895911819
 31
0.0015258207003583
  0
LINE
  5
449
  8
0
 10
77.650000000006912
 20
1972.791895911819
 30
0.0015258207003583
 11
77.650000000006912
 21
1990.1418959118289
 31
0.0015258207003583
  0
LINE
  5
44A
  8
0
 10
77.650000000006912
 20
1822.791895911821
 30
0.0015258207003583
 11
77.650000000006912
 21
1967.4918959118211
 31
0.0015258207003583
  0
LINE
  5
44B
  8
0
 10
77.650000000006003
 20
1672.791895911821
 30
0.0015258207003583
 11
77.650000000006912
 21
1817.4918959118199
 31
0.0015258207003583
  0
LINE
  5
44C
  8
0
 10
77.650000000006003
 20
1522.7918959118199
 30
0.0015258207003583
 11
77.650000000006003
 21
1667.4918959118199
 31
0.0015258207003583
  0
LINE
  5
44D
  8
0
 10
77.650000000006003
 20
1372.791895911819
 30
0.0015258207003583
 11
77.650000000006003
 21
1517.4918959118211
 31
0.0015258207003583
  0
LINE
  5
44E
  8
0
 10
77.650000000005093
 20
1222.791895911821
 30
0.0015258207003583
 11
77.650000000006003
 21
1367.4918959118211
 31
0.0015258207003583
  0
LINE
  5
44F
  8
0
 10
77.650000000005093
 20
1072.791895911821
 30
0.0015258207003583
 11
77.650000000005093
 21
1217.4918959118211
 31
0.0015258207003583
  0
LINE
  5
450
  8
0
 10
77.650000000005093
 20
922.79189591182035
 30
0.0015258207003583
 11
77.650000000005093
 21
1067.491895911822
 31
0.0015258207003583
  0
LINE
  5
451
  8
0
 10
77.650000000004184
 20
772.79189591182217
 30
0.0015258207003583
 11
77.650000000005093
 21
917.49189591182153
 31
0.0015258207003583
  0
LINE
  5
452
  8
0
 10
77.650000000004184
 20
622.79189591182171
 30
0.0015258207003583
 11
77.650000000004184
 21
767.49189591182119
 31
0.0015258207003583
  0
LINE
  5
453
  8
0
 10
77.650000000003274
 20
472.7918959118212
 30
0.0015258207003583
 11
77.650000000004184
 21
617.49189591182073
 31
0.0015258207003583
  0
LINE
  5
454
  8
0
 10
77.650000000004184
 20
322.79189591182069
 30
0.0015258207003583
 11
77.650000000004184
 21
467.49189591182238
 31
0.0015258207003583
  0
LINE
  5
455
  8
0
 10
77.650000000003274
 20
172.79189591182231
 30
0.0015258207003583
 11
77.650000000004184
 21
317.49189591182193
 31
0.0015258207003583
  0
LINE
  5
456
  8
0
 10
77.650000000003274
 20
22.79189591182184
 30
0.0015258207003583
 11
77.650000000003274
 21
167.49189591182139
 31
0.0015258207003583
  0
LINE
  5
457
  8
0
 10
77.650000000003274
 20
0.141895911829162
 30
0.0015258207003583
 11
77.650000000003274
 21
17.49189591182197
 31
0.0015258207003583
  0
LINE
  5
458
  8
0
 10
72.350000000003092
 20
17.491895911821899
 30
0.0015258207003583
 11
72.350000000003092
 21
0.1418959118291718
 31
0.0015258207003583
  0
LINE
  5
459
  8
0
 10
72.350000000003092
 20
167.49189591182139
 30
0.0015258207003583
 11
72.350000000003092
 21
22.791895911821801
 31
0.0015258207003583
  0
LINE
  5
45A
  8
0
 10
72.350000000003092
 20
317.49189591182181
 30
0.0015258207003583
 11
72.350000000003092
 21
172.79189591182239
 31
0.0015258207003583
  0
LINE
  5
45B
  8
0
 10
72.350000000003092
 20
467.49189591182238
 30
0.0015258207003583
 11
72.350000000003092
 21
322.79189591182057
 31
0.0015258207003583
  0
LINE
  5
45C
  8
0
 10
72.350000000004002
 20
617.49189591182085
 30
0.0015258207003583
 11
72.350000000003092
 21
472.7918959118212
 31
0.0015258207003583
  0
LINE
  5
45D
  8
0
 10
72.350000000004002
 20
767.4918959118213
 30
0.0015258207003583
 11
72.350000000004002
 21
622.79189591182171
 31
0.0015258207003583
  0
LINE
  5
45E
  8
0
 10
72.350000000004911
 20
917.49189591182187
 30
0.0015258207003583
 11
72.350000000004002
 21
772.79189591182228
 31
0.0015258207003583
  0
LINE
  5
45F
  8
0
 10
72.350000000004911
 20
1067.491895911822
 30
0.0015258207003583
 11
72.350000000004911
 21
922.79189591182069
 31
0.0015258207003583
  0
LINE
  5
460
  8
0
 10
72.350000000005821
 20
1217.4918959118211
 30
0.0015258207003583
 11
72.350000000004911
 21
1072.791895911821
 31
0.0015258207003583
  0
LINE
  5
461
  8
0
 10
72.350000000005821
 20
1367.4918959118211
 30
0.0015258207003583
 11
72.350000000005821
 21
1222.7918959118219
 31
0.0015258207003583
  0
LINE
  5
462
  8
0
 10
72.350000000004911
 20
1517.4918959118211
 30
0.0015258207003583
 11
72.350000000004911
 21
1372.7918959118199
 31
0.0015258207003583
  0
LINE
  5
463
  8
0
 10
72.350000000005821
 20
1667.4918959118199
 30
0.0015258207003583
 11
72.350000000004911
 21
1522.7918959118199
 31
0.0015258207003583
  0
LINE
  5
464
  8
0
 10
72.350000000005821
 20
1817.4918959118199
 30
0.0015258207003583
 11
72.350000000005821
 21
1672.791895911821
 31
0.0015258207003583
  0
LINE
  5
465
  8
0
 10
72.35000000000673
 20
1967.4918959118211
 30
0.0015258207003583
 11
72.350000000005821
 21
1822.791895911821
 31
0.0015258207003583
  0
LINE
  5
466
  8
0
 10
72.35000000000673
 20
1990.1418959118289
 30
0.0015258207003583
 11
72.35000000000673
 21
1972.791895911819
 31
0.0015258207003583
  0
LINE
  5
467
  8
0
 10
0.0
 20
1967.4918959118199
 30
0.0015258207003583
 11
4650.0
 21
1967.4918959118199
 31
0.0015258207003583
  0
LINE
  5
468
  8
0
 10
4650.0
 20
1972.7918959118199
 30
0.0015258207003583
 11
0.0
 21
1972.7918959118199
 31
0.0015258207003583
  0
LINE
  5
469
  8
0
 10
0.0
 20
1817.4918959118199
 30
0.0015258207003583
 11
4650.0
 21
1817.4918959118199
 31
0.0015258207003583
  0
LINE
  5
46A
  8
0
 10
4650.0
 20
1822.7918959118199
 30
0.0015258207003583
 11
0.0
 21
1822.7918959118199
 31
0.0015258207003583
  0
LINE
  5
46B
  8
0
 10
0.0
 20
1667.4918959118199
 30
0.0015258207003583
 11
4650.0
 21
1667.4918959118199
 31
0.0015258207003583
  0
LINE
  5
46C
  8
0
 10
4650.0
 20
1672.7918959118199
 30
0.0015258207003583
 11
0.0
 21
1672.7918959118199
 31
0.0015258207003583
  0
LINE
  5
46D
  8
0
 10
0.0
 20
1517.4918959118211
 30
0.0015258207003583
 11
4650.0
 21
1517.4918959118199
 31
0.0015258207003583
  0
LINE
  5
46E
  8
0
 10
4650.0
 20
1522.7918959118199
 30
0.0015258207003583
 11
0.0
 21
1522.7918959118199
 31
0.0015258207003583
  0
LINE
  5
46F
  8
0
 10
0.0
 20
1367.4918959118211
 30
0.0015258207003583
 11
4650.0
 21
1367.4918959118199
 31
0.0015258207003583
  0
LINE
  5
470
  8
0
 10
4650.0
 20
1372.7918959118199
 30
0.0015258207003583
 11
0.0
 21
1372.791895911821
 31
0.0015258207003583
  0
LINE
  5
471
  8
0
 10
0.0
 20
1217.4918959118211
 30
0.0015258207003583
 11
4650.0
 21
1217.4918959118211
 31
0.0015258207003583
  0
LINE
  5
472
  8
0
 10
4650.0
 20
1222.7918959118199
 30
0.0015258207003583
 11
0.0
 21
1222.791895911821
 31
0.0015258207003583
  0
LINE
  5
473
  8
0
 10
0.0
 20
1067.4918959118211
 30
0.0015258207003583
 11
4650.0
 21
1067.4918959118211
 31
0.0015258207003583
  0
LINE
  5
474
  8
0
 10
4650.0
 20
1072.791895911821
 30
0.0015258207003583
 11
0.0
 21
1072.791895911821
 31
0.0015258207003583
  0
LINE
  5
475
  8
0
 10
0.0
 20
917.49189591182142
 30
0.0015258207003583
 11
4650.0
 21
917.49189591182096
 31
0.0015258207003583
  0
LINE
  5
476
  8
0
 10
4650.0
 20
922.79189591182069
 30
0.0015258207003583
 11
0.0
 21
922.79189591182114
 31
0.0015258207003583
  0
LINE
  5
477
  8
0
 10
0.0
 20
767.4918959118213
 30
0.0015258207003583
 11
4650.0
 21
767.49189591182085
 31
0.0015258207003583
  0
LINE
  5
478
  8
0
 10
4650.0
 20
772.79189591182069
 30
0.0015258207003583
 11
0.0
 21
772.79189591182114
 31
0.0015258207003583
  0
LINE
  5
479
  8
0
 10
0.0
 20
617.4918959118213
 30
0.0015258207003583
 11
4650.0
 21
617.49189591182085
 31
0.0015258207003583
  0
LINE
  5
47A
  8
0
 10
4650.0
 20
622.79189591182069
 30
0.0015258207003583
 11
0.0
 21
622.79189591182114
 31
0.0015258207003583
  0
LINE
  5
47B
  8
0
 10
0.0
 20
467.49189591182142
 30
0.0015258207003583
 11
4650.0
 21
467.49189591182108
 31
0.0015258207003583
  0
LINE
  5
47C
  8
0
 10
4650.0
 20
472.79189591182109
 30
0.0015258207003583
 11
0.0
 21
472.79189591182143
 31
0.0015258207003583
  0
LINE
  5
47D
  8
0
 10
0.0
 20
317.49189591182142
 30
0.0015258207003583
 11
4650.0
 21
317.49189591182108
 31
0.0015258207003583
  0
LINE
  5
47E
  8
0
 10
4650.0
 20
322.79189591182109
 30
0.0015258207003583
 11
0.0
 21
322.79189591182143
 31
0.0015258207003583
  0
LINE
  5
47F
  8
0
 10
0.0
 20
167.49189591182159
 30
0.0015258207003583
 11
4650.0000000000009
 21
167.4918959118213
 31
0.0015258207003583
  0
LINE
  5
480
  8
0
 10
4650.0000000000009
 20
172.7918959118214
 30
0.0015258207003583
 11
0.0
 21
172.7918959118216
 31
0.0015258207003583
  0
LINE
  5
481
  8
0
 10
0.0
 20
17.491895911821651
 30
0.0015258207003583
 11
4650.0
 21
17.491895911821359
 31
0.0015258207003583
  0
LINE
  5
482
  8
0
 10
4650.0
 20
22.79189591182136
 30
0.0015258207003583
 11
0.0
 21
22.791895911821651
 31
0.0015258207003583
  0
INSERT
  5
4F6
  8
HURRICANE_09_274_5329_03_3
  2
HURRICANE
 10
0.0
 20
0.0
 30
0.0
  0
VIEWPORT
  5
50F
 67
     1
  8
0
 10
143.43592834472651
 20
99.959580898284912
 30
0.0
 40
415.04454626822121
 41
222.15178063964851
 68
     1
 69
     1
1001
ACAD
1000
MVIEW
1002
{
1070
    16
1010
0.0
1020
0.0
1030
0.0
1010
0.0
1020
0.0
1030
1.0
1040
0.0
1040
222.15178063964851
1040
143.43592834472651
1040
99.959580898284912
1040
50.0
1040
0.0
1040
0.0
1070
     0
1070
  1000
1070
     1
1070
     1
1070
     0
1070
     0
1070
     0
1070
     0
1040
0.0
1040
0.0
1040
0.0
1040
10.0
1040
10.0
1040
10.0
1040
10.0
1070
     0
1002
{
1002
}
1002
}
  0
VIEWPORT
  5
513
 67
     1
  8
0
 10
143.4359130859375
 20
99.95958781242372
 30
0.0
 40
229.49746093749999
 41
159.9353404998779
 68
     2
 69
     2
1001
ACAD
1000
MVIEW
1002
{
1070
    16
1010
0.0
1020
0.0
1030
0.0
1010
0.0
1020
0.0
1030
1.0
1040
0.0
1040
3275.0657271283658
1040
2313.490720936798
1040
992.35750404629391
1040
50.0
1040
0.0
1040
0.0
1070
     0
1070
  1000
1070
     1
1070
     3
1070
     0
1070
     0
1070
     0
1070
     0
1040
0.0
1040
0.0
1040
0.0
1040
1.0
1040
1.0
1040
10.0
1040
10.0
1070
     0
1002
{
1002
}
1002
}
  0
ENDSEC
  0
EOF
