  0
SECTION
  2
HEADER
  9
$ACADVER
  1
AC1009
  9
$INSBASE
 10
0.0
 20
0.0
 30
0.0
  9
$EXTMIN
 10
-23.018558126405399
 20
-5.4268878192411121
 30
0.0
  9
$EXTMAX
 10
4650.0000000000009
 20
1990.1418959118289
 30
0.0015258207003583
  9
$LIMMIN
 10
0.0
 20
0.0
  9
$LIMMAX
 10
420.0
 20
297.0
  9
$ORTHOMODE
 70
     0
  9
$REGENMODE
 70
     1
  9
$FILLMODE
 70
     1
  9
$QTEXTMODE
 70
     0
  9
$MIRRTEXT
 70
     0
  9
$DRAGMODE
 70
     2
  9
$LTSCALE
 40
1.0
  9
$OSMODE
 70
     0
  9
$ATTMODE
 70
     1
  9
$TEXTSIZE
 40
2.5
  9
$TRACEWID
 40
1.0
  9
$TEXTSTYLE
  7
STANDARD
  9
$CLAYER
  8
0
  9
$CELTYPE
  6
BYLAYER
  9
$CECOLOR
 62
   256
  9
$DIMSCALE
 40
1.0
  9
$DIMASZ
 40
2.5
  9
$DIMEXO
 40
0.625
  9
$DIMDLI
 40
3.75
  9
$DIMRND
 40
0.0
  9
$DIMDLE
 40
0.0
  9
$DIMEXE
 40
1.25
  9
$DIMTP
 40
0.0
  9
$DIMTM
 40
0.0
  9
$DIMTXT
 40
2.5
  9
$DIMCEN
 40
2.5
  9
$DIMTSZ
 40
0.0
  9
$DIMTOL
 70
     0
  9
$DIMLIM
 70
     0
  9
$DIMTIH
 70
     0
  9
$DIMTOH
 70
     0
  9
$DIMSE1
 70
     0
  9
$DIMSE2
 70
     0
  9
$DIMTAD
 70
     1
  9
$DIMZIN
 70
     8
  9
$DIMBLK
  1

  9
$DIMASO
 70
     1
  9
$DIMSHO
 70
     1
  9
$DIMPOST
  1

  9
$DIMAPOST
  1

  9
$DIMALT
 70
     0
  9
$DIMALTD
 70
     3
  9
$DIMALTF
 40
0.03937007874016
  9
$DIMLFAC
 40
1.0
  9
$DIMTOFL
 70
     1
  9
$DIMTVP
 40
0.0
  9
$DIMTIX
 70
     0
  9
$DIMSOXD
 70
     0
  9
$DIMSAH
 70
     0
  9
$DIMBLK1
  1

  9
$DIMBLK2
  1

  9
$DIMSTYLE
  2
ISO-25
  9
$DIMCLRD
 70
     0
  9
$DIMCLRE
 70
     0
  9
$DIMCLRT
 70
     0
  9
$DIMTFAC
 40
1.0
  9
$DIMGAP
 40
0.625
  9
$LUNITS
 70
     2
  9
$LUPREC
 70
     1
  9
$SKETCHINC
 40
1.0
  9
$FILLETRAD
 40
0.0
  9
$AUNITS
 70
     1
  9
$AUPREC
 70
     4
  9
$MENU
  1
.
  9
$ELEVATION
 40
0.0
  9
$PELEVATION
 40
0.0
  9
$THICKNESS
 40
0.0
  9
$LIMCHECK
 70
     0
  9
$BLIPMODE
 70
     0
  9
$CHAMFERA
 40
0.0
  9
$CHAMFERB
 40
0.0
  9
$SKPOLY
 70
     0
  9
$TDCREATE
 40
2455179.9870173731
  9
$TDUPDATE
 40
2455182.7383807059
  9
$TDINDWG
 40
0.0111960069
  9
$TDUSRTIMER
 40
0.0111959838
  9
$USRTIMER
 70
     1
  9
$ANGBASE
 50
0.0
  9
$ANGDIR
 70
     0
  9
$PDMODE
 70
     0
  9
$PDSIZE
 40
0.0
  9
$PLINEWID
 40
0.0
  9
$COORDS
 70
     1
  9
$SPLFRAME
 70
     0
  9
$SPLINETYPE
 70
     6
  9
$SPLINESEGS
 70
     8
  9
$ATTDIA
 70
     0
  9
$ATTREQ
 70
     0
  9
$HANDLING
 70
     1
  9
$HANDSEED
  5
5AC
  9
$SURFTAB1
 70
     6
  9
$SURFTAB2
 70
     6
  9
$SURFTYPE
 70
     6
  9
$SURFU
 70
     6
  9
$SURFV
 70
     6
  9
$UCSNAME
  2

  9
$UCSORG
 10
0.0
 20
0.0
 30
0.0
  9
$UCSXDIR
 10
1.0
 20
0.0
 30
0.0
  9
$UCSYDIR
 10
0.0
 20
1.0
 30
0.0
  9
$PUCSNAME
  2

  9
$PUCSORG
 10
0.0
 20
0.0
 30
0.0
  9
$PUCSXDIR
 10
1.0
 20
0.0
 30
0.0
  9
$PUCSYDIR
 10
0.0
 20
1.0
 30
0.0
  9
$USERI1
 70
     0
  9
$USERI2
 70
     0
  9
$USERI3
 70
     0
  9
$USERI4
 70
     0
  9
$USERI5
 70
     0
  9
$USERR1
 40
0.0
  9
$USERR2
 40
0.0
  9
$USERR3
 40
0.0
  9
$USERR4
 40
0.0
  9
$USERR5
 40
0.0
  9
$WORLDVIEW
 70
     1
  9
$SHADEDGE
 70
     3
  9
$SHADEDIF
 70
    70
  9
$TILEMODE
 70
     0
  9
$MAXACTVP
 70
    64
  9
$PLIMCHECK
 70
     0
  9
$PEXTMIN
 10
28.687182617187489
 20
19.99191756248473
 30
0.0
  9
$PEXTMAX
 10
258.18464355468751
 20
179.92725806236271
 30
0.0
  9
$PLIMMIN
 10
-5.027069091796875
 20
-5.027082920074462
  9
$PLIMMAX
 10
291.89892578125
 20
204.94624471664429
  9
$UNITMODE
 70
     0
  9
$VISRETAIN
 70
     1
  9
$PLINEGEN
 70
     0
  9
$PSLTSCALE
 70
     1
  0
ENDSEC
  0
SECTION
  2
TABLES
  0
TABLE
  2
VPORT
 70
     1
  0
VPORT
  2
*ACTIVE
 70
     0
 10
0.0
 20
0.0
 11
1.0
 21
1.0
 12
2313.4346251765219
 22
992.34215919212056
 13
0.0
 23
0.0
 14
1.0
 24
1.0
 15
10.0
 25
10.0
 16
0.0
 26
0.0
 36
1.0
 17
0.0
 27
0.0
 37
0.0
 40
2509.4181612524212
 41
1.8682926829268289
 42
50.0
 43
0.0
 44
0.0
 50
0.0
 51
0.0
 71
     0
 72
  1000
 73
     1
 74
     3
 75
     0
 76
     0
 77
     0
 78
     0
  0
ENDTAB
  0
TABLE
  2
LTYPE
 70
     2
  0
LTYPE
  2
CONTINUOUS
 70
     0
  3
Solid line
 72
    65
 73
     0
 40
0.0
  0
ENDTAB
  0
TABLE
  2
LAYER
 70
     5
  0
LAYER
  2
0
 70
     0
 62
     7
  6
CONTINUOUS
  0
LAYER
  2
DEFPOINTS
 70
     0
 62
   211
  6
CONTINUOUS
  0
LAYER
  2
HURRICANE_09_274_5329_03_3
 70
     0
 62
     7
  6
CONTINUOUS
  0
ENDTAB
  0
TABLE
  2
STYLE
 70
     2
  0
STYLE
  2
STANDARD
 70
     0
 40
0.0
 41
1.0
 50
0.0
 71
     0
 42
2.5
  3
txt
  4

  0
STYLE
  2
ARIAL
 70
     0
 40
0.0
 41
1.0
 50
0.0
 71
     0
 42
2.0
  3
txt
  4

  0
ENDTAB
  0
TABLE
  2
VIEW
 70
     1
  0
ENDTAB
  0
TABLE
  2
UCS
 70
     0
  0
ENDTAB
  0
TABLE
  2
APPID
 70
     9
  0
APPID
  2
ACAD
 70
     0
  0
APPID
  2
ACAD_PSEXT
 70
     0
  0
APPID
  2
ACADANNOTATIVE
 70
     0
  0
APPID
  2
ACAD_DSTYLE_DIMJAG
 70
     0
  0
APPID
  2
ACAD_DSTYLE_DIMTALN
 70
     0
  0
APPID
  2
REVIT
 70
     0
  0
APPID
  2
PE_URL
 70
     0
  0
APPID
  2
ACAD_MLEADERVER
 70
     0
  0
APPID
  2
ACAD_EXEMPT_FROM_CAD_STANDARDS
 70
     0
  0
ENDTAB
  0
TABLE
  2
DIMSTYLE
 70
     2
  0
DIMSTYLE
  2
ISO-25
 70
     0
  3

  4

  5

  6

  7

 40
1.0
 41
2.5
 42
0.625
 43
3.75
 44
1.25
 45
0.0
 46
0.0
 47
0.0
 48
0.0
140
2.5
141
2.5
142
0.0
143
0.03937007874016
144
1.0
145
0.0
146
1.0
147
0.625
 71
     0
 72
     0
 73
     0
 74
     0
 75
     0
 76
     0
 77
     1
 78
     8
170
     0
171
     3
172
     1
173
     0
174
     0
175
     0
176
     0
177
     0
178
     0
  0
ENDTAB
  0
ENDSEC
  0
SECTION
  2
BLOCKS
  0
BLOCK
  8
0
  2
$MODEL_SPACE
 70
     0
 10
0.0
 20
0.0
 30
0.0
  3
$MODEL_SPACE
  1

  0
ENDBLK
  5
13
  8
0
  0
BLOCK
 67
     1
  8
0
  2
$PAPER_SPACE
 70
     0
 10
0.0
 20
0.0
 30
0.0
  3
$PAPER_SPACE
  1

  0
ENDBLK
  5
50B
 67
     1
  8
0
  0
BLOCK
  8
0
  2
HURRICANE
 70
     0
 10
0.0
 20
0.0
 30
0.0
  3
HURRICANE
  1

  0
TEXT
  5
4F0
  8
HURRICANE_09_274_5329_03_3
 10
-10.79948840381992
 20
-5.0420310661715337
 30
0.0
 40
1.3
  1
Web: www.hurricane.co.nz
  7
ARIAL
 72
     1
 11
0.0
 21
-5.426887821481273
 31
0.0
 73
     1
1001
PE_URL
1000
http://www.hurricane.co.nz
1002
{
1000
http://www.hurricane.co.nz
1002
{
1071
        1
1002
}
1002
}
  0
INSERT
  5
4F1
  8
0
  2
*U2
 10
0.0
 20
0.0
 30
0.0
  0
TEXT
  5
4F2
  8
HURRICANE_09_274_5329_03_3
 10
-12.1256480218281
 20
-2.8693341911033929
 30
0.0
 40
1.3
  1
Email: mesh@hurricane.co.nz
  7
ARIAL
 72
     1
 11
0.0
 21
-3.2541909464131318
 31
0.0
 73
     1
1001
PE_URL
1000
mailto:mesh@hurricane.co.nz
1002
{
1000
mailto:mesh@hurricane.co.nz
1002
{
1071
        1
1002
}
1002
}
  0
ENDBLK
  5
4F5
  8
0
  0
BLOCK
  8
0
  2
*U2
 70
     1
 10
0.0
 20
0.0
 30
0.0
  3
*U2
  1

  0
TEXT
  5
59E
  8
HURRICANE_09_274_5329_03_3
 10
-20.393321115279679
 20
9.7559690298548531
 30
0.0
 40
2.5000300000000002
  1
Hurricane Wire - Auckland
  7
ARIAL
  0
TEXT
  5
59F
  8
HURRICANE_09_274_5329_03_3
 10
-8.9207880594272506
 20
6.6819287924116519
 30
0.0
 40
1.7999965997
  1
Ph 09 274 5329
  7
ARIAL
  0
TEXT
  5
5A0
  8
HURRICANE_09_274_5329_03_3
 10
-23.018558126405399
 20
3.1059480396541592
 30
0.0
 40
2.50001527732333
  1
Hurricane Wire - Christchurch
  7
ARIAL
  0
TEXT
  5
5A1
  8
HURRICANE_09_274_5329_03_3
 10
-8.9207355249063731
 20
0.0319233533339156
 30
0.0
 40
1.799985999520024
  1
Ph 03 344 3619
  7
ARIAL
  0
ENDBLK
  5
5A3
  8
0
  0
ENDSEC
  0
SECTION
  2
ENTITIES
  0
LINE
  5
63
  8
0
 10
0.0
 20
1972.1418959118209
 30
0.0015258207003583
 11
0.0
 21
1968.14189591182
 31
0.0015258207003583
  0
LINE
  5
65
  8
0
 10
4650.0
 20
1968.14189591182
 30
0.0015258207003583
 11
4650.0
 21
1972.14189591182
 31
0.0015258207003583
  0
LINE
  5
66
  8
0
 10
4572.9999999999873
 20
0.1418959114802118
 30
0.0015258207003583
 11
4576.9999999999873
 21
0.1418959114802045
 31
0.0015258207003583
  0
LINE
  5
67
  8
0
 10
4576.9999999999909
 20
1990.1418959114801
 30
0.0015258207003583
 11
4572.9999999999909
 21
1990.1418959114801
 31
0.0015258207003583
  0
LINE
  5
68
  8
0
 10
4422.9999999999882
 20
0.1418959114932154
 30
0.0015258207003583
 11
4426.9999999999882
 21
0.1418959114932081
 31
0.0015258207003583
  0
LINE
  5
69
  8
0
 10
4426.9999999999909
 20
1990.1418959114931
 30
0.0015258207003583
 11
4422.9999999999918
 21
1990.1418959114931
 31
0.0015258207003583
  0
LINE
  5
6A
  8
0
 10
4272.9999999999882
 20
0.1418959115040532
 30
0.0015258207003583
 11
4276.9999999999891
 21
0.1418959115040459
 31
0.0015258207003583
  0
LINE
  5
6B
  8
0
 10
4276.9999999999927
 20
1990.141895911504
 30
0.0015258207003583
 11
4272.9999999999909
 21
1990.141895911504
 31
0.0015258207003583
  0
LINE
  5
6C
  8
0
 10
4122.9999999999891
 20
0.1418959115148911
 30
0.0015258207003583
 11
4126.9999999999891
 21
0.1418959115148838
 31
0.0015258207003583
  0
LINE
  5
6D
  8
0
 10
4126.9999999999918
 20
1990.1418959115149
 30
0.0015258207003583
 11
4122.9999999999927
 21
1990.1418959115149
 31
0.0015258207003583
  0
LINE
  5
6E
  8
0
 10
0.0
 20
1822.1418959118209
 30
0.0015258207003583
 11
0.0
 21
1818.14189591182
 31
0.0015258207003583
  0
LINE
  5
6F
  8
0
 10
4650.0
 20
1818.14189591182
 30
0.0015258207003583
 11
4650.0
 21
1822.1418959118209
 31
0.0015258207003583
  0
LINE
  5
70
  8
0
 10
3972.99999999999
 20
0.1418959115278947
 30
0.0015258207003583
 11
3976.99999999999
 21
0.1418959115278874
 31
0.0015258207003583
  0
LINE
  5
71
  8
0
 10
3976.9999999999932
 20
1990.1418959115269
 30
0.0015258207003583
 11
3972.9999999999941
 21
1990.1418959115269
 31
0.0015258207003583
  0
LINE
  5
72
  8
0
 10
0.0
 20
1672.1418959118209
 30
0.0015258207003583
 11
0.0
 21
1668.14189591182
 31
0.0015258207003583
  0
LINE
  5
73
  8
0
 10
4650.0
 20
1668.14189591182
 30
0.0015258207003583
 11
4650.0
 21
1672.14189591182
 31
0.0015258207003583
  0
LINE
  5
74
  8
0
 10
0.0
 20
1522.14189591182
 30
0.0015258207003583
 11
0.0
 21
1518.14189591182
 31
0.0015258207003583
  0
LINE
  5
75
  8
0
 10
4650.0
 20
1518.14189591182
 30
0.0015258207003583
 11
4650.0
 21
1522.14189591182
 31
0.0015258207003583
  0
LINE
  5
76
  8
0
 10
0.0
 20
1372.1418959118209
 30
0.0015258207003583
 11
0.0
 21
1368.1418959118209
 31
0.0015258207003583
  0
LINE
  5
77
  8
0
 10
4650.0
 20
1368.14189591182
 30
0.0015258207003583
 11
4650.0
 21
1372.1418959118209
 31
0.0015258207003583
  0
LINE
  5
78
  8
0
 10
0.0
 20
1222.1418959118209
 30
0.0015258207003583
 11
0.0
 21
1218.1418959118209
 31
0.0015258207003583
  0
LINE
  5
79
  8
0
 10
4650.0
 20
1218.1418959118209
 30
0.0015258207003583
 11
4650.0
 21
1222.1418959118209
 31
0.0015258207003583
  0
LINE
  5
7A
  8
0
 10
0.0
 20
1072.1418959118209
 30
0.0015258207003583
 11
0.0
 21
1068.1418959118209
 31
0.0015258207003583
  0
LINE
  5
7B
  8
0
 10
4650.0
 20
1068.1418959118209
 30
0.0015258207003583
 11
4650.0
 21
1072.1418959118209
 31
0.0015258207003583
  0
LINE
  5
7C
  8
0
 10
0.0
 20
922.14189591182117
 30
0.0015258207003583
 11
0.0
 21
918.14189591182128
 31
0.0015258207003583
  0
LINE
  5
7D
  8
0
 10
4650.0
 20
918.14189591182094
 30
0.0015258207003583
 11
4650.0
 21
922.14189591182082
 31
0.0015258207003583
  0
LINE
  5
7E
  8
0
 10
0.0
 20
772.14189591182105
 30
0.0015258207003583
 11
0.0
 21
768.14189591182128
 31
0.0015258207003583
  0
LINE
  5
7F
  8
0
 10
4650.0
 20
768.14189591182094
 30
0.0015258207003583
 11
4650.0
 21
772.14189591182082
 31
0.0015258207003583
  0
LINE
  5
80
  8
0
 10
0.0
 20
622.14189591182105
 30
0.0015258207003583
 11
0.0
 21
618.14189591182128
 31
0.0015258207003583
  0
LINE
  5
81
  8
0
 10
4650.0
 20
618.14189591182094
 30
0.0015258207003583
 11
4650.0
 21
622.14189591182082
 31
0.0015258207003583
  0
LINE
  5
82
  8
0
 10
0.0
 20
472.14189591182139
 30
0.0015258207003583
 11
0.0
 21
468.14189591182139
 31
0.0015258207003583
  0
LINE
  5
83
  8
0
 10
4650.0
 20
468.14189591182111
 30
0.0015258207003583
 11
4650.0
 21
472.14189591182111
 31
0.0015258207003583
  0
LINE
  5
84
  8
0
 10
0.0
 20
322.14189591182139
 30
0.0015258207003583
 11
0.0
 21
318.14189591182139
 31
0.0015258207003583
  0
LINE
  5
85
  8
0
 10
4650.0
 20
318.14189591182111
 30
0.0015258207003583
 11
4650.0
 21
322.14189591182111
 31
0.0015258207003583
  0
LINE
  5
86
  8
0
 10
0.0
 20
172.14189591182159
 30
0.0015258207003583
 11
0.0
 21
168.14189591182159
 31
0.0015258207003583
  0
LINE
  5
87
  8
0
 10
4650.0000000000009
 20
168.14189591182139
 30
0.0015258207003583
 11
4650.0000000000009
 21
172.14189591182131
 31
0.0015258207003583
  0
LINE
  5
88
  8
0
 10
3822.99999999999
 20
0.1418959115387326
 30
0.0015258207003583
 11
3826.9999999999909
 21
0.1418959115387252
 31
0.0015258207003583
  0
LINE
  5
89
  8
0
 10
3826.9999999999941
 20
1990.1418959115381
 30
0.0015258207003583
 11
3822.9999999999941
 21
1990.1418959115381
 31
0.0015258207003583
  0
LINE
  5
8A
  8
0
 10
3672.9999999999909
 20
0.1418959115495704
 30
0.0015258207003583
 11
3676.9999999999909
 21
0.1418959115495631
 31
0.0015258207003583
  0
LINE
  5
8B
  8
0
 10
3676.999999999995
 20
1990.141895911549
 30
0.0015258207003583
 11
3672.999999999995
 21
1990.141895911549
 31
0.0015258207003583
  0
LINE
  5
8C
  8
0
 10
3522.9999999999909
 20
0.141895911562574
 30
0.0015258207003583
 11
3526.9999999999909
 21
0.1418959115625667
 31
0.0015258207003583
  0
LINE
  5
8D
  8
0
 10
3526.9999999999959
 20
1990.141895911562
 30
0.0015258207003583
 11
3522.9999999999959
 21
1990.141895911562
 31
0.0015258207003583
  0
LINE
  5
8E
  8
0
 10
3372.9999999999918
 20
0.141895911572329
 30
0.0015258207003583
 11
3376.9999999999918
 21
0.1418959115723216
 31
0.0015258207003583
  0
LINE
  5
8F
  8
0
 10
3376.999999999995
 20
1990.141895911572
 30
0.0015258207003583
 11
3372.9999999999959
 21
1990.141895911572
 31
0.0015258207003583
  0
LINE
  5
90
  8
0
 10
3222.9999999999932
 20
0.1418959115842497
 30
0.0015258207003583
 11
3226.9999999999932
 21
0.1418959115842424
 31
0.0015258207003583
  0
LINE
  5
91
  8
0
 10
3226.9999999999968
 20
1990.141895911584
 30
0.0015258207003583
 11
3222.9999999999959
 21
1990.141895911584
 31
0.0015258207003583
  0
LINE
  5
92
  8
0
 10
3072.9999999999932
 20
0.1418959115961705
 30
0.0015258207003583
 11
3076.9999999999932
 21
0.1418959115961631
 31
0.0015258207003583
  0
LINE
  5
93
  8
0
 10
3076.9999999999959
 20
1990.1418959115961
 30
0.0015258207003583
 11
3072.9999999999968
 21
1990.1418959115961
 31
0.0015258207003583
  0
LINE
  5
94
  8
0
 10
2922.9999999999941
 20
0.1418959116070083
 30
0.0015258207003583
 11
2926.9999999999941
 21
0.141895911607001
 31
0.0015258207003583
  0
LINE
  5
95
  8
0
 10
2926.9999999999982
 20
1990.1418959116061
 30
0.0015258207003583
 11
2922.9999999999968
 21
1990.1418959116061
 31
0.0015258207003583
  0
LINE
  5
96
  8
0
 10
2772.9999999999941
 20
0.141895911618929
 30
0.0015258207003583
 11
2776.9999999999941
 21
0.1418959116189217
 31
0.0015258207003583
  0
LINE
  5
97
  8
0
 10
2776.9999999999982
 20
1990.141895911619
 30
0.0015258207003583
 11
2772.9999999999968
 21
1990.141895911619
 31
0.0015258207003583
  0
LINE
  5
98
  8
0
 10
2622.999999999995
 20
0.1418959116308498
 30
0.0015258207003583
 11
2626.999999999995
 21
0.1418959116308424
 31
0.0015258207003583
  0
LINE
  5
99
  8
0
 10
2626.9999999999982
 20
1990.1418959116299
 30
0.0015258207003583
 11
2622.9999999999982
 21
1990.1418959116299
 31
0.0015258207003583
  0
LINE
  5
9A
  8
0
 10
2472.999999999995
 20
0.1418959116427705
 30
0.0015258207003583
 11
2476.999999999995
 21
0.1418959116427631
 31
0.0015258207003583
  0
LINE
  5
9B
  8
0
 10
2476.9999999999982
 20
1990.141895911642
 30
0.0015258207003583
 11
2472.9999999999991
 21
1990.141895911642
 31
0.0015258207003583
  0
LINE
  5
9C
  8
0
 10
2322.999999999995
 20
0.1418959116536083
 30
0.0015258207003583
 11
2326.999999999995
 21
0.141895911653601
 31
0.0015258207003583
  0
LINE
  5
9D
  8
0
 10
2326.9999999999991
 20
1990.1418959116529
 30
0.0015258207003583
 11
2322.9999999999991
 21
1990.1418959116529
 31
0.0015258207003583
  0
LINE
  5
9E
  8
0
 10
2172.9999999999959
 20
0.1418959116655291
 30
0.0015258207003583
 11
2176.9999999999959
 21
0.1418959116655217
 31
0.0015258207003583
  0
LINE
  5
9F
  8
0
 10
2177.0
 20
1990.141895911665
 30
0.0015258207003583
 11
2173.0
 21
1990.141895911665
 31
0.0015258207003583
  0
LINE
  5
A0
  8
0
 10
2022.999999999997
 20
0.1418959116785326
 30
0.0015258207003583
 11
2026.999999999997
 21
0.1418959116785253
 31
0.0015258207003583
  0
LINE
  5
A1
  8
0
 10
2027.0
 20
1990.1418959116779
 30
0.0015258207003583
 11
2023.0
 21
1990.1418959116779
 31
0.0015258207003583
  0
LINE
  5
A2
  8
0
 10
1872.999999999997
 20
0.1418959116904534
 30
0.0015258207003583
 11
1876.999999999997
 21
0.141895911690446
 31
0.0015258207003583
  0
LINE
  5
A3
  8
0
 10
1877.0000000000009
 20
1990.14189591169
 30
0.0015258207003583
 11
1873.0
 21
1990.14189591169
 31
0.0015258207003583
  0
LINE
  5
A4
  8
0
 10
1722.999999999997
 20
0.1418959117002083
 30
0.0015258207003583
 11
1726.999999999997
 21
0.141895911700201
 31
0.0015258207003583
  0
LINE
  5
A5
  8
0
 10
1727.0000000000009
 20
1990.1418959117
 30
0.0015258207003583
 11
1723.0000000000009
 21
1990.1418959117
 31
0.0015258207003583
  0
LINE
  5
A6
  8
0
 10
1572.999999999997
 20
0.1418959117132119
 30
0.0015258207003583
 11
1576.999999999998
 21
0.1418959117132046
 31
0.0015258207003583
  0
LINE
  5
A7
  8
0
 10
1577.000000000002
 20
1990.1418959117129
 30
0.0015258207003583
 11
1573.000000000002
 21
1990.1418959117129
 31
0.0015258207003583
  0
LINE
  5
A8
  8
0
 10
1422.999999999998
 20
0.1418959117245912
 30
0.0015258207003583
 11
1426.999999999998
 21
0.1418959117245839
 31
0.0015258207003583
  0
LINE
  5
A9
  8
0
 10
1427.000000000002
 20
1990.1418959117241
 30
0.0015258207003583
 11
1423.000000000002
 21
1990.1418959117241
 31
0.0015258207003583
  0
LINE
  5
AA
  8
0
 10
1272.9999999999991
 20
0.1418959117359705
 30
0.0015258207003583
 11
1276.9999999999991
 21
0.1418959117359632
 31
0.0015258207003583
  0
LINE
  5
AB
  8
0
 10
1277.000000000003
 20
1990.1418959117359
 30
0.0015258207003583
 11
1273.000000000003
 21
1990.1418959117359
 31
0.0015258207003583
  0
LINE
  5
AC
  8
0
 10
1122.9999999999991
 20
0.1418959117473498
 30
0.0015258207003583
 11
1126.9999999999991
 21
0.1418959117473425
 31
0.0015258207003583
  0
LINE
  5
AD
  8
0
 10
1127.000000000003
 20
1990.141895911747
 30
0.0015258207003583
 11
1123.000000000003
 21
1990.141895911747
 31
0.0015258207003583
  0
LINE
  5
AE
  8
0
 10
973.0
 20
0.1418959117589998
 30
0.0015258207003583
 11
977.0
 21
0.1418959117589924
 31
0.0015258207003583
  0
LINE
  5
AF
  8
0
 10
977.00000000000398
 20
1990.1418959117591
 30
0.0015258207003583
 11
973.00000000000352
 21
1990.1418959117591
 31
0.0015258207003583
  0
LINE
  5
B0
  8
0
 10
823.00000000000034
 20
0.1418959117701084
 30
0.0015258207003583
 11
827.00000000000045
 21
0.141895911770101
 31
0.0015258207003583
  0
LINE
  5
B1
  8
0
 10
827.00000000000455
 20
1990.14189591177
 30
0.0015258207003583
 11
823.00000000000409
 21
1990.14189591177
 31
0.0015258207003583
  0
LINE
  5
B2
  8
0
 10
673.00000000000091
 20
0.1418959117817584
 30
0.0015258207003583
 11
677.00000000000125
 21
0.1418959117817511
 31
0.0015258207003583
  0
LINE
  5
B3
  8
0
 10
677.000000000005
 20
1990.1418959117809
 30
0.0015258207003583
 11
673.000000000005
 21
1990.1418959117809
 31
0.0015258207003583
  0
LINE
  5
B4
  8
0
 10
523.00000000000182
 20
0.141895911792867
 30
0.0015258207003583
 11
527.00000000000182
 21
0.1418959117928596
 31
0.0015258207003583
  0
LINE
  5
B5
  8
0
 10
527.00000000000534
 20
1990.1418959117921
 30
0.0015258207003583
 11
523.00000000000534
 21
1990.1418959117921
 31
0.0015258207003583
  0
LINE
  5
B6
  8
0
 10
373.00000000000182
 20
0.141895911806412
 30
0.0015258207003583
 11
377.00000000000182
 21
0.1418959118064047
 31
0.0015258207003583
  0
LINE
  5
B7
  8
0
 10
377.00000000000631
 20
1990.1418959118059
 30
0.0015258207003583
 11
373.00000000000551
 21
1990.1418959118059
 31
0.0015258207003583
  0
LINE
  5
B8
  8
0
 10
223.0000000000027
 20
0.1418959118177913
 30
0.0015258207003583
 11
227.0000000000027
 21
0.1418959118177839
 31
0.0015258207003583
  0
LINE
  5
B9
  8
0
 10
227.00000000000631
 20
1990.1418959118171
 30
0.0015258207003583
 11
223.00000000000639
 21
1990.1418959118171
 31
0.0015258207003583
  0
LINE
  5
BA
  8
0
 10
73.000000000002728
 20
0.1418959118291706
 30
0.0015258207003583
 11
77.000000000003638
 21
0.1418959118291632
 31
0.0015258207003583
  0
LINE
  5
BB
  8
0
 10
77.000000000007276
 20
1990.1418959118289
 30
0.0015258207003583
 11
73.000000000007276
 21
1990.1418959118289
 31
0.0015258207003583
  0
LINE
  5
BC
  8
0
 10
0.0
 20
22.141895911821639
 30
0.0015258207003583
 11
0.0
 21
18.141895911821639
 31
0.0015258207003583
  0
LINE
  5
BD
  8
0
 10
4650.0
 20
18.141895911821361
 30
0.0015258207003583
 11
4650.0
 21
22.141895911821351
 31
0.0015258207003583
  0
LINE
  5
BE
  8
DEFPOINTS
 10
74.999999999999091
 20
1770.1418959118309
 30
0.0015258207003583
 11
74.999999999999091
 21
20.14189591182814
 31
0.0015258207003583
1001
REVIT
1002
{
1070
     3
1000
-2009512
1002
}
  0
LINE
  5
C2
  8
DEFPOINTS
 10
4374.9999999999891
 20
1770.1418959118309
 30
0.0015258207003583
 11
74.999999999999091
 21
1770.1418959118309
 31
0.0015258207003583
1001
REVIT
1002
{
1070
     3
1000
-2009512
1002
}
  0
LINE
  5
C3
  8
DEFPOINTS
 10
4374.9999999999891
 20
20.14189591182781
 30
0.0015258207003583
 11
4374.9999999999891
 21
1770.1418959118309
 31
0.0015258207003583
1001
REVIT
1002
{
1070
     3
1000
-2009512
1002
}
  0
LINE
  5
C4
  8
DEFPOINTS
 10
74.999999999999091
 20
20.141895911828069
 30
0.0015258207003583
 11
4374.9999999999891
 21
20.14189591182781
 31
0.0015258207003583
1001
REVIT
1002
{
1070
     3
1000
-2009512
1002
}
  0
LINE
  5
C5
  8
0
 10
4576.9999999999909
 20
1972.1418959118209
 30
0.0015258207003583
 11
4576.9999999999909
 21
1990.1418959114801
 31
0.0015258207003583
  0
LINE
  5
C6
  8
0
 10
4576.9999999999909
 20
1822.1418959118209
 30
0.0015258207003583
 11
4576.9999999999909
 21
1968.1418959118221
 31
0.0015258207003583
  0
LINE
  5
C7
  8
0
 10
4576.9999999999909
 20
1672.14189591182
 30
0.0015258207003583
 11
4576.9999999999909
 21
1818.1418959118221
 31
0.0015258207003583
  0
LINE
  5
C8
  8
0
 10
4576.99999999999
 20
1522.1418959118239
 30
0.0015258207003583
 11
4576.9999999999909
 21
1668.1418959118209
 31
0.0015258207003583
  0
LINE
  5
C9
  8
0
 10
4576.99999999999
 20
1372.141895911823
 30
0.0015258207003583
 11
4576.99999999999
 21
1518.14189591182
 31
0.0015258207003583
  0
LINE
  5
CA
  8
0
 10
4576.99999999999
 20
1222.141895911823
 30
0.0015258207003583
 11
4576.99999999999
 21
1368.14189591182
 31
0.0015258207003583
  0
LINE
  5
CB
  8
0
 10
4576.9999999999891
 20
1072.1418959118221
 30
0.0015258207003583
 11
4576.99999999999
 21
1218.1418959118239
 31
0.0015258207003583
  0
LINE
  5
CC
  8
0
 10
4576.9999999999891
 20
922.14189591182151
 30
0.0015258207003583
 11
4576.9999999999891
 21
1068.141895911823
 31
0.0015258207003583
  0
LINE
  5
CD
  8
0
 10
4576.9999999999891
 20
772.14189591182082
 30
0.0015258207003583
 11
4576.9999999999891
 21
918.1418959118223
 31
0.0015258207003583
  0
LINE
  5
CE
  8
0
 10
4576.9999999999891
 20
622.14189591182014
 30
0.0015258207003583
 11
4576.9999999999891
 21
768.14189591182173
 31
0.0015258207003583
  0
LINE
  5
CF
  8
0
 10
4576.9999999999882
 20
472.14189591182378
 30
0.0015258207003583
 11
4576.9999999999891
 21
618.14189591182105
 31
0.0015258207003583
  0
LINE
  5
D0
  8
0
 10
4576.9999999999882
 20
322.1418959118231
 30
0.0015258207003583
 11
4576.9999999999882
 21
468.14189591182031
 31
0.0015258207003583
  0
LINE
  5
D1
  8
0
 10
4576.9999999999882
 20
172.14189591182239
 30
0.0015258207003583
 11
4576.9999999999882
 21
318.14189591181969
 31
0.0015258207003583
  0
LINE
  5
D2
  8
0
 10
4576.9999999999873
 20
22.141895911821742
 30
0.0015258207003583
 11
4576.9999999999882
 21
168.1418959118233
 31
0.0015258207003583
  0
LINE
  5
D3
  8
0
 10
4576.9999999999873
 20
0.1418959114802045
 30
0.0015258207003583
 11
4576.9999999999873
 21
18.14189591182264
 31
0.0015258207003583
  0
LINE
  5
D4
  8
0
 10
4572.9999999999873
 20
18.14189591182269
 30
0.0015258207003583
 11
4572.9999999999873
 21
0.1418959114802118
 31
0.0015258207003583
  0
LINE
  5
D5
  8
0
 10
4572.9999999999882
 20
168.1418959118233
 30
0.0015258207003583
 11
4572.9999999999873
 21
22.141895911821688
 31
0.0015258207003583
  0
LINE
  5
D6
  8
0
 10
4572.9999999999882
 20
318.1418959118198
 30
0.0015258207003583
 11
4572.9999999999882
 21
172.1418959118223
 31
0.0015258207003583
  0
LINE
  5
D7
  8
0
 10
4572.9999999999882
 20
468.14189591182048
 30
0.0015258207003583
 11
4572.9999999999882
 21
322.14189591182321
 31
0.0015258207003583
  0
LINE
  5
D8
  8
0
 10
4572.9999999999882
 20
618.14189591182105
 30
0.0015258207003583
 11
4572.9999999999882
 21
472.14189591182378
 31
0.0015258207003583
  0
LINE
  5
D9
  8
0
 10
4572.9999999999882
 20
768.14189591182173
 30
0.0015258207003583
 11
4572.9999999999882
 21
622.14189591182014
 31
0.0015258207003583
  0
LINE
  5
DA
  8
0
 10
4572.9999999999882
 20
918.1418959118223
 30
0.0015258207003583
 11
4572.9999999999882
 21
772.14189591182094
 31
0.0015258207003583
  0
LINE
  5
DB
  8
0
 10
4572.9999999999882
 20
1068.141895911823
 30
0.0015258207003583
 11
4572.9999999999882
 21
922.14189591182151
 31
0.0015258207003583
  0
LINE
  5
DC
  8
0
 10
4572.9999999999891
 20
1218.1418959118239
 30
0.0015258207003583
 11
4572.9999999999882
 21
1072.1418959118221
 31
0.0015258207003583
  0
LINE
  5
DD
  8
0
 10
4572.9999999999891
 20
1368.14189591182
 30
0.0015258207003583
 11
4572.9999999999891
 21
1222.141895911823
 31
0.0015258207003583
  0
LINE
  5
DE
  8
0
 10
4572.9999999999891
 20
1518.1418959118209
 30
0.0015258207003583
 11
4572.9999999999891
 21
1372.1418959118239
 31
0.0015258207003583
  0
LINE
  5
DF
  8
0
 10
4572.9999999999909
 20
1668.1418959118209
 30
0.0015258207003583
 11
4572.9999999999891
 21
1522.1418959118239
 31
0.0015258207003583
  0
LINE
  5
E0
  8
0
 10
4572.9999999999909
 20
1818.1418959118221
 30
0.0015258207003583
 11
4572.9999999999909
 21
1672.1418959118209
 31
0.0015258207003583
  0
LINE
  5
E1
  8
0
 10
4572.9999999999909
 20
1968.141895911823
 30
0.0015258207003583
 11
4572.9999999999909
 21
1822.1418959118209
 31
0.0015258207003583
  0
LINE
  5
E2
  8
0
 10
4572.9999999999909
 20
1990.1418959114801
 30
0.0015258207003583
 11
4572.9999999999909
 21
1972.1418959118221
 31
0.0015258207003583
  0
LINE
  5
E3
  8
0
 10
4426.9999999999909
 20
1972.1418959118209
 30
0.0015258207003583
 11
4426.9999999999909
 21
1990.1418959114931
 31
0.0015258207003583
  0
LINE
  5
E4
  8
0
 10
4426.9999999999909
 20
1822.1418959118209
 30
0.0015258207003583
 11
4426.9999999999909
 21
1968.141895911823
 31
0.0015258207003583
  0
LINE
  5
E5
  8
0
 10
4426.9999999999909
 20
1672.14189591182
 30
0.0015258207003583
 11
4426.9999999999909
 21
1818.1418959118209
 31
0.0015258207003583
  0
LINE
  5
E6
  8
0
 10
4426.9999999999909
 20
1522.1418959118239
 30
0.0015258207003583
 11
4426.9999999999909
 21
1668.1418959118209
 31
0.0015258207003583
  0
LINE
  5
E7
  8
0
 10
4426.9999999999909
 20
1372.141895911823
 30
0.0015258207003583
 11
4426.9999999999909
 21
1518.14189591182
 31
0.0015258207003583
  0
LINE
  5
E8
  8
0
 10
4426.99999999999
 20
1222.141895911823
 30
0.0015258207003583
 11
4426.9999999999909
 21
1368.14189591182
 31
0.0015258207003583
  0
LINE
  5
E9
  8
0
 10
4426.99999999999
 20
1072.1418959118221
 30
0.0015258207003583
 11
4426.99999999999
 21
1218.141895911823
 31
0.0015258207003583
  0
LINE
  5
EA
  8
0
 10
4426.99999999999
 20
922.14189591182151
 30
0.0015258207003583
 11
4426.99999999999
 21
1068.141895911823
 31
0.0015258207003583
  0
LINE
  5
EB
  8
0
 10
4426.9999999999882
 20
772.14189591182082
 30
0.0015258207003583
 11
4426.99999999999
 21
918.1418959118223
 31
0.0015258207003583
  0
LINE
  5
EC
  8
0
 10
4426.9999999999882
 20
622.14189591182003
 30
0.0015258207003583
 11
4426.9999999999882
 21
768.14189591182173
 31
0.0015258207003583
  0
LINE
  5
ED
  8
0
 10
4426.9999999999882
 20
472.14189591182372
 30
0.0015258207003583
 11
4426.9999999999882
 21
618.14189591182105
 31
0.0015258207003583
  0
LINE
  5
EE
  8
0
 10
4426.9999999999882
 20
322.14189591182298
 30
0.0015258207003583
 11
4426.9999999999882
 21
468.1418959118202
 31
0.0015258207003583
  0
LINE
  5
EF
  8
0
 10
4426.9999999999882
 20
172.1418959118223
 30
0.0015258207003583
 11
4426.9999999999882
 21
318.14189591181952
 31
0.0015258207003583
  0
LINE
  5
F0
  8
0
 10
4426.9999999999882
 20
22.141895911821749
 30
0.0015258207003583
 11
4426.9999999999882
 21
168.14189591182321
 31
0.0015258207003583
  0
LINE
  5
F1
  8
0
 10
4426.9999999999882
 20
0.1418959114932081
 30
0.0015258207003583
 11
4426.9999999999882
 21
18.141895911822651
 31
0.0015258207003583
  0
LINE
  5
F2
  8
0
 10
4422.9999999999882
 20
18.141895911822662
 30
0.0015258207003583
 11
4422.9999999999882
 21
0.1418959114932154
 31
0.0015258207003583
  0
LINE
  5
F3
  8
0
 10
4422.9999999999882
 20
168.14189591182321
 30
0.0015258207003583
 11
4422.9999999999882
 21
22.14189591182166
 31
0.0015258207003583
  0
LINE
  5
F4
  8
0
 10
4422.9999999999891
 20
318.1418959118198
 30
0.0015258207003583
 11
4422.9999999999882
 21
172.1418959118225
 31
0.0015258207003583
  0
LINE
  5
F5
  8
0
 10
4422.9999999999891
 20
468.14189591182043
 30
0.0015258207003583
 11
4422.9999999999891
 21
322.14189591182321
 31
0.0015258207003583
  0
LINE
  5
F6
  8
0
 10
4422.9999999999891
 20
618.14189591182105
 30
0.0015258207003583
 11
4422.9999999999891
 21
472.14189591182378
 31
0.0015258207003583
  0
LINE
  5
F7
  8
0
 10
4422.99999999999
 20
768.14189591182173
 30
0.0015258207003583
 11
4422.9999999999891
 21
622.14189591182026
 31
0.0015258207003583
  0
LINE
  5
F8
  8
0
 10
4422.99999999999
 20
918.14189591182253
 30
0.0015258207003583
 11
4422.99999999999
 21
772.14189591182094
 31
0.0015258207003583
  0
LINE
  5
F9
  8
0
 10
4422.99999999999
 20
1068.141895911823
 30
0.0015258207003583
 11
4422.99999999999
 21
922.14189591182151
 31
0.0015258207003583
  0
LINE
  5
FA
  8
0
 10
4422.99999999999
 20
1218.1418959118239
 30
0.0015258207003583
 11
4422.99999999999
 21
1072.1418959118221
 31
0.0015258207003583
  0
LINE
  5
FB
  8
0
 10
4422.9999999999909
 20
1368.14189591182
 30
0.0015258207003583
 11
4422.99999999999
 21
1222.141895911823
 31
0.0015258207003583
  0
LINE
  5
FC
  8
0
 10
4422.9999999999909
 20
1518.1418959118209
 30
0.0015258207003583
 11
4422.9999999999909
 21
1372.1418959118239
 31
0.0015258207003583
  0
LINE
  5
FD
  8
0
 10
4422.9999999999909
 20
1668.1418959118221
 30
0.0015258207003583
 11
4422.9999999999909
 21
1522.141895911825
 31
0.0015258207003583
  0
LINE
  5
FE
  8
0
 10
4422.9999999999918
 20
1818.1418959118221
 30
0.0015258207003583
 11
4422.9999999999909
 21
1672.1418959118209
 31
0.0015258207003583
  0
LINE
  5
FF
  8
0
 10
4422.9999999999918
 20
1968.141895911823
 30
0.0015258207003583
 11
4422.9999999999918
 21
1822.1418959118221
 31
0.0015258207003583
  0
LINE
  5
100
  8
0
 10
4422.9999999999918
 20
1990.1418959114931
 30
0.0015258207003583
 11
4422.9999999999918
 21
1972.1418959118209
 31
0.0015258207003583
  0
LINE
  5
101
  8
0
 10
4276.9999999999927
 20
1972.1418959118239
 30
0.0015258207003583
 11
4276.9999999999927
 21
1990.141895911504
 31
0.0015258207003583
  0
LINE
  5
102
  8
0
 10
4276.9999999999918
 20
1822.141895911823
 30
0.0015258207003583
 11
4276.9999999999927
 21
1968.141895911825
 31
0.0015258207003583
  0
LINE
  5
103
  8
0
 10
4276.9999999999918
 20
1672.1418959118221
 30
0.0015258207003583
 11
4276.9999999999918
 21
1818.1418959118239
 31
0.0015258207003583
  0
LINE
  5
104
  8
0
 10
4276.9999999999918
 20
1522.1418959118259
 30
0.0015258207003583
 11
4276.9999999999918
 21
1668.141895911823
 31
0.0015258207003583
  0
LINE
  5
105
  8
0
 10
4276.9999999999909
 20
1372.1418959118259
 30
0.0015258207003583
 11
4276.9999999999918
 21
1518.141895911823
 31
0.0015258207003583
  0
LINE
  5
106
  8
0
 10
4276.9999999999909
 20
1222.141895911825
 30
0.0015258207003583
 11
4276.9999999999909
 21
1368.1418959118221
 31
0.0015258207003583
  0
LINE
  5
107
  8
0
 10
4276.9999999999909
 20
1072.1418959118239
 30
0.0015258207003583
 11
4276.9999999999909
 21
1218.1418959118259
 31
0.0015258207003583
  0
LINE
  5
108
  8
0
 10
4276.9999999999909
 20
922.14189591182355
 30
0.0015258207003583
 11
4276.9999999999909
 21
1068.141895911825
 31
0.0015258207003583
  0
LINE
  5
109
  8
0
 10
4276.99999999999
 20
772.14189591182264
 30
0.0015258207003583
 11
4276.9999999999909
 21
918.14189591182446
 31
0.0015258207003583
  0
LINE
  5
10A
  8
0
 10
4276.99999999999
 20
622.14189591182219
 30
0.0015258207003583
 11
4276.99999999999
 21
768.14189591182378
 31
0.0015258207003583
  0
LINE
  5
10B
  8
0
 10
4276.99999999999
 20
472.14189591182583
 30
0.0015258207003583
 11
4276.99999999999
 21
618.14189591182298
 31
0.0015258207003583
  0
LINE
  5
10C
  8
0
 10
4276.9999999999891
 20
322.1418959118252
 30
0.0015258207003583
 11
4276.9999999999891
 21
468.1418959118223
 31
0.0015258207003583
  0
LINE
  5
10D
  8
0
 10
4276.9999999999891
 20
172.14189591182449
 30
0.0015258207003583
 11
4276.9999999999891
 21
318.14189591182168
 31
0.0015258207003583
  0
LINE
  5
10E
  8
0
 10
4276.9999999999891
 20
22.14189591182393
 30
0.0015258207003583
 11
4276.9999999999891
 21
168.14189591182549
 31
0.0015258207003583
  0
LINE
  5
10F
  8
0
 10
4276.9999999999891
 20
0.1418959115040459
 30
0.0015258207003583
 11
4276.9999999999891
 21
18.141895911824829
 31
0.0015258207003583
  0
LINE
  5
110
  8
0
 10
4272.9999999999891
 20
18.141895911824889
 30
0.0015258207003583
 11
4272.9999999999882
 21
0.1418959115040532
 31
0.0015258207003583
  0
LINE
  5
111
  8
0
 10
4272.9999999999891
 20
168.14189591182549
 30
0.0015258207003583
 11
4272.9999999999891
 21
22.141895911823891
 31
0.0015258207003583
  0
LINE
  5
112
  8
0
 10
4272.9999999999891
 20
318.14189591182202
 30
0.0015258207003583
 11
4272.9999999999891
 21
172.14189591182461
 31
0.0015258207003583
  0
LINE
  5
113
  8
0
 10
4272.9999999999891
 20
468.14189591182259
 30
0.0015258207003583
 11
4272.9999999999891
 21
322.14189591182537
 31
0.0015258207003583
  0
LINE
  5
114
  8
0
 10
4272.9999999999891
 20
618.14189591182333
 30
0.0015258207003583
 11
4272.9999999999891
 21
472.141895911826
 31
0.0015258207003583
  0
LINE
  5
115
  8
0
 10
4272.9999999999891
 20
768.14189591182401
 30
0.0015258207003583
 11
4272.9999999999891
 21
622.14189591182219
 31
0.0015258207003583
  0
LINE
  5
116
  8
0
 10
4272.9999999999891
 20
918.14189591182458
 30
0.0015258207003583
 11
4272.9999999999891
 21
772.14189591182321
 31
0.0015258207003583
  0
LINE
  5
117
  8
0
 10
4272.9999999999891
 20
1068.141895911825
 30
0.0015258207003583
 11
4272.9999999999891
 21
922.14189591182378
 31
0.0015258207003583
  0
LINE
  5
118
  8
0
 10
4272.9999999999909
 20
1218.1418959118259
 30
0.0015258207003583
 11
4272.9999999999891
 21
1072.1418959118239
 31
0.0015258207003583
  0
LINE
  5
119
  8
0
 10
4272.9999999999909
 20
1368.1418959118221
 30
0.0015258207003583
 11
4272.9999999999909
 21
1222.141895911825
 31
0.0015258207003583
  0
LINE
  5
11A
  8
0
 10
4272.9999999999909
 20
1518.141895911823
 30
0.0015258207003583
 11
4272.9999999999909
 21
1372.141895911825
 31
0.0015258207003583
  0
LINE
  5
11B
  8
0
 10
4272.9999999999909
 20
1668.1418959118239
 30
0.0015258207003583
 11
4272.9999999999909
 21
1522.1418959118259
 31
0.0015258207003583
  0
LINE
  5
11C
  8
0
 10
4272.9999999999909
 20
1818.1418959118239
 30
0.0015258207003583
 11
4272.9999999999909
 21
1672.141895911823
 31
0.0015258207003583
  0
LINE
  5
11D
  8
0
 10
4272.9999999999909
 20
1968.141895911825
 30
0.0015258207003583
 11
4272.9999999999909
 21
1822.141895911823
 31
0.0015258207003583
  0
LINE
  5
11E
  8
0
 10
4272.9999999999918
 20
1990.141895911504
 30
0.0015258207003583
 11
4272.9999999999909
 21
1972.1418959118239
 31
0.0015258207003583
  0
LINE
  5
11F
  8
0
 10
4126.9999999999918
 20
1972.1418959118259
 30
0.0015258207003583
 11
4126.9999999999918
 21
1990.1418959115149
 31
0.0015258207003583
  0
LINE
  5
120
  8
0
 10
4126.9999999999918
 20
1822.1418959118259
 30
0.0015258207003583
 11
4126.9999999999918
 21
1968.1418959118271
 31
0.0015258207003583
  0
LINE
  5
121
  8
0
 10
4126.9999999999918
 20
1672.141895911825
 30
0.0015258207003583
 11
4126.9999999999918
 21
1818.1418959118271
 31
0.0015258207003583
  0
LINE
  5
122
  8
0
 10
4126.9999999999909
 20
1522.141895911828
 30
0.0015258207003583
 11
4126.9999999999918
 21
1668.1418959118259
 31
0.0015258207003583
  0
LINE
  5
123
  8
0
 10
4126.9999999999909
 20
1372.141895911828
 30
0.0015258207003583
 11
4126.9999999999909
 21
1518.141895911825
 31
0.0015258207003583
  0
LINE
  5
124
  8
0
 10
4126.9999999999909
 20
1222.1418959118271
 30
0.0015258207003583
 11
4126.9999999999909
 21
1368.1418959118239
 31
0.0015258207003583
  0
LINE
  5
125
  8
0
 10
4126.99999999999
 20
1072.1418959118259
 30
0.0015258207003583
 11
4126.9999999999909
 21
1218.141895911828
 31
0.0015258207003583
  0
LINE
  5
126
  8
0
 10
4126.99999999999
 20
922.1418959118256
 30
0.0015258207003583
 11
4126.99999999999
 21
1068.1418959118271
 31
0.0015258207003583
  0
LINE
  5
127
  8
0
 10
4126.99999999999
 20
772.14189591182515
 30
0.0015258207003583
 11
4126.99999999999
 21
918.14189591182685
 31
0.0015258207003583
  0
LINE
  5
128
  8
0
 10
4126.99999999999
 20
622.14189591182446
 30
0.0015258207003583
 11
4126.99999999999
 21
768.14189591182605
 31
0.0015258207003583
  0
LINE
  5
129
  8
0
 10
4126.99999999999
 20
472.1418959118281
 30
0.0015258207003583
 11
4126.99999999999
 21
618.14189591182537
 31
0.0015258207003583
  0
LINE
  5
12A
  8
0
 10
4126.99999999999
 20
322.14189591182748
 30
0.0015258207003583
 11
4126.99999999999
 21
468.14189591182458
 31
0.0015258207003583
  0
LINE
  5
12B
  8
0
 10
4126.9999999999891
 20
172.14189591182671
 30
0.0015258207003583
 11
4126.99999999999
 21
318.14189591182412
 31
0.0015258207003583
  0
LINE
  5
12C
  8
0
 10
4126.9999999999891
 20
22.141895911826101
 30
0.0015258207003583
 11
4126.9999999999891
 21
168.1418959118277
 31
0.0015258207003583
  0
LINE
  5
12D
  8
0
 10
4126.9999999999891
 20
0.1418959115148838
 30
0.0015258207003583
 11
4126.9999999999891
 21
18.14189591182701
 31
0.0015258207003583
  0
LINE
  5
12E
  8
0
 10
4122.9999999999891
 20
18.141895911827099
 30
0.0015258207003583
 11
4122.9999999999891
 21
0.1418959115148911
 31
0.0015258207003583
  0
LINE
  5
12F
  8
0
 10
4122.9999999999891
 20
168.14189591182779
 30
0.0015258207003583
 11
4122.9999999999891
 21
22.141895911826111
 31
0.0015258207003583
  0
LINE
  5
130
  8
0
 10
4122.9999999999891
 20
318.14189591182412
 30
0.0015258207003583
 11
4122.9999999999891
 21
172.14189591182679
 31
0.0015258207003583
  0
LINE
  5
131
  8
0
 10
4122.9999999999891
 20
468.14189591182497
 30
0.0015258207003583
 11
4122.9999999999891
 21
322.14189591182748
 31
0.0015258207003583
  0
LINE
  5
132
  8
0
 10
4122.9999999999891
 20
618.14189591182549
 30
0.0015258207003583
 11
4122.9999999999891
 21
472.14189591182839
 31
0.0015258207003583
  0
LINE
  5
133
  8
0
 10
4122.9999999999909
 20
768.14189591182651
 30
0.0015258207003583
 11
4122.9999999999891
 21
622.14189591182458
 31
0.0015258207003583
  0
LINE
  5
134
  8
0
 10
4122.9999999999909
 20
918.14189591182708
 30
0.0015258207003583
 11
4122.9999999999909
 21
772.14189591182537
 31
0.0015258207003583
  0
LINE
  5
135
  8
0
 10
4122.9999999999909
 20
1068.141895911828
 30
0.0015258207003583
 11
4122.9999999999909
 21
922.14189591182628
 31
0.0015258207003583
  0
LINE
  5
136
  8
0
 10
4122.9999999999918
 20
1218.141895911828
 30
0.0015258207003583
 11
4122.9999999999909
 21
1072.1418959118271
 31
0.0015258207003583
  0
LINE
  5
137
  8
0
 10
4122.9999999999918
 20
1368.141895911825
 30
0.0015258207003583
 11
4122.9999999999918
 21
1222.1418959118271
 31
0.0015258207003583
  0
LINE
  5
138
  8
0
 10
4122.9999999999918
 20
1518.1418959118259
 30
0.0015258207003583
 11
4122.9999999999918
 21
1372.141895911828
 31
0.0015258207003583
  0
LINE
  5
139
  8
0
 10
4122.9999999999918
 20
1668.1418959118259
 30
0.0015258207003583
 11
4122.9999999999918
 21
1522.1418959118289
 31
0.0015258207003583
  0
LINE
  5
13A
  8
0
 10
4122.9999999999927
 20
1818.1418959118271
 30
0.0015258207003583
 11
4122.9999999999918
 21
1672.141895911825
 31
0.0015258207003583
  0
LINE
  5
13B
  8
0
 10
4122.9999999999927
 20
1968.1418959118271
 30
0.0015258207003583
 11
4122.9999999999927
 21
1822.1418959118259
 31
0.0015258207003583
  0
LINE
  5
13C
  8
0
 10
4122.9999999999927
 20
1990.1418959115149
 30
0.0015258207003583
 11
4122.9999999999927
 21
1972.1418959118259
 31
0.0015258207003583
  0
LINE
  5
13D
  8
0
 10
3976.9999999999932
 20
1972.1418959118259
 30
0.0015258207003583
 11
3976.9999999999932
 21
1990.1418959115269
 31
0.0015258207003583
  0
LINE
  5
13E
  8
0
 10
3976.9999999999932
 20
1822.141895911825
 30
0.0015258207003583
 11
3976.9999999999932
 21
1968.1418959118271
 31
0.0015258207003583
  0
LINE
  5
13F
  8
0
 10
3976.9999999999932
 20
1672.1418959118239
 30
0.0015258207003583
 11
3976.9999999999932
 21
1818.1418959118259
 31
0.0015258207003583
  0
LINE
  5
140
  8
0
 10
3976.9999999999932
 20
1522.141895911828
 30
0.0015258207003583
 11
3976.9999999999932
 21
1668.141895911825
 31
0.0015258207003583
  0
LINE
  5
141
  8
0
 10
3976.9999999999918
 20
1372.141895911828
 30
0.0015258207003583
 11
3976.9999999999932
 21
1518.141895911825
 31
0.0015258207003583
  0
LINE
  5
142
  8
0
 10
3976.9999999999918
 20
1222.1418959118271
 30
0.0015258207003583
 11
3976.9999999999918
 21
1368.1418959118239
 31
0.0015258207003583
  0
LINE
  5
143
  8
0
 10
3976.9999999999918
 20
1072.1418959118259
 30
0.0015258207003583
 11
3976.9999999999918
 21
1218.141895911828
 31
0.0015258207003583
  0
LINE
  5
144
  8
0
 10
3976.9999999999909
 20
922.14189591182605
 30
0.0015258207003583
 11
3976.9999999999918
 21
1068.1418959118271
 31
0.0015258207003583
  0
LINE
  5
145
  8
0
 10
3976.9999999999909
 20
772.14189591182503
 30
0.0015258207003583
 11
3976.9999999999909
 21
918.14189591182685
 31
0.0015258207003583
  0
LINE
  5
146
  8
0
 10
3976.9999999999909
 20
622.14189591182446
 30
0.0015258207003583
 11
3976.9999999999909
 21
768.14189591182594
 31
0.0015258207003583
  0
LINE
  5
147
  8
0
 10
3976.9999999999909
 20
472.1418959118281
 30
0.0015258207003583
 11
3976.9999999999909
 21
618.14189591182537
 31
0.0015258207003583
  0
LINE
  5
148
  8
0
 10
3976.9999999999909
 20
322.14189591182748
 30
0.0015258207003583
 11
3976.9999999999909
 21
468.14189591182469
 31
0.0015258207003583
  0
LINE
  5
149
  8
0
 10
3976.9999999999909
 20
172.14189591182671
 30
0.0015258207003583
 11
3976.9999999999909
 21
318.14189591182412
 31
0.0015258207003583
  0
LINE
  5
14A
  8
0
 10
3976.9999999999909
 20
22.141895911826111
 30
0.0015258207003583
 11
3976.9999999999909
 21
168.1418959118277
 31
0.0015258207003583
  0
LINE
  5
14B
  8
0
 10
3976.99999999999
 20
0.1418959115278874
 30
0.0015258207003583
 11
3976.9999999999909
 21
18.14189591182701
 31
0.0015258207003583
  0
LINE
  5
14C
  8
0
 10
3972.99999999999
 20
18.141895911827081
 30
0.0015258207003583
 11
3972.99999999999
 21
0.1418959115278947
 31
0.0015258207003583
  0
LINE
  5
14D
  8
0
 10
3972.99999999999
 20
168.1418959118277
 30
0.0015258207003583
 11
3972.99999999999
 21
22.141895911826079
 31
0.0015258207003583
  0
LINE
  5
14E
  8
0
 10
3972.99999999999
 20
318.14189591182418
 30
0.0015258207003583
 11
3972.99999999999
 21
172.14189591182671
 31
0.0015258207003583
  0
LINE
  5
14F
  8
0
 10
3972.99999999999
 20
468.14189591182492
 30
0.0015258207003583
 11
3972.99999999999
 21
322.1418959118277
 31
0.0015258207003583
  0
LINE
  5
150
  8
0
 10
3972.9999999999909
 20
618.14189591182537
 30
0.0015258207003583
 11
3972.99999999999
 21
472.14189591182839
 31
0.0015258207003583
  0
LINE
  5
151
  8
0
 10
3972.9999999999909
 20
768.14189591182617
 30
0.0015258207003583
 11
3972.9999999999909
 21
622.14189591182446
 31
0.0015258207003583
  0
LINE
  5
152
  8
0
 10
3972.9999999999909
 20
918.14189591182685
 30
0.0015258207003583
 11
3972.9999999999909
 21
772.14189591182537
 31
0.0015258207003583
  0
LINE
  5
153
  8
0
 10
3972.9999999999918
 20
1068.1418959118271
 30
0.0015258207003583
 11
3972.9999999999909
 21
922.14189591182583
 31
0.0015258207003583
  0
LINE
  5
154
  8
0
 10
3972.9999999999918
 20
1218.141895911828
 30
0.0015258207003583
 11
3972.9999999999918
 21
1072.1418959118259
 31
0.0015258207003583
  0
LINE
  5
155
  8
0
 10
3972.9999999999932
 20
1368.141895911825
 30
0.0015258207003583
 11
3972.9999999999918
 21
1222.1418959118271
 31
0.0015258207003583
  0
LINE
  5
156
  8
0
 10
3972.9999999999932
 20
1518.141895911825
 30
0.0015258207003583
 11
3972.9999999999932
 21
1372.141895911828
 31
0.0015258207003583
  0
LINE
  5
157
  8
0
 10
3972.9999999999932
 20
1668.1418959118259
 30
0.0015258207003583
 11
3972.9999999999932
 21
1522.141895911828
 31
0.0015258207003583
  0
LINE
  5
158
  8
0
 10
3972.9999999999941
 20
1818.1418959118271
 30
0.0015258207003583
 11
3972.9999999999932
 21
1672.141895911825
 31
0.0015258207003583
  0
LINE
  5
159
  8
0
 10
3972.9999999999941
 20
1968.1418959118271
 30
0.0015258207003583
 11
3972.9999999999941
 21
1822.1418959118259
 31
0.0015258207003583
  0
LINE
  5
15A
  8
0
 10
3972.9999999999941
 20
1990.1418959115269
 30
0.0015258207003583
 11
3972.9999999999941
 21
1972.1418959118259
 31
0.0015258207003583
  0
LINE
  5
15B
  8
0
 10
3826.9999999999941
 20
1972.1418959118239
 30
0.0015258207003583
 11
3826.9999999999941
 21
1990.1418959115381
 31
0.0015258207003583
  0
LINE
  5
15C
  8
0
 10
3826.9999999999941
 20
1822.141895911823
 30
0.0015258207003583
 11
3826.9999999999941
 21
1968.141895911825
 31
0.0015258207003583
  0
LINE
  5
15D
  8
0
 10
3826.9999999999932
 20
1672.1418959118221
 30
0.0015258207003583
 11
3826.9999999999941
 21
1818.1418959118239
 31
0.0015258207003583
  0
LINE
  5
15E
  8
0
 10
3826.9999999999932
 20
1522.1418959118259
 30
0.0015258207003583
 11
3826.9999999999932
 21
1668.141895911823
 31
0.0015258207003583
  0
LINE
  5
15F
  8
0
 10
3826.9999999999932
 20
1372.141895911825
 30
0.0015258207003583
 11
3826.9999999999932
 21
1518.141895911823
 31
0.0015258207003583
  0
LINE
  5
160
  8
0
 10
3826.9999999999932
 20
1222.141895911825
 30
0.0015258207003583
 11
3826.9999999999932
 21
1368.1418959118221
 31
0.0015258207003583
  0
LINE
  5
161
  8
0
 10
3826.9999999999932
 20
1072.1418959118239
 30
0.0015258207003583
 11
3826.9999999999932
 21
1218.141895911825
 31
0.0015258207003583
  0
LINE
  5
162
  8
0
 10
3826.9999999999918
 20
922.14189591182355
 30
0.0015258207003583
 11
3826.9999999999932
 21
1068.141895911825
 31
0.0015258207003583
  0
LINE
  5
163
  8
0
 10
3826.9999999999918
 20
772.14189591182298
 30
0.0015258207003583
 11
3826.9999999999918
 21
918.14189591182446
 31
0.0015258207003583
  0
LINE
  5
164
  8
0
 10
3826.9999999999918
 20
622.14189591182219
 30
0.0015258207003583
 11
3826.9999999999918
 21
768.14189591182378
 31
0.0015258207003583
  0
LINE
  5
165
  8
0
 10
3826.9999999999909
 20
472.141895911826
 30
0.0015258207003583
 11
3826.9999999999918
 21
618.14189591182321
 31
0.0015258207003583
  0
LINE
  5
166
  8
0
 10
3826.9999999999909
 20
322.14189591182532
 30
0.0015258207003583
 11
3826.9999999999909
 21
468.14189591182247
 31
0.0015258207003583
  0
LINE
  5
167
  8
0
 10
3826.9999999999909
 20
172.14189591182461
 30
0.0015258207003583
 11
3826.9999999999909
 21
318.1418959118219
 31
0.0015258207003583
  0
LINE
  5
168
  8
0
 10
3826.9999999999909
 20
22.141895911823951
 30
0.0015258207003583
 11
3826.9999999999909
 21
168.14189591182549
 31
0.0015258207003583
  0
LINE
  5
169
  8
0
 10
3826.9999999999909
 20
0.1418959115387252
 30
0.0015258207003583
 11
3826.9999999999909
 21
18.14189591182485
 31
0.0015258207003583
  0
LINE
  5
16A
  8
0
 10
3822.99999999999
 20
18.141895911824861
 30
0.0015258207003583
 11
3822.99999999999
 21
0.1418959115387326
 31
0.0015258207003583
  0
LINE
  5
16B
  8
0
 10
3822.9999999999909
 20
168.1418959118254
 30
0.0015258207003583
 11
3822.99999999999
 21
22.141895911823859
 31
0.0015258207003583
  0
LINE
  5
16C
  8
0
 10
3822.9999999999909
 20
318.1418959118219
 30
0.0015258207003583
 11
3822.9999999999909
 21
172.14189591182469
 31
0.0015258207003583
  0
LINE
  5
16D
  8
0
 10
3822.9999999999909
 20
468.14189591182242
 30
0.0015258207003583
 11
3822.9999999999909
 21
322.14189591182532
 31
0.0015258207003583
  0
LINE
  5
16E
  8
0
 10
3822.9999999999909
 20
618.14189591182264
 30
0.0015258207003583
 11
3822.9999999999909
 21
472.14189591182583
 31
0.0015258207003583
  0
LINE
  5
16F
  8
0
 10
3822.9999999999918
 20
768.14189591182333
 30
0.0015258207003583
 11
3822.9999999999909
 21
622.14189591182208
 31
0.0015258207003583
  0
LINE
  5
170
  8
0
 10
3822.9999999999918
 20
918.14189591182412
 30
0.0015258207003583
 11
3822.9999999999918
 21
772.14189591182253
 31
0.0015258207003583
  0
LINE
  5
171
  8
0
 10
3822.9999999999932
 20
1068.1418959118239
 30
0.0015258207003583
 11
3822.9999999999918
 21
922.1418959118231
 31
0.0015258207003583
  0
LINE
  5
172
  8
0
 10
3822.9999999999932
 20
1218.141895911825
 30
0.0015258207003583
 11
3822.9999999999932
 21
1072.1418959118239
 31
0.0015258207003583
  0
LINE
  5
173
  8
0
 10
3822.9999999999932
 20
1368.1418959118209
 30
0.0015258207003583
 11
3822.9999999999932
 21
1222.1418959118239
 31
0.0015258207003583
  0
LINE
  5
174
  8
0
 10
3822.9999999999932
 20
1518.1418959118221
 30
0.0015258207003583
 11
3822.9999999999932
 21
1372.141895911825
 31
0.0015258207003583
  0
LINE
  5
175
  8
0
 10
3822.9999999999932
 20
1668.141895911823
 30
0.0015258207003583
 11
3822.9999999999932
 21
1522.1418959118259
 31
0.0015258207003583
  0
LINE
  5
176
  8
0
 10
3822.9999999999941
 20
1818.1418959118239
 30
0.0015258207003583
 11
3822.9999999999932
 21
1672.1418959118221
 31
0.0015258207003583
  0
LINE
  5
177
  8
0
 10
3822.9999999999941
 20
1968.141895911825
 30
0.0015258207003583
 11
3822.9999999999941
 21
1822.141895911823
 31
0.0015258207003583
  0
LINE
  5
178
  8
0
 10
3822.9999999999941
 20
1990.1418959115381
 30
0.0015258207003583
 11
3822.9999999999941
 21
1972.1418959118239
 31
0.0015258207003583
  0
LINE
  5
179
  8
0
 10
3676.999999999995
 20
1972.1418959118259
 30
0.0015258207003583
 11
3676.999999999995
 21
1990.141895911549
 31
0.0015258207003583
  0
LINE
  5
17A
  8
0
 10
3676.9999999999941
 20
1822.1418959118259
 30
0.0015258207003583
 11
3676.999999999995
 21
1968.1418959118271
 31
0.0015258207003583
  0
LINE
  5
17B
  8
0
 10
3676.9999999999941
 20
1672.1418959118239
 30
0.0015258207003583
 11
3676.9999999999941
 21
1818.1418959118271
 31
0.0015258207003583
  0
LINE
  5
17C
  8
0
 10
3676.9999999999941
 20
1522.141895911828
 30
0.0015258207003583
 11
3676.9999999999941
 21
1668.1418959118259
 31
0.0015258207003583
  0
LINE
  5
17D
  8
0
 10
3676.9999999999941
 20
1372.141895911828
 30
0.0015258207003583
 11
3676.9999999999941
 21
1518.141895911825
 31
0.0015258207003583
  0
LINE
  5
17E
  8
0
 10
3676.9999999999932
 20
1222.1418959118271
 30
0.0015258207003583
 11
3676.9999999999941
 21
1368.1418959118239
 31
0.0015258207003583
  0
LINE
  5
17F
  8
0
 10
3676.9999999999918
 20
1072.1418959118259
 30
0.0015258207003583
 11
3676.9999999999932
 21
1218.141895911828
 31
0.0015258207003583
  0
LINE
  5
180
  8
0
 10
3676.9999999999918
 20
922.14189591182605
 30
0.0015258207003583
 11
3676.9999999999918
 21
1068.1418959118271
 31
0.0015258207003583
  0
LINE
  5
181
  8
0
 10
3676.9999999999918
 20
772.14189591182515
 30
0.0015258207003583
 11
3676.9999999999918
 21
918.14189591182685
 31
0.0015258207003583
  0
LINE
  5
182
  8
0
 10
3676.9999999999918
 20
622.14189591182458
 30
0.0015258207003583
 11
3676.9999999999918
 21
768.14189591182605
 31
0.0015258207003583
  0
LINE
  5
183
  8
0
 10
3676.9999999999918
 20
472.1418959118281
 30
0.0015258207003583
 11
3676.9999999999918
 21
618.14189591182537
 31
0.0015258207003583
  0
LINE
  5
184
  8
0
 10
3676.9999999999918
 20
322.14189591182748
 30
0.0015258207003583
 11
3676.9999999999918
 21
468.14189591182469
 31
0.0015258207003583
  0
LINE
  5
185
  8
0
 10
3676.9999999999909
 20
172.14189591182679
 30
0.0015258207003583
 11
3676.9999999999918
 21
318.14189591182412
 31
0.0015258207003583
  0
LINE
  5
186
  8
0
 10
3676.9999999999909
 20
22.141895911826129
 30
0.0015258207003583
 11
3676.9999999999909
 21
168.1418959118277
 31
0.0015258207003583
  0
LINE
  5
187
  8
0
 10
3676.9999999999909
 20
0.1418959115495631
 30
0.0015258207003583
 11
3676.9999999999909
 21
18.141895911827032
 31
0.0015258207003583
  0
LINE
  5
188
  8
0
 10
3672.9999999999909
 20
18.141895911827088
 30
0.0015258207003583
 11
3672.9999999999909
 21
0.1418959115495704
 31
0.0015258207003583
  0
LINE
  5
189
  8
0
 10
3672.9999999999909
 20
168.1418959118277
 30
0.0015258207003583
 11
3672.9999999999909
 21
22.14189591182609
 31
0.0015258207003583
  0
LINE
  5
18A
  8
0
 10
3672.9999999999909
 20
318.14189591182412
 30
0.0015258207003583
 11
3672.9999999999909
 21
172.14189591182671
 31
0.0015258207003583
  0
LINE
  5
18B
  8
0
 10
3672.9999999999918
 20
468.14189591182458
 30
0.0015258207003583
 11
3672.9999999999909
 21
322.14189591182748
 31
0.0015258207003583
  0
LINE
  5
18C
  8
0
 10
3672.9999999999918
 20
618.14189591182537
 30
0.0015258207003583
 11
3672.9999999999918
 21
472.14189591182799
 31
0.0015258207003583
  0
LINE
  5
18D
  8
0
 10
3672.9999999999932
 20
768.14189591182605
 30
0.0015258207003583
 11
3672.9999999999918
 21
622.14189591182446
 31
0.0015258207003583
  0
LINE
  5
18E
  8
0
 10
3672.9999999999932
 20
918.1418959118264
 30
0.0015258207003583
 11
3672.9999999999932
 21
772.14189591182515
 31
0.0015258207003583
  0
LINE
  5
18F
  8
0
 10
3672.9999999999932
 20
1068.1418959118271
 30
0.0015258207003583
 11
3672.9999999999932
 21
922.1418959118256
 31
0.0015258207003583
  0
LINE
  5
190
  8
0
 10
3672.9999999999932
 20
1218.1418959118271
 30
0.0015258207003583
 11
3672.9999999999932
 21
1072.1418959118259
 31
0.0015258207003583
  0
LINE
  5
191
  8
0
 10
3672.9999999999941
 20
1368.1418959118239
 30
0.0015258207003583
 11
3672.9999999999932
 21
1222.1418959118271
 31
0.0015258207003583
  0
LINE
  5
192
  8
0
 10
3672.9999999999941
 20
1518.1418959118239
 30
0.0015258207003583
 11
3672.9999999999941
 21
1372.1418959118271
 31
0.0015258207003583
  0
LINE
  5
193
  8
0
 10
3672.9999999999941
 20
1668.1418959118259
 30
0.0015258207003583
 11
3672.9999999999941
 21
1522.141895911828
 31
0.0015258207003583
  0
LINE
  5
194
  8
0
 10
3672.999999999995
 20
1818.1418959118259
 30
0.0015258207003583
 11
3672.9999999999941
 21
1672.141895911825
 31
0.0015258207003583
  0
LINE
  5
195
  8
0
 10
3672.999999999995
 20
1968.1418959118271
 30
0.0015258207003583
 11
3672.999999999995
 21
1822.141895911825
 31
0.0015258207003583
  0
LINE
  5
196
  8
0
 10
3672.999999999995
 20
1990.141895911549
 30
0.0015258207003583
 11
3672.999999999995
 21
1972.1418959118259
 31
0.0015258207003583
  0
LINE
  5
197
  8
0
 10
3526.9999999999959
 20
1972.1418959118259
 30
0.0015258207003583
 11
3526.9999999999959
 21
1990.141895911562
 31
0.0015258207003583
  0
LINE
  5
198
  8
0
 10
3526.999999999995
 20
1822.141895911825
 30
0.0015258207003583
 11
3526.9999999999959
 21
1968.1418959118271
 31
0.0015258207003583
  0
LINE
  5
199
  8
0
 10
3526.9999999999941
 20
1672.1418959118239
 30
0.0015258207003583
 11
3526.999999999995
 21
1818.1418959118259
 31
0.0015258207003583
  0
LINE
  5
19A
  8
0
 10
3526.9999999999941
 20
1522.141895911828
 30
0.0015258207003583
 11
3526.999999999995
 21
1668.141895911825
 31
0.0015258207003583
  0
LINE
  5
19B
  8
0
 10
3526.9999999999941
 20
1372.141895911828
 30
0.0015258207003583
 11
3526.9999999999941
 21
1518.141895911825
 31
0.0015258207003583
  0
LINE
  5
19C
  8
0
 10
3526.9999999999941
 20
1222.1418959118271
 30
0.0015258207003583
 11
3526.9999999999941
 21
1368.141895911825
 31
0.0015258207003583
  0
LINE
  5
19D
  8
0
 10
3526.9999999999932
 20
1072.1418959118259
 30
0.0015258207003583
 11
3526.9999999999941
 21
1218.141895911828
 31
0.0015258207003583
  0
LINE
  5
19E
  8
0
 10
3526.9999999999932
 20
922.14189591182605
 30
0.0015258207003583
 11
3526.9999999999932
 21
1068.1418959118271
 31
0.0015258207003583
  0
LINE
  5
19F
  8
0
 10
3526.9999999999932
 20
772.14189591182526
 30
0.0015258207003583
 11
3526.9999999999932
 21
918.14189591182685
 31
0.0015258207003583
  0
LINE
  5
1A0
  8
0
 10
3526.9999999999932
 20
622.14189591182446
 30
0.0015258207003583
 11
3526.9999999999932
 21
768.14189591182605
 31
0.0015258207003583
  0
LINE
  5
1A1
  8
0
 10
3526.9999999999918
 20
472.1418959118281
 30
0.0015258207003583
 11
3526.9999999999932
 21
618.14189591182537
 31
0.0015258207003583
  0
LINE
  5
1A2
  8
0
 10
3526.9999999999918
 20
322.14189591182748
 30
0.0015258207003583
 11
3526.9999999999918
 21
468.14189591182469
 31
0.0015258207003583
  0
LINE
  5
1A3
  8
0
 10
3526.9999999999918
 20
172.14189591182679
 30
0.0015258207003583
 11
3526.9999999999918
 21
318.14189591182412
 31
0.0015258207003583
  0
LINE
  5
1A4
  8
0
 10
3526.9999999999909
 20
22.141895911826129
 30
0.0015258207003583
 11
3526.9999999999918
 21
168.1418959118277
 31
0.0015258207003583
  0
LINE
  5
1A5
  8
0
 10
3526.9999999999909
 20
0.1418959115625667
 30
0.0015258207003583
 11
3526.9999999999909
 21
18.141895911827032
 31
0.0015258207003583
  0
LINE
  5
1A6
  8
0
 10
3522.9999999999909
 20
18.141895911827088
 30
0.0015258207003583
 11
3522.9999999999909
 21
0.141895911562574
 31
0.0015258207003583
  0
LINE
  5
1A7
  8
0
 10
3522.9999999999918
 20
168.14189591182779
 30
0.0015258207003583
 11
3522.9999999999909
 21
22.14189591182609
 31
0.0015258207003583
  0
LINE
  5
1A8
  8
0
 10
3522.9999999999918
 20
318.14189591182441
 30
0.0015258207003583
 11
3522.9999999999918
 21
172.14189591182711
 31
0.0015258207003583
  0
LINE
  5
1A9
  8
0
 10
3522.9999999999918
 20
468.14189591182509
 30
0.0015258207003583
 11
3522.9999999999918
 21
322.14189591182782
 31
0.0015258207003583
  0
LINE
  5
1AA
  8
0
 10
3522.9999999999932
 20
618.14189591182571
 30
0.0015258207003583
 11
3522.9999999999918
 21
472.14189591182839
 31
0.0015258207003583
  0
LINE
  5
1AB
  8
0
 10
3522.9999999999932
 20
768.14189591182617
 30
0.0015258207003583
 11
3522.9999999999932
 21
622.14189591182503
 31
0.0015258207003583
  0
LINE
  5
1AC
  8
0
 10
3522.9999999999932
 20
918.14189591182731
 30
0.0015258207003583
 11
3522.9999999999932
 21
772.14189591182537
 31
0.0015258207003583
  0
LINE
  5
1AD
  8
0
 10
3522.9999999999932
 20
1068.141895911828
 30
0.0015258207003583
 11
3522.9999999999932
 21
922.14189591182617
 31
0.0015258207003583
  0
LINE
  5
1AE
  8
0
 10
3522.9999999999932
 20
1218.141895911828
 30
0.0015258207003583
 11
3522.9999999999932
 21
1072.1418959118259
 31
0.0015258207003583
  0
LINE
  5
1AF
  8
0
 10
3522.9999999999932
 20
1368.141895911825
 30
0.0015258207003583
 11
3522.9999999999932
 21
1222.1418959118271
 31
0.0015258207003583
  0
LINE
  5
1B0
  8
0
 10
3522.9999999999941
 20
1518.141895911825
 30
0.0015258207003583
 11
3522.9999999999941
 21
1372.141895911828
 31
0.0015258207003583
  0
LINE
  5
1B1
  8
0
 10
3522.9999999999941
 20
1668.1418959118259
 30
0.0015258207003583
 11
3522.9999999999941
 21
1522.1418959118289
 31
0.0015258207003583
  0
LINE
  5
1B2
  8
0
 10
3522.999999999995
 20
1818.1418959118271
 30
0.0015258207003583
 11
3522.9999999999941
 21
1672.141895911825
 31
0.0015258207003583
  0
LINE
  5
1B3
  8
0
 10
3522.9999999999959
 20
1968.1418959118271
 30
0.0015258207003583
 11
3522.999999999995
 21
1822.1418959118259
 31
0.0015258207003583
  0
LINE
  5
1B4
  8
0
 10
3522.9999999999959
 20
1990.141895911562
 30
0.0015258207003583
 11
3522.9999999999959
 21
1972.1418959118259
 31
0.0015258207003583
  0
LINE
  5
1B5
  8
0
 10
3376.999999999995
 20
1972.141895911818
 30
0.0015258207003583
 11
3376.999999999995
 21
1990.141895911572
 31
0.0015258207003583
  0
LINE
  5
1B6
  8
0
 10
3376.999999999995
 20
1822.141895911818
 30
0.0015258207003583
 11
3376.999999999995
 21
1968.14189591182
 31
0.0015258207003583
  0
LINE
  5
1B7
  8
0
 10
3376.999999999995
 20
1672.141895911818
 30
0.0015258207003583
 11
3376.999999999995
 21
1818.1418959118189
 31
0.0015258207003583
  0
LINE
  5
1B8
  8
0
 10
3376.999999999995
 20
1522.1418959118221
 30
0.0015258207003583
 11
3376.999999999995
 21
1668.1418959118189
 31
0.0015258207003583
  0
LINE
  5
1B9
  8
0
 10
3376.999999999995
 20
1372.1418959118209
 30
0.0015258207003583
 11
3376.999999999995
 21
1518.141895911818
 31
0.0015258207003583
  0
LINE
  5
1BA
  8
0
 10
3376.9999999999941
 20
1222.1418959118209
 30
0.0015258207003583
 11
3376.999999999995
 21
1368.141895911818
 31
0.0015258207003583
  0
LINE
  5
1BB
  8
0
 10
3376.9999999999941
 20
1072.1418959118209
 30
0.0015258207003583
 11
3376.9999999999941
 21
1218.1418959118221
 31
0.0015258207003583
  0
LINE
  5
1BC
  8
0
 10
3376.9999999999941
 20
922.14189591182048
 30
0.0015258207003583
 11
3376.9999999999941
 21
1068.1418959118209
 31
0.0015258207003583
  0
LINE
  5
1BD
  8
0
 10
3376.9999999999941
 20
772.14189591182026
 30
0.0015258207003583
 11
3376.9999999999941
 21
918.14189591182139
 31
0.0015258207003583
  0
LINE
  5
1BE
  8
0
 10
3376.9999999999932
 20
622.1418959118198
 30
0.0015258207003583
 11
3376.9999999999941
 21
768.14189591182117
 31
0.0015258207003583
  0
LINE
  5
1BF
  8
0
 10
3376.9999999999932
 20
472.14189591182378
 30
0.0015258207003583
 11
3376.9999999999932
 21
618.14189591182094
 31
0.0015258207003583
  0
LINE
  5
1C0
  8
0
 10
3376.9999999999932
 20
322.14189591182338
 30
0.0015258207003583
 11
3376.9999999999932
 21
468.14189591182043
 31
0.0015258207003583
  0
LINE
  5
1C1
  8
0
 10
3376.9999999999918
 20
172.1418959118231
 30
0.0015258207003583
 11
3376.9999999999932
 21
318.14189591182009
 31
0.0015258207003583
  0
LINE
  5
1C2
  8
0
 10
3376.9999999999918
 20
22.14189591182285
 30
0.0015258207003583
 11
3376.9999999999918
 21
168.14189591182401
 31
0.0015258207003583
  0
LINE
  5
1C3
  8
0
 10
3376.9999999999918
 20
0.1418959115723216
 30
0.0015258207003583
 11
3376.9999999999918
 21
18.141895911823759
 31
0.0015258207003583
  0
LINE
  5
1C4
  8
0
 10
3372.9999999999918
 20
18.141895911823791
 30
0.0015258207003583
 11
3372.9999999999918
 21
0.141895911572329
 31
0.0015258207003583
  0
LINE
  5
1C5
  8
0
 10
3372.9999999999918
 20
168.14189591182429
 30
0.0015258207003583
 11
3372.9999999999918
 21
22.1418959118228
 31
0.0015258207003583
  0
LINE
  5
1C6
  8
0
 10
3372.9999999999932
 20
318.1418959118202
 30
0.0015258207003583
 11
3372.9999999999918
 21
172.1418959118233
 31
0.0015258207003583
  0
LINE
  5
1C7
  8
0
 10
3372.9999999999932
 20
468.14189591182082
 30
0.0015258207003583
 11
3372.9999999999932
 21
322.14189591182372
 31
0.0015258207003583
  0
LINE
  5
1C8
  8
0
 10
3372.9999999999932
 20
618.14189591182105
 30
0.0015258207003583
 11
3372.9999999999932
 21
472.14189591182418
 31
0.0015258207003583
  0
LINE
  5
1C9
  8
0
 10
3372.9999999999932
 20
768.14189591182173
 30
0.0015258207003583
 11
3372.9999999999932
 21
622.14189591182026
 31
0.0015258207003583
  0
LINE
  5
1CA
  8
0
 10
3372.9999999999941
 20
918.14189591182196
 30
0.0015258207003583
 11
3372.9999999999932
 21
772.14189591182082
 31
0.0015258207003583
  0
LINE
  5
1CB
  8
0
 10
3372.9999999999941
 20
1068.1418959118221
 30
0.0015258207003583
 11
3372.9999999999941
 21
922.14189591182105
 31
0.0015258207003583
  0
LINE
  5
1CC
  8
0
 10
3372.9999999999941
 20
1218.141895911823
 30
0.0015258207003583
 11
3372.9999999999941
 21
1072.1418959118209
 31
0.0015258207003583
  0
LINE
  5
1CD
  8
0
 10
3372.999999999995
 20
1368.1418959118189
 30
0.0015258207003583
 11
3372.9999999999941
 21
1222.1418959118221
 31
0.0015258207003583
  0
LINE
  5
1CE
  8
0
 10
3372.999999999995
 20
1518.1418959118189
 30
0.0015258207003583
 11
3372.999999999995
 21
1372.1418959118221
 31
0.0015258207003583
  0
LINE
  5
1CF
  8
0
 10
3372.999999999995
 20
1668.1418959118189
 30
0.0015258207003583
 11
3372.999999999995
 21
1522.1418959118221
 31
0.0015258207003583
  0
LINE
  5
1D0
  8
0
 10
3372.9999999999959
 20
1818.14189591182
 30
0.0015258207003583
 11
3372.999999999995
 21
1672.141895911818
 31
0.0015258207003583
  0
LINE
  5
1D1
  8
0
 10
3372.9999999999959
 20
1968.14189591182
 30
0.0015258207003583
 11
3372.9999999999959
 21
1822.141895911818
 31
0.0015258207003583
  0
LINE
  5
1D2
  8
0
 10
3372.9999999999959
 20
1990.141895911572
 30
0.0015258207003583
 11
3372.9999999999959
 21
1972.1418959118189
 31
0.0015258207003583
  0
LINE
  5
1D3
  8
0
 10
3226.9999999999968
 20
1972.1418959118209
 30
0.0015258207003583
 11
3226.9999999999968
 21
1990.141895911584
 31
0.0015258207003583
  0
LINE
  5
1D4
  8
0
 10
3226.999999999995
 20
1822.1418959118209
 30
0.0015258207003583
 11
3226.9999999999968
 21
1968.141895911823
 31
0.0015258207003583
  0
LINE
  5
1D5
  8
0
 10
3226.999999999995
 20
1672.1418959118209
 30
0.0015258207003583
 11
3226.999999999995
 21
1818.1418959118221
 31
0.0015258207003583
  0
LINE
  5
1D6
  8
0
 10
3226.999999999995
 20
1522.1418959118239
 30
0.0015258207003583
 11
3226.999999999995
 21
1668.1418959118209
 31
0.0015258207003583
  0
LINE
  5
1D7
  8
0
 10
3226.999999999995
 20
1372.141895911823
 30
0.0015258207003583
 11
3226.999999999995
 21
1518.1418959118209
 31
0.0015258207003583
  0
LINE
  5
1D8
  8
0
 10
3226.999999999995
 20
1222.141895911823
 30
0.0015258207003583
 11
3226.999999999995
 21
1368.14189591182
 31
0.0015258207003583
  0
LINE
  5
1D9
  8
0
 10
3226.9999999999941
 20
1072.1418959118221
 30
0.0015258207003583
 11
3226.999999999995
 21
1218.141895911823
 31
0.0015258207003583
  0
LINE
  5
1DA
  8
0
 10
3226.9999999999941
 20
922.14189591182151
 30
0.0015258207003583
 11
3226.9999999999941
 21
1068.141895911823
 31
0.0015258207003583
  0
LINE
  5
1DB
  8
0
 10
3226.9999999999941
 20
772.1418959118206
 30
0.0015258207003583
 11
3226.9999999999941
 21
918.1418959118223
 31
0.0015258207003583
  0
LINE
  5
1DC
  8
0
 10
3226.9999999999932
 20
622.14189591182014
 30
0.0015258207003583
 11
3226.9999999999941
 21
768.14189591182173
 31
0.0015258207003583
  0
LINE
  5
1DD
  8
0
 10
3226.9999999999932
 20
472.14189591182378
 30
0.0015258207003583
 11
3226.9999999999932
 21
618.14189591182105
 31
0.0015258207003583
  0
LINE
  5
1DE
  8
0
 10
3226.9999999999932
 20
322.14189591182321
 30
0.0015258207003583
 11
3226.9999999999932
 21
468.14189591182031
 31
0.0015258207003583
  0
LINE
  5
1DF
  8
0
 10
3226.9999999999932
 20
172.1418959118225
 30
0.0015258207003583
 11
3226.9999999999932
 21
318.1418959118198
 31
0.0015258207003583
  0
LINE
  5
1E0
  8
0
 10
3226.9999999999932
 20
22.14189591182182
 30
0.0015258207003583
 11
3226.9999999999932
 21
168.14189591182341
 31
0.0015258207003583
  0
LINE
  5
1E1
  8
0
 10
3226.9999999999932
 20
0.1418959115842424
 30
0.0015258207003583
 11
3226.9999999999932
 21
18.141895911822729
 31
0.0015258207003583
  0
LINE
  5
1E2
  8
0
 10
3222.9999999999932
 20
18.141895911822669
 30
0.0015258207003583
 11
3222.9999999999932
 21
0.1418959115842497
 31
0.0015258207003583
  0
LINE
  5
1E3
  8
0
 10
3222.9999999999932
 20
168.14189591182361
 30
0.0015258207003583
 11
3222.9999999999932
 21
22.141895911821901
 31
0.0015258207003583
  0
LINE
  5
1E4
  8
0
 10
3222.9999999999932
 20
318.14189591181992
 30
0.0015258207003583
 11
3222.9999999999932
 21
172.14189591182259
 31
0.0015258207003583
  0
LINE
  5
1E5
  8
0
 10
3222.9999999999941
 20
468.1418959118206
 30
0.0015258207003583
 11
3222.9999999999932
 21
322.14189591182333
 31
0.0015258207003583
  0
LINE
  5
1E6
  8
0
 10
3222.9999999999932
 20
618.14189591182139
 30
0.0015258207003583
 11
3222.9999999999932
 21
472.14189591182389
 31
0.0015258207003583
  0
LINE
  5
1E7
  8
0
 10
3222.9999999999932
 20
768.14189591182219
 30
0.0015258207003583
 11
3222.9999999999932
 21
622.14189591182048
 31
0.0015258207003583
  0
LINE
  5
1E8
  8
0
 10
3222.9999999999941
 20
918.14189591182264
 30
0.0015258207003583
 11
3222.9999999999932
 21
772.14189591182105
 31
0.0015258207003583
  0
LINE
  5
1E9
  8
0
 10
3222.9999999999941
 20
1068.141895911823
 30
0.0015258207003583
 11
3222.9999999999941
 21
922.14189591182185
 31
0.0015258207003583
  0
LINE
  5
1EA
  8
0
 10
3222.9999999999941
 20
1218.1418959118239
 30
0.0015258207003583
 11
3222.9999999999941
 21
1072.1418959118221
 31
0.0015258207003583
  0
LINE
  5
1EB
  8
0
 10
3222.999999999995
 20
1368.14189591182
 30
0.0015258207003583
 11
3222.9999999999941
 21
1222.141895911823
 31
0.0015258207003583
  0
LINE
  5
1EC
  8
0
 10
3222.999999999995
 20
1518.1418959118209
 30
0.0015258207003583
 11
3222.999999999995
 21
1372.1418959118239
 31
0.0015258207003583
  0
LINE
  5
1ED
  8
0
 10
3222.999999999995
 20
1668.1418959118209
 30
0.0015258207003583
 11
3222.999999999995
 21
1522.1418959118239
 31
0.0015258207003583
  0
LINE
  5
1EE
  8
0
 10
3222.999999999995
 20
1818.1418959118221
 30
0.0015258207003583
 11
3222.999999999995
 21
1672.14189591182
 31
0.0015258207003583
  0
LINE
  5
1EF
  8
0
 10
3222.9999999999959
 20
1968.141895911823
 30
0.0015258207003583
 11
3222.999999999995
 21
1822.1418959118209
 31
0.0015258207003583
  0
LINE
  5
1F0
  8
0
 10
3222.9999999999959
 20
1990.141895911584
 30
0.0015258207003583
 11
3222.9999999999959
 21
1972.1418959118209
 31
0.0015258207003583
  0
LINE
  5
1F1
  8
0
 10
3076.9999999999959
 20
1972.1418959118209
 30
0.0015258207003583
 11
3076.9999999999959
 21
1990.1418959115961
 31
0.0015258207003583
  0
LINE
  5
1F2
  8
0
 10
3076.9999999999959
 20
1822.14189591182
 30
0.0015258207003583
 11
3076.9999999999959
 21
1968.1418959118209
 31
0.0015258207003583
  0
LINE
  5
1F3
  8
0
 10
3076.9999999999959
 20
1672.1418959118189
 30
0.0015258207003583
 11
3076.9999999999959
 21
1818.1418959118209
 31
0.0015258207003583
  0
LINE
  5
1F4
  8
0
 10
3076.9999999999959
 20
1522.141895911823
 30
0.0015258207003583
 11
3076.9999999999959
 21
1668.14189591182
 31
0.0015258207003583
  0
LINE
  5
1F5
  8
0
 10
3076.9999999999959
 20
1372.1418959118221
 30
0.0015258207003583
 11
3076.9999999999959
 21
1518.1418959118189
 31
0.0015258207003583
  0
LINE
  5
1F6
  8
0
 10
3076.999999999995
 20
1222.1418959118221
 30
0.0015258207003583
 11
3076.9999999999959
 21
1368.1418959118189
 31
0.0015258207003583
  0
LINE
  5
1F7
  8
0
 10
3076.999999999995
 20
1072.1418959118209
 30
0.0015258207003583
 11
3076.999999999995
 21
1218.141895911823
 31
0.0015258207003583
  0
LINE
  5
1F8
  8
0
 10
3076.999999999995
 20
922.14189591182048
 30
0.0015258207003583
 11
3076.999999999995
 21
1068.1418959118221
 31
0.0015258207003583
  0
LINE
  5
1F9
  8
0
 10
3076.999999999995
 20
772.14189591182003
 30
0.0015258207003583
 11
3076.999999999995
 21
918.14189591182139
 31
0.0015258207003583
  0
LINE
  5
1FA
  8
0
 10
3076.999999999995
 20
622.14189591181901
 30
0.0015258207003583
 11
3076.999999999995
 21
768.14189591182094
 31
0.0015258207003583
  0
LINE
  5
1FB
  8
0
 10
3076.999999999995
 20
472.14189591182281
 30
0.0015258207003583
 11
3076.999999999995
 21
618.14189591182003
 31
0.0015258207003583
  0
LINE
  5
1FC
  8
0
 10
3076.9999999999941
 20
322.14189591182208
 30
0.0015258207003583
 11
3076.999999999995
 21
468.1418959118194
 31
0.0015258207003583
  0
LINE
  5
1FD
  8
0
 10
3076.9999999999932
 20
172.14189591182139
 30
0.0015258207003583
 11
3076.9999999999941
 21
318.14189591181872
 31
0.0015258207003583
  0
LINE
  5
1FE
  8
0
 10
3076.9999999999932
 20
22.14189591182075
 30
0.0015258207003583
 11
3076.9999999999932
 21
168.1418959118223
 31
0.0015258207003583
  0
LINE
  5
1FF
  8
0
 10
3076.9999999999932
 20
0.1418959115961631
 30
0.0015258207003583
 11
3076.9999999999932
 21
18.141895911821649
 31
0.0015258207003583
  0
LINE
  5
200
  8
0
 10
3072.9999999999932
 20
18.14189591182156
 30
0.0015258207003583
 11
3072.9999999999932
 21
0.1418959115961705
 31
0.0015258207003583
  0
LINE
  5
201
  8
0
 10
3072.9999999999932
 20
168.14189591182239
 30
0.0015258207003583
 11
3072.9999999999932
 21
22.141895911820779
 31
0.0015258207003583
  0
LINE
  5
202
  8
0
 10
3072.9999999999932
 20
318.14189591181872
 30
0.0015258207003583
 11
3072.9999999999932
 21
172.14189591182139
 31
0.0015258207003583
  0
LINE
  5
203
  8
0
 10
3072.9999999999941
 20
468.14189591181957
 30
0.0015258207003583
 11
3072.9999999999932
 21
322.14189591182208
 31
0.0015258207003583
  0
LINE
  5
204
  8
0
 10
3072.9999999999941
 20
618.14189591182026
 30
0.0015258207003583
 11
3072.9999999999941
 21
472.14189591182298
 31
0.0015258207003583
  0
LINE
  5
205
  8
0
 10
3072.9999999999941
 20
768.1418959118206
 30
0.0015258207003583
 11
3072.9999999999941
 21
622.14189591181901
 31
0.0015258207003583
  0
LINE
  5
206
  8
0
 10
3072.999999999995
 20
918.14189591182139
 30
0.0015258207003583
 11
3072.9999999999941
 21
772.1418959118198
 31
0.0015258207003583
  0
LINE
  5
207
  8
0
 10
3072.999999999995
 20
1068.1418959118221
 30
0.0015258207003583
 11
3072.999999999995
 21
922.1418959118206
 31
0.0015258207003583
  0
LINE
  5
208
  8
0
 10
3072.999999999995
 20
1218.141895911823
 30
0.0015258207003583
 11
3072.999999999995
 21
1072.1418959118209
 31
0.0015258207003583
  0
LINE
  5
209
  8
0
 10
3072.999999999995
 20
1368.1418959118189
 30
0.0015258207003583
 11
3072.999999999995
 21
1222.1418959118221
 31
0.0015258207003583
  0
LINE
  5
20A
  8
0
 10
3072.999999999995
 20
1518.14189591182
 30
0.0015258207003583
 11
3072.999999999995
 21
1372.1418959118221
 31
0.0015258207003583
  0
LINE
  5
20B
  8
0
 10
3072.999999999995
 20
1668.14189591182
 30
0.0015258207003583
 11
3072.999999999995
 21
1522.141895911823
 31
0.0015258207003583
  0
LINE
  5
20C
  8
0
 10
3072.9999999999959
 20
1818.1418959118209
 30
0.0015258207003583
 11
3072.999999999995
 21
1672.1418959118189
 31
0.0015258207003583
  0
LINE
  5
20D
  8
0
 10
3072.9999999999968
 20
1968.1418959118209
 30
0.0015258207003583
 11
3072.9999999999959
 21
1822.14189591182
 31
0.0015258207003583
  0
LINE
  5
20E
  8
0
 10
3072.9999999999968
 20
1990.1418959115961
 30
0.0015258207003583
 11
3072.9999999999968
 21
1972.1418959118209
 31
0.0015258207003583
  0
LINE
  5
20F
  8
0
 10
2926.9999999999982
 20
1972.141895911818
 30
0.0015258207003583
 11
2926.9999999999982
 21
1990.1418959116061
 31
0.0015258207003583
  0
LINE
  5
210
  8
0
 10
2926.9999999999959
 20
1822.141895911818
 30
0.0015258207003583
 11
2926.9999999999982
 21
1968.14189591182
 31
0.0015258207003583
  0
LINE
  5
211
  8
0
 10
2926.9999999999959
 20
1672.141895911818
 30
0.0015258207003583
 11
2926.9999999999959
 21
1818.1418959118189
 31
0.0015258207003583
  0
LINE
  5
212
  8
0
 10
2926.9999999999959
 20
1522.1418959118209
 30
0.0015258207003583
 11
2926.9999999999959
 21
1668.1418959118189
 31
0.0015258207003583
  0
LINE
  5
213
  8
0
 10
2926.9999999999959
 20
1372.1418959118209
 30
0.0015258207003583
 11
2926.9999999999959
 21
1518.141895911818
 31
0.0015258207003583
  0
LINE
  5
214
  8
0
 10
2926.999999999995
 20
1222.1418959118209
 30
0.0015258207003583
 11
2926.9999999999959
 21
1368.141895911818
 31
0.0015258207003583
  0
LINE
  5
215
  8
0
 10
2926.999999999995
 20
1072.1418959118209
 30
0.0015258207003583
 11
2926.999999999995
 21
1218.1418959118221
 31
0.0015258207003583
  0
LINE
  5
216
  8
0
 10
2926.999999999995
 20
922.14189591182048
 30
0.0015258207003583
 11
2926.999999999995
 21
1068.1418959118221
 31
0.0015258207003583
  0
LINE
  5
217
  8
0
 10
2926.999999999995
 20
772.14189591182026
 30
0.0015258207003583
 11
2926.999999999995
 21
918.14189591182162
 31
0.0015258207003583
  0
LINE
  5
218
  8
0
 10
2926.9999999999941
 20
622.14189591182003
 30
0.0015258207003583
 11
2926.999999999995
 21
768.14189591182117
 31
0.0015258207003583
  0
LINE
  5
219
  8
0
 10
2926.9999999999941
 20
472.14189591182378
 30
0.0015258207003583
 11
2926.9999999999941
 21
618.14189591182094
 31
0.0015258207003583
  0
LINE
  5
21A
  8
0
 10
2926.9999999999941
 20
322.1418959118235
 30
0.0015258207003583
 11
2926.9999999999941
 21
468.14189591182048
 31
0.0015258207003583
  0
LINE
  5
21B
  8
0
 10
2926.9999999999941
 20
172.14189591182321
 30
0.0015258207003583
 11
2926.9999999999941
 21
318.1418959118202
 31
0.0015258207003583
  0
LINE
  5
21C
  8
0
 10
2926.9999999999941
 20
22.141895911822878
 30
0.0015258207003583
 11
2926.9999999999941
 21
168.14189591182409
 31
0.0015258207003583
  0
LINE
  5
21D
  8
0
 10
2926.9999999999941
 20
0.141895911607001
 30
0.0015258207003583
 11
2926.9999999999941
 21
18.141895911823791
 31
0.0015258207003583
  0
LINE
  5
21E
  8
0
 10
2922.9999999999932
 20
18.141895911823791
 30
0.0015258207003583
 11
2922.9999999999941
 21
0.1418959116070083
 31
0.0015258207003583
  0
LINE
  5
21F
  8
0
 10
2922.9999999999941
 20
168.14189591182421
 30
0.0015258207003583
 11
2922.9999999999941
 21
22.14189591182279
 31
0.0015258207003583
  0
LINE
  5
220
  8
0
 10
2922.9999999999941
 20
318.1418959118202
 30
0.0015258207003583
 11
2922.9999999999941
 21
172.14189591182321
 31
0.0015258207003583
  0
LINE
  5
221
  8
0
 10
2922.9999999999941
 20
468.1418959118206
 30
0.0015258207003583
 11
2922.9999999999941
 21
322.14189591182361
 31
0.0015258207003583
  0
LINE
  5
222
  8
0
 10
2922.9999999999941
 20
618.1418959118206
 30
0.0015258207003583
 11
2922.9999999999941
 21
472.14189591182389
 31
0.0015258207003583
  0
LINE
  5
223
  8
0
 10
2922.9999999999941
 20
768.14189591182117
 30
0.0015258207003583
 11
2922.9999999999941
 21
622.14189591182003
 31
0.0015258207003583
  0
LINE
  5
224
  8
0
 10
2922.999999999995
 20
918.14189591182162
 30
0.0015258207003583
 11
2922.9999999999941
 21
772.14189591182037
 31
0.0015258207003583
  0
LINE
  5
225
  8
0
 10
2922.999999999995
 20
1068.1418959118221
 30
0.0015258207003583
 11
2922.999999999995
 21
922.1418959118206
 31
0.0015258207003583
  0
LINE
  5
226
  8
0
 10
2922.9999999999959
 20
1218.1418959118221
 30
0.0015258207003583
 11
2922.999999999995
 21
1072.1418959118209
 31
0.0015258207003583
  0
LINE
  5
227
  8
0
 10
2922.9999999999959
 20
1368.141895911818
 30
0.0015258207003583
 11
2922.9999999999959
 21
1222.1418959118209
 31
0.0015258207003583
  0
LINE
  5
228
  8
0
 10
2922.9999999999959
 20
1518.141895911818
 30
0.0015258207003583
 11
2922.9999999999959
 21
1372.1418959118209
 31
0.0015258207003583
  0
LINE
  5
229
  8
0
 10
2922.9999999999959
 20
1668.1418959118189
 30
0.0015258207003583
 11
2922.9999999999959
 21
1522.1418959118221
 31
0.0015258207003583
  0
LINE
  5
22A
  8
0
 10
2922.9999999999959
 20
1818.1418959118189
 30
0.0015258207003583
 11
2922.9999999999959
 21
1672.141895911818
 31
0.0015258207003583
  0
LINE
  5
22B
  8
0
 10
2922.9999999999968
 20
1968.14189591182
 30
0.0015258207003583
 11
2922.9999999999959
 21
1822.141895911818
 31
0.0015258207003583
  0
LINE
  5
22C
  8
0
 10
2922.9999999999968
 20
1990.1418959116061
 30
0.0015258207003583
 11
2922.9999999999968
 21
1972.141895911818
 31
0.0015258207003583
  0
LINE
  5
22D
  8
0
 10
2776.9999999999982
 20
1972.1418959118221
 30
0.0015258207003583
 11
2776.9999999999982
 21
1990.141895911619
 31
0.0015258207003583
  0
LINE
  5
22E
  8
0
 10
2776.9999999999968
 20
1822.1418959118221
 30
0.0015258207003583
 11
2776.9999999999982
 21
1968.141895911823
 31
0.0015258207003583
  0
LINE
  5
22F
  8
0
 10
2776.9999999999968
 20
1672.1418959118209
 30
0.0015258207003583
 11
2776.9999999999968
 21
1818.1418959118221
 31
0.0015258207003583
  0
LINE
  5
230
  8
0
 10
2776.9999999999968
 20
1522.1418959118239
 30
0.0015258207003583
 11
2776.9999999999968
 21
1668.1418959118221
 31
0.0015258207003583
  0
LINE
  5
231
  8
0
 10
2776.9999999999968
 20
1372.1418959118239
 30
0.0015258207003583
 11
2776.9999999999968
 21
1518.1418959118209
 31
0.0015258207003583
  0
LINE
  5
232
  8
0
 10
2776.9999999999968
 20
1222.141895911823
 30
0.0015258207003583
 11
2776.9999999999968
 21
1368.14189591182
 31
0.0015258207003583
  0
LINE
  5
233
  8
0
 10
2776.9999999999959
 20
1072.1418959118221
 30
0.0015258207003583
 11
2776.9999999999968
 21
1218.1418959118239
 31
0.0015258207003583
  0
LINE
  5
234
  8
0
 10
2776.9999999999959
 20
922.14189591182151
 30
0.0015258207003583
 11
2776.9999999999959
 21
1068.141895911823
 31
0.0015258207003583
  0
LINE
  5
235
  8
0
 10
2776.999999999995
 20
772.14189591182094
 30
0.0015258207003583
 11
2776.9999999999959
 21
918.1418959118223
 31
0.0015258207003583
  0
LINE
  5
236
  8
0
 10
2776.999999999995
 20
622.14189591182026
 30
0.0015258207003583
 11
2776.999999999995
 21
768.14189591182185
 31
0.0015258207003583
  0
LINE
  5
237
  8
0
 10
2776.999999999995
 20
472.14189591182378
 30
0.0015258207003583
 11
2776.999999999995
 21
618.14189591182105
 31
0.0015258207003583
  0
LINE
  5
238
  8
0
 10
2776.999999999995
 20
322.14189591182321
 30
0.0015258207003583
 11
2776.999999999995
 21
468.14189591182048
 31
0.0015258207003583
  0
LINE
  5
239
  8
0
 10
2776.9999999999941
 20
172.1418959118225
 30
0.0015258207003583
 11
2776.999999999995
 21
318.1418959118198
 31
0.0015258207003583
  0
LINE
  5
23A
  8
0
 10
2776.9999999999941
 20
22.141895911821852
 30
0.0015258207003583
 11
2776.9999999999941
 21
168.14189591182341
 31
0.0015258207003583
  0
LINE
  5
23B
  8
0
 10
2776.9999999999941
 20
0.1418959116189217
 30
0.0015258207003583
 11
2776.9999999999941
 21
18.141895911822751
 31
0.0015258207003583
  0
LINE
  5
23C
  8
0
 10
2772.9999999999941
 20
18.141895911822651
 30
0.0015258207003583
 11
2772.9999999999941
 21
0.141895911618929
 31
0.0015258207003583
  0
LINE
  5
23D
  8
0
 10
2772.9999999999941
 20
168.14189591182341
 30
0.0015258207003583
 11
2772.9999999999941
 21
22.141895911821869
 31
0.0015258207003583
  0
LINE
  5
23E
  8
0
 10
2772.999999999995
 20
318.14189591181957
 30
0.0015258207003583
 11
2772.9999999999941
 21
172.14189591182239
 31
0.0015258207003583
  0
LINE
  5
23F
  8
0
 10
2772.999999999995
 20
468.1418959118202
 30
0.0015258207003583
 11
2772.999999999995
 21
322.14189591182298
 31
0.0015258207003583
  0
LINE
  5
240
  8
0
 10
2772.999999999995
 20
618.14189591182094
 30
0.0015258207003583
 11
2772.999999999995
 21
472.14189591182378
 31
0.0015258207003583
  0
LINE
  5
241
  8
0
 10
2772.9999999999959
 20
768.14189591182139
 30
0.0015258207003583
 11
2772.999999999995
 21
622.1418959118198
 31
0.0015258207003583
  0
LINE
  5
242
  8
0
 10
2772.9999999999959
 20
918.14189591182196
 30
0.0015258207003583
 11
2772.9999999999959
 21
772.14189591182048
 31
0.0015258207003583
  0
LINE
  5
243
  8
0
 10
2772.9999999999959
 20
1068.141895911823
 30
0.0015258207003583
 11
2772.9999999999959
 21
922.14189591182139
 31
0.0015258207003583
  0
LINE
  5
244
  8
0
 10
2772.9999999999959
 20
1218.141895911823
 30
0.0015258207003583
 11
2772.9999999999959
 21
1072.1418959118221
 31
0.0015258207003583
  0
LINE
  5
245
  8
0
 10
2772.9999999999968
 20
1368.14189591182
 30
0.0015258207003583
 11
2772.9999999999959
 21
1222.141895911823
 31
0.0015258207003583
  0
LINE
  5
246
  8
0
 10
2772.9999999999968
 20
1518.14189591182
 30
0.0015258207003583
 11
2772.9999999999968
 21
1372.141895911823
 31
0.0015258207003583
  0
LINE
  5
247
  8
0
 10
2772.9999999999968
 20
1668.1418959118209
 30
0.0015258207003583
 11
2772.9999999999968
 21
1522.1418959118239
 31
0.0015258207003583
  0
LINE
  5
248
  8
0
 10
2772.9999999999968
 20
1818.1418959118221
 30
0.0015258207003583
 11
2772.9999999999968
 21
1672.14189591182
 31
0.0015258207003583
  0
LINE
  5
249
  8
0
 10
2772.9999999999968
 20
1968.141895911823
 30
0.0015258207003583
 11
2772.9999999999968
 21
1822.1418959118209
 31
0.0015258207003583
  0
LINE
  5
24A
  8
0
 10
2772.9999999999968
 20
1990.141895911619
 30
0.0015258207003583
 11
2772.9999999999968
 21
1972.1418959118209
 31
0.0015258207003583
  0
LINE
  5
24B
  8
0
 10
2626.9999999999982
 20
1972.1418959118209
 30
0.0015258207003583
 11
2626.9999999999982
 21
1990.1418959116299
 31
0.0015258207003583
  0
LINE
  5
24C
  8
0
 10
2626.9999999999982
 20
1822.14189591182
 30
0.0015258207003583
 11
2626.9999999999982
 21
1968.1418959118221
 31
0.0015258207003583
  0
LINE
  5
24D
  8
0
 10
2626.9999999999982
 20
1672.1418959118189
 30
0.0015258207003583
 11
2626.9999999999982
 21
1818.1418959118209
 31
0.0015258207003583
  0
LINE
  5
24E
  8
0
 10
2626.9999999999982
 20
1522.141895911823
 30
0.0015258207003583
 11
2626.9999999999982
 21
1668.14189591182
 31
0.0015258207003583
  0
LINE
  5
24F
  8
0
 10
2626.9999999999982
 20
1372.1418959118221
 30
0.0015258207003583
 11
2626.9999999999982
 21
1518.14189591182
 31
0.0015258207003583
  0
LINE
  5
250
  8
0
 10
2626.9999999999968
 20
1222.1418959118221
 30
0.0015258207003583
 11
2626.9999999999982
 21
1368.1418959118189
 31
0.0015258207003583
  0
LINE
  5
251
  8
0
 10
2626.9999999999968
 20
1072.1418959118209
 30
0.0015258207003583
 11
2626.9999999999968
 21
1218.141895911823
 31
0.0015258207003583
  0
LINE
  5
252
  8
0
 10
2626.9999999999968
 20
922.14189591182026
 30
0.0015258207003583
 11
2626.9999999999968
 21
1068.1418959118221
 31
0.0015258207003583
  0
LINE
  5
253
  8
0
 10
2626.9999999999968
 20
772.1418959118198
 30
0.0015258207003583
 11
2626.9999999999968
 21
918.14189591182139
 31
0.0015258207003583
  0
LINE
  5
254
  8
0
 10
2626.999999999995
 20
622.14189591181935
 30
0.0015258207003583
 11
2626.9999999999959
 21
768.1418959118206
 31
0.0015258207003583
  0
LINE
  5
255
  8
0
 10
2626.999999999995
 20
472.14189591182281
 30
0.0015258207003583
 11
2626.999999999995
 21
618.14189591182003
 31
0.0015258207003583
  0
LINE
  5
256
  8
0
 10
2626.999999999995
 20
322.14189591182208
 30
0.0015258207003583
 11
2626.999999999995
 21
468.1418959118194
 31
0.0015258207003583
  0
LINE
  5
257
  8
0
 10
2626.999999999995
 20
172.14189591182139
 30
0.0015258207003583
 11
2626.999999999995
 21
318.14189591181872
 31
0.0015258207003583
  0
LINE
  5
258
  8
0
 10
2626.999999999995
 20
22.141895911820779
 30
0.0015258207003583
 11
2626.999999999995
 21
168.1418959118223
 31
0.0015258207003583
  0
LINE
  5
259
  8
0
 10
2626.999999999995
 20
0.1418959116308424
 30
0.0015258207003583
 11
2626.999999999995
 21
18.141895911821681
 31
0.0015258207003583
  0
LINE
  5
25A
  8
0
 10
2622.999999999995
 20
18.141895911821791
 30
0.0015258207003583
 11
2622.999999999995
 21
0.1418959116308498
 31
0.0015258207003583
  0
LINE
  5
25B
  8
0
 10
2622.999999999995
 20
168.1418959118225
 30
0.0015258207003583
 11
2622.999999999995
 21
22.1418959118208
 31
0.0015258207003583
  0
LINE
  5
25C
  8
0
 10
2622.999999999995
 20
318.14189591181878
 30
0.0015258207003583
 11
2622.999999999995
 21
172.14189591182151
 31
0.0015258207003583
  0
LINE
  5
25D
  8
0
 10
2622.999999999995
 20
468.1418959118198
 30
0.0015258207003583
 11
2622.999999999995
 21
322.14189591182219
 31
0.0015258207003583
  0
LINE
  5
25E
  8
0
 10
2622.9999999999959
 20
618.14189591182048
 30
0.0015258207003583
 11
2622.9999999999959
 21
472.1418959118231
 31
0.0015258207003583
  0
LINE
  5
25F
  8
0
 10
2622.9999999999959
 20
768.14189591182105
 30
0.0015258207003583
 11
2622.9999999999959
 21
622.14189591181935
 31
0.0015258207003583
  0
LINE
  5
260
  8
0
 10
2622.9999999999959
 20
918.14189591182162
 30
0.0015258207003583
 11
2622.9999999999959
 21
772.14189591182014
 31
0.0015258207003583
  0
LINE
  5
261
  8
0
 10
2622.9999999999968
 20
1068.1418959118221
 30
0.0015258207003583
 11
2622.9999999999959
 21
922.14189591182082
 31
0.0015258207003583
  0
LINE
  5
262
  8
0
 10
2622.9999999999968
 20
1218.141895911823
 30
0.0015258207003583
 11
2622.9999999999968
 21
1072.1418959118209
 31
0.0015258207003583
  0
LINE
  5
263
  8
0
 10
2622.9999999999968
 20
1368.1418959118189
 30
0.0015258207003583
 11
2622.9999999999968
 21
1222.1418959118221
 31
0.0015258207003583
  0
LINE
  5
264
  8
0
 10
2622.9999999999968
 20
1518.14189591182
 30
0.0015258207003583
 11
2622.9999999999968
 21
1372.141895911823
 31
0.0015258207003583
  0
LINE
  5
265
  8
0
 10
2622.9999999999968
 20
1668.1418959118209
 30
0.0015258207003583
 11
2622.9999999999968
 21
1522.1418959118239
 31
0.0015258207003583
  0
LINE
  5
266
  8
0
 10
2622.9999999999982
 20
1818.1418959118221
 30
0.0015258207003583
 11
2622.9999999999968
 21
1672.14189591182
 31
0.0015258207003583
  0
LINE
  5
267
  8
0
 10
2622.9999999999982
 20
1968.1418959118221
 30
0.0015258207003583
 11
2622.9999999999982
 21
1822.1418959118209
 31
0.0015258207003583
  0
LINE
  5
268
  8
0
 10
2622.9999999999982
 20
1990.1418959116299
 30
0.0015258207003583
 11
2622.9999999999982
 21
1972.1418959118209
 31
0.0015258207003583
  0
LINE
  5
269
  8
0
 10
2476.9999999999982
 20
1972.14189591182
 30
0.0015258207003583
 11
2476.9999999999982
 21
1990.141895911642
 31
0.0015258207003583
  0
LINE
  5
26A
  8
0
 10
2476.9999999999982
 20
1822.1418959118189
 30
0.0015258207003583
 11
2476.9999999999982
 21
1968.1418959118209
 31
0.0015258207003583
  0
LINE
  5
26B
  8
0
 10
2476.9999999999982
 20
1672.141895911818
 30
0.0015258207003583
 11
2476.9999999999982
 21
1818.14189591182
 31
0.0015258207003583
  0
LINE
  5
26C
  8
0
 10
2476.9999999999982
 20
1522.1418959118221
 30
0.0015258207003583
 11
2476.9999999999982
 21
1668.1418959118189
 31
0.0015258207003583
  0
LINE
  5
26D
  8
0
 10
2476.9999999999982
 20
1372.1418959118221
 30
0.0015258207003583
 11
2476.9999999999982
 21
1518.1418959118189
 31
0.0015258207003583
  0
LINE
  5
26E
  8
0
 10
2476.9999999999982
 20
1222.1418959118209
 30
0.0015258207003583
 11
2476.9999999999982
 21
1368.141895911818
 31
0.0015258207003583
  0
LINE
  5
26F
  8
0
 10
2476.9999999999968
 20
1072.14189591182
 30
0.0015258207003583
 11
2476.9999999999982
 21
1218.1418959118209
 31
0.0015258207003583
  0
LINE
  5
270
  8
0
 10
2476.9999999999968
 20
922.14189591181935
 30
0.0015258207003583
 11
2476.9999999999968
 21
1068.1418959118209
 31
0.0015258207003583
  0
LINE
  5
271
  8
0
 10
2476.9999999999968
 20
772.14189591181878
 30
0.0015258207003583
 11
2476.9999999999968
 21
918.14189591182037
 31
0.0015258207003583
  0
LINE
  5
272
  8
0
 10
2476.9999999999968
 20
622.1418959118181
 30
0.0015258207003583
 11
2476.9999999999968
 21
768.14189591181969
 31
0.0015258207003583
  0
LINE
  5
273
  8
0
 10
2476.9999999999959
 20
472.14189591182162
 30
0.0015258207003583
 11
2476.9999999999968
 21
618.14189591181901
 31
0.0015258207003583
  0
LINE
  5
274
  8
0
 10
2476.999999999995
 20
322.141895911821
 30
0.0015258207003583
 11
2476.9999999999959
 21
468.14189591181821
 31
0.0015258207003583
  0
LINE
  5
275
  8
0
 10
2476.999999999995
 20
172.1418959118204
 30
0.0015258207003583
 11
2476.999999999995
 21
318.14189591181758
 31
0.0015258207003583
  0
LINE
  5
276
  8
0
 10
2476.999999999995
 20
22.141895911819699
 30
0.0015258207003583
 11
2476.999999999995
 21
168.14189591182131
 31
0.0015258207003583
  0
LINE
  5
277
  8
0
 10
2476.999999999995
 20
0.1418959116427631
 30
0.0015258207003583
 11
2476.999999999995
 21
18.141895911820608
 31
0.0015258207003583
  0
LINE
  5
278
  8
0
 10
2472.999999999995
 20
18.141895911820651
 30
0.0015258207003583
 11
2472.999999999995
 21
0.1418959116427705
 31
0.0015258207003583
  0
LINE
  5
279
  8
0
 10
2472.999999999995
 20
168.14189591182131
 30
0.0015258207003583
 11
2472.999999999995
 21
22.141895911819649
 31
0.0015258207003583
  0
LINE
  5
27A
  8
0
 10
2472.9999999999959
 20
318.14189591181758
 30
0.0015258207003583
 11
2472.999999999995
 21
172.14189591182031
 31
0.0015258207003583
  0
LINE
  5
27B
  8
0
 10
2472.9999999999959
 20
468.14189591181821
 30
0.0015258207003583
 11
2472.9999999999959
 21
322.141895911821
 31
0.0015258207003583
  0
LINE
  5
27C
  8
0
 10
2472.9999999999968
 20
618.14189591181855
 30
0.0015258207003583
 11
2472.9999999999959
 21
472.14189591182139
 31
0.0015258207003583
  0
LINE
  5
27D
  8
0
 10
2472.9999999999968
 20
768.14189591181935
 30
0.0015258207003583
 11
2472.9999999999959
 21
622.14189591181776
 31
0.0015258207003583
  0
LINE
  5
27E
  8
0
 10
2472.9999999999968
 20
918.14189591182026
 30
0.0015258207003583
 11
2472.9999999999968
 21
772.14189591181855
 31
0.0015258207003583
  0
LINE
  5
27F
  8
0
 10
2472.9999999999968
 20
1068.1418959118209
 30
0.0015258207003583
 11
2472.9999999999968
 21
922.14189591181935
 31
0.0015258207003583
  0
LINE
  5
280
  8
0
 10
2472.9999999999968
 20
1218.1418959118221
 30
0.0015258207003583
 11
2472.9999999999968
 21
1072.14189591182
 31
0.0015258207003583
  0
LINE
  5
281
  8
0
 10
2472.9999999999968
 20
1368.141895911818
 30
0.0015258207003583
 11
2472.9999999999968
 21
1222.1418959118209
 31
0.0015258207003583
  0
LINE
  5
282
  8
0
 10
2472.9999999999968
 20
1518.1418959118189
 30
0.0015258207003583
 11
2472.9999999999968
 21
1372.1418959118221
 31
0.0015258207003583
  0
LINE
  5
283
  8
0
 10
2472.9999999999982
 20
1668.14189591182
 30
0.0015258207003583
 11
2472.9999999999982
 21
1522.1418959118221
 31
0.0015258207003583
  0
LINE
  5
284
  8
0
 10
2472.9999999999982
 20
1818.14189591182
 30
0.0015258207003583
 11
2472.9999999999982
 21
1672.1418959118189
 31
0.0015258207003583
  0
LINE
  5
285
  8
0
 10
2472.9999999999991
 20
1968.1418959118209
 30
0.0015258207003583
 11
2472.9999999999982
 21
1822.1418959118189
 31
0.0015258207003583
  0
LINE
  5
286
  8
0
 10
2472.9999999999991
 20
1990.141895911642
 30
0.0015258207003583
 11
2472.9999999999991
 21
1972.14189591182
 31
0.0015258207003583
  0
LINE
  5
287
  8
0
 10
2326.9999999999991
 20
1972.1418959118221
 30
0.0015258207003583
 11
2326.9999999999991
 21
1990.1418959116529
 31
0.0015258207003583
  0
LINE
  5
288
  8
0
 10
2326.9999999999991
 20
1822.1418959118221
 30
0.0015258207003583
 11
2326.9999999999991
 21
1968.141895911823
 31
0.0015258207003583
  0
LINE
  5
289
  8
0
 10
2326.9999999999991
 20
1672.1418959118209
 30
0.0015258207003583
 11
2326.9999999999991
 21
1818.1418959118221
 31
0.0015258207003583
  0
LINE
  5
28A
  8
0
 10
2326.9999999999982
 20
1522.1418959118239
 30
0.0015258207003583
 11
2326.9999999999991
 21
1668.1418959118209
 31
0.0015258207003583
  0
LINE
  5
28B
  8
0
 10
2326.9999999999982
 20
1372.1418959118239
 30
0.0015258207003583
 11
2326.9999999999982
 21
1518.1418959118209
 31
0.0015258207003583
  0
LINE
  5
28C
  8
0
 10
2326.9999999999982
 20
1222.141895911823
 30
0.0015258207003583
 11
2326.9999999999982
 21
1368.14189591182
 31
0.0015258207003583
  0
LINE
  5
28D
  8
0
 10
2326.9999999999968
 20
1072.1418959118221
 30
0.0015258207003583
 11
2326.9999999999982
 21
1218.1418959118239
 31
0.0015258207003583
  0
LINE
  5
28E
  8
0
 10
2326.9999999999968
 20
922.14189591182151
 30
0.0015258207003583
 11
2326.9999999999968
 21
1068.141895911823
 31
0.0015258207003583
  0
LINE
  5
28F
  8
0
 10
2326.9999999999968
 20
772.14189591182082
 30
0.0015258207003583
 11
2326.9999999999968
 21
918.1418959118223
 31
0.0015258207003583
  0
LINE
  5
290
  8
0
 10
2326.9999999999959
 20
622.14189591182026
 30
0.0015258207003583
 11
2326.9999999999968
 21
768.14189591182173
 31
0.0015258207003583
  0
LINE
  5
291
  8
0
 10
2326.9999999999959
 20
472.14189591182378
 30
0.0015258207003583
 11
2326.9999999999959
 21
618.14189591182105
 31
0.0015258207003583
  0
LINE
  5
292
  8
0
 10
2326.9999999999959
 20
322.14189591182333
 30
0.0015258207003583
 11
2326.9999999999959
 21
468.14189591182048
 31
0.0015258207003583
  0
LINE
  5
293
  8
0
 10
2326.999999999995
 20
172.1418959118225
 30
0.0015258207003583
 11
2326.9999999999959
 21
318.1418959118198
 31
0.0015258207003583
  0
LINE
  5
294
  8
0
 10
2326.999999999995
 20
22.141895911821869
 30
0.0015258207003583
 11
2326.999999999995
 21
168.14189591182341
 31
0.0015258207003583
  0
LINE
  5
295
  8
0
 10
2326.999999999995
 20
0.141895911653601
 30
0.0015258207003583
 11
2326.999999999995
 21
18.141895911822779
 31
0.0015258207003583
  0
LINE
  5
296
  8
0
 10
2322.999999999995
 20
18.141895911822878
 30
0.0015258207003583
 11
2322.999999999995
 21
0.1418959116536083
 31
0.0015258207003583
  0
LINE
  5
297
  8
0
 10
2322.9999999999959
 20
168.1418959118235
 30
0.0015258207003583
 11
2322.999999999995
 21
22.14189591182188
 31
0.0015258207003583
  0
LINE
  5
298
  8
0
 10
2322.9999999999959
 20
318.1418959118198
 30
0.0015258207003583
 11
2322.9999999999959
 21
172.1418959118225
 31
0.0015258207003583
  0
LINE
  5
299
  8
0
 10
2322.9999999999959
 20
468.1418959118206
 30
0.0015258207003583
 11
2322.9999999999959
 21
322.14189591182333
 31
0.0015258207003583
  0
LINE
  5
29A
  8
0
 10
2322.9999999999968
 20
618.14189591182128
 30
0.0015258207003583
 11
2322.9999999999959
 21
472.14189591182412
 31
0.0015258207003583
  0
LINE
  5
29B
  8
0
 10
2322.9999999999968
 20
768.14189591182185
 30
0.0015258207003583
 11
2322.9999999999968
 21
622.14189591182026
 31
0.0015258207003583
  0
LINE
  5
29C
  8
0
 10
2322.9999999999982
 20
918.14189591182253
 30
0.0015258207003583
 11
2322.9999999999968
 21
772.14189591182094
 31
0.0015258207003583
  0
LINE
  5
29D
  8
0
 10
2322.9999999999982
 20
1068.141895911823
 30
0.0015258207003583
 11
2322.9999999999982
 21
922.14189591182173
 31
0.0015258207003583
  0
LINE
  5
29E
  8
0
 10
2322.9999999999982
 20
1218.1418959118239
 30
0.0015258207003583
 11
2322.9999999999982
 21
1072.141895911823
 31
0.0015258207003583
  0
LINE
  5
29F
  8
0
 10
2322.9999999999982
 20
1368.1418959118209
 30
0.0015258207003583
 11
2322.9999999999982
 21
1222.141895911823
 31
0.0015258207003583
  0
LINE
  5
2A0
  8
0
 10
2322.9999999999982
 20
1518.1418959118221
 30
0.0015258207003583
 11
2322.9999999999982
 21
1372.1418959118239
 31
0.0015258207003583
  0
LINE
  5
2A1
  8
0
 10
2322.9999999999982
 20
1668.1418959118221
 30
0.0015258207003583
 11
2322.9999999999982
 21
1522.141895911825
 31
0.0015258207003583
  0
LINE
  5
2A2
  8
0
 10
2322.9999999999982
 20
1818.1418959118221
 30
0.0015258207003583
 11
2322.9999999999982
 21
1672.1418959118209
 31
0.0015258207003583
  0
LINE
  5
2A3
  8
0
 10
2322.9999999999991
 20
1968.141895911823
 30
0.0015258207003583
 11
2322.9999999999991
 21
1822.1418959118209
 31
0.0015258207003583
  0
LINE
  5
2A4
  8
0
 10
2322.9999999999991
 20
1990.1418959116529
 30
0.0015258207003583
 11
2322.9999999999991
 21
1972.1418959118221
 31
0.0015258207003583
  0
LINE
  5
2A5
  8
0
 10
2176.9999999999991
 20
1972.1418959118209
 30
0.0015258207003583
 11
2176.9999999999991
 21
1990.141895911665
 31
0.0015258207003583
  0
LINE
  5
2A6
  8
0
 10
2176.9999999999991
 20
1822.1418959118209
 30
0.0015258207003583
 11
2176.9999999999991
 21
1968.1418959118209
 31
0.0015258207003583
  0
LINE
  5
2A7
  8
0
 10
2176.9999999999982
 20
1672.1418959118189
 30
0.0015258207003583
 11
2176.9999999999991
 21
1818.1418959118209
 31
0.0015258207003583
  0
LINE
  5
2A8
  8
0
 10
2176.9999999999982
 20
1522.1418959118239
 30
0.0015258207003583
 11
2176.9999999999982
 21
1668.1418959118209
 31
0.0015258207003583
  0
LINE
  5
2A9
  8
0
 10
2176.9999999999968
 20
1372.141895911823
 30
0.0015258207003583
 11
2176.9999999999982
 21
1518.14189591182
 31
0.0015258207003583
  0
LINE
  5
2AA
  8
0
 10
2176.9999999999968
 20
1222.1418959118221
 30
0.0015258207003583
 11
2176.9999999999968
 21
1368.1418959118189
 31
0.0015258207003583
  0
LINE
  5
2AB
  8
0
 10
2176.9999999999968
 20
1072.1418959118209
 30
0.0015258207003583
 11
2176.9999999999968
 21
1218.141895911823
 31
0.0015258207003583
  0
LINE
  5
2AC
  8
0
 10
2176.9999999999968
 20
922.14189591182048
 30
0.0015258207003583
 11
2176.9999999999968
 21
1068.1418959118221
 31
0.0015258207003583
  0
LINE
  5
2AD
  8
0
 10
2176.9999999999968
 20
772.1418959118198
 30
0.0015258207003583
 11
2176.9999999999968
 21
918.14189591182139
 31
0.0015258207003583
  0
LINE
  5
2AE
  8
0
 10
2176.9999999999959
 20
622.14189591181901
 30
0.0015258207003583
 11
2176.9999999999968
 21
768.1418959118206
 31
0.0015258207003583
  0
LINE
  5
2AF
  8
0
 10
2176.9999999999959
 20
472.14189591182293
 30
0.0015258207003583
 11
2176.9999999999959
 21
618.14189591182003
 31
0.0015258207003583
  0
LINE
  5
2B0
  8
0
 10
2176.9999999999968
 20
322.14189591182219
 30
0.0015258207003583
 11
2176.9999999999968
 21
468.1418959118194
 31
0.0015258207003583
  0
LINE
  5
2B1
  8
0
 10
2176.9999999999959
 20
172.14189591182139
 30
0.0015258207003583
 11
2176.9999999999968
 21
318.14189591181878
 31
0.0015258207003583
  0
LINE
  5
2B2
  8
0
 10
2176.9999999999959
 20
22.141895911820811
 30
0.0015258207003583
 11
2176.9999999999959
 21
168.1418959118223
 31
0.0015258207003583
  0
LINE
  5
2B3
  8
0
 10
2176.9999999999959
 20
0.1418959116655217
 30
0.0015258207003583
 11
2176.9999999999959
 21
18.14189591182171
 31
0.0015258207003583
  0
LINE
  5
2B4
  8
0
 10
2172.9999999999959
 20
18.141895911821759
 30
0.0015258207003583
 11
2172.9999999999959
 21
0.1418959116655291
 31
0.0015258207003583
  0
LINE
  5
2B5
  8
0
 10
2172.9999999999959
 20
168.1418959118223
 30
0.0015258207003583
 11
2172.9999999999959
 21
22.141895911820772
 31
0.0015258207003583
  0
LINE
  5
2B6
  8
0
 10
2172.9999999999968
 20
318.14189591181878
 30
0.0015258207003583
 11
2172.9999999999959
 21
172.14189591182139
 31
0.0015258207003583
  0
LINE
  5
2B7
  8
0
 10
2172.9999999999968
 20
468.1418959118194
 30
0.0015258207003583
 11
2172.9999999999968
 21
322.14189591182219
 31
0.0015258207003583
  0
LINE
  5
2B8
  8
0
 10
2172.9999999999968
 20
618.1418959118198
 30
0.0015258207003583
 11
2172.9999999999968
 21
472.14189591182281
 31
0.0015258207003583
  0
LINE
  5
2B9
  8
0
 10
2172.9999999999968
 20
768.14189591182048
 30
0.0015258207003583
 11
2172.9999999999968
 21
622.14189591181889
 31
0.0015258207003583
  0
LINE
  5
2BA
  8
0
 10
2172.9999999999982
 20
918.14189591182105
 30
0.0015258207003583
 11
2172.9999999999982
 21
772.14189591181969
 31
0.0015258207003583
  0
LINE
  5
2BB
  8
0
 10
2172.9999999999982
 20
1068.1418959118221
 30
0.0015258207003583
 11
2172.9999999999982
 21
922.14189591182026
 31
0.0015258207003583
  0
LINE
  5
2BC
  8
0
 10
2172.9999999999982
 20
1218.141895911823
 30
0.0015258207003583
 11
2172.9999999999982
 21
1072.1418959118209
 31
0.0015258207003583
  0
LINE
  5
2BD
  8
0
 10
2172.9999999999991
 20
1368.1418959118189
 30
0.0015258207003583
 11
2172.9999999999982
 21
1222.1418959118221
 31
0.0015258207003583
  0
LINE
  5
2BE
  8
0
 10
2172.9999999999991
 20
1518.14189591182
 30
0.0015258207003583
 11
2172.9999999999982
 21
1372.1418959118221
 31
0.0015258207003583
  0
LINE
  5
2BF
  8
0
 10
2172.9999999999991
 20
1668.1418959118209
 30
0.0015258207003583
 11
2172.9999999999991
 21
1522.1418959118239
 31
0.0015258207003583
  0
LINE
  5
2C0
  8
0
 10
2173.0
 20
1818.1418959118209
 30
0.0015258207003583
 11
2172.9999999999991
 21
1672.14189591182
 31
0.0015258207003583
  0
LINE
  5
2C1
  8
0
 10
2173.0
 20
1968.1418959118221
 30
0.0015258207003583
 11
2173.0
 21
1822.14189591182
 31
0.0015258207003583
  0
LINE
  5
2C2
  8
0
 10
2173.0
 20
1990.141895911665
 30
0.0015258207003583
 11
2173.0
 21
1972.1418959118209
 31
0.0015258207003583
  0
LINE
  5
2C3
  8
0
 10
2027.0
 20
1972.141895911825
 30
0.0015258207003583
 11
2027.0
 21
1990.1418959116779
 31
0.0015258207003583
  0
LINE
  5
2C4
  8
0
 10
2027.0
 20
1822.1418959118239
 30
0.0015258207003583
 11
2027.0
 21
1968.1418959118259
 31
0.0015258207003583
  0
LINE
  5
2C5
  8
0
 10
2027.0
 20
1672.1418959118239
 30
0.0015258207003583
 11
2027.0
 21
1818.1418959118259
 31
0.0015258207003583
  0
LINE
  5
2C6
  8
0
 10
2027.0
 20
1522.141895911828
 30
0.0015258207003583
 11
2027.0
 21
1668.141895911825
 31
0.0015258207003583
  0
LINE
  5
2C7
  8
0
 10
2027.0
 20
1372.1418959118271
 30
0.0015258207003583
 11
2027.0
 21
1518.1418959118239
 31
0.0015258207003583
  0
LINE
  5
2C8
  8
0
 10
2026.9999999999991
 20
1222.1418959118259
 30
0.0015258207003583
 11
2026.9999999999991
 21
1368.141895911823
 31
0.0015258207003583
  0
LINE
  5
2C9
  8
0
 10
2026.9999999999991
 20
1072.141895911825
 30
0.0015258207003583
 11
2026.9999999999991
 21
1218.1418959118271
 31
0.0015258207003583
  0
LINE
  5
2CA
  8
0
 10
2026.9999999999991
 20
922.14189591182469
 30
0.0015258207003583
 11
2026.9999999999991
 21
1068.1418959118259
 31
0.0015258207003583
  0
LINE
  5
2CB
  8
0
 10
2026.9999999999991
 20
772.14189591182389
 30
0.0015258207003583
 11
2026.9999999999991
 21
918.14189591182594
 31
0.0015258207003583
  0
LINE
  5
2CC
  8
0
 10
2026.9999999999991
 20
622.14189591182355
 30
0.0015258207003583
 11
2026.9999999999991
 21
768.14189591182492
 31
0.0015258207003583
  0
LINE
  5
2CD
  8
0
 10
2026.9999999999991
 20
472.14189591182708
 30
0.0015258207003583
 11
2026.9999999999991
 21
618.14189591182446
 31
0.0015258207003583
  0
LINE
  5
2CE
  8
0
 10
2026.999999999997
 20
322.14189591182651
 30
0.0015258207003583
 11
2026.999999999998
 21
468.14189591182378
 31
0.0015258207003583
  0
LINE
  5
2CF
  8
0
 10
2026.999999999997
 20
172.1418959118258
 30
0.0015258207003583
 11
2026.999999999997
 21
318.1418959118231
 31
0.0015258207003583
  0
LINE
  5
2D0
  8
0
 10
2026.999999999997
 20
22.141895911825141
 30
0.0015258207003583
 11
2026.999999999997
 21
168.14189591182671
 31
0.0015258207003583
  0
LINE
  5
2D1
  8
0
 10
2026.999999999997
 20
0.1418959116785253
 30
0.0015258207003583
 11
2026.999999999997
 21
18.141895911826051
 31
0.0015258207003583
  0
LINE
  5
2D2
  8
0
 10
2022.999999999997
 20
18.141895911826129
 30
0.0015258207003583
 11
2022.999999999997
 21
0.1418959116785326
 31
0.0015258207003583
  0
LINE
  5
2D3
  8
0
 10
2022.999999999997
 20
168.14189591182671
 30
0.0015258207003583
 11
2022.999999999997
 21
22.141895911825131
 31
0.0015258207003583
  0
LINE
  5
2D4
  8
0
 10
2022.999999999997
 20
318.14189591182293
 30
0.0015258207003583
 11
2022.999999999997
 21
172.14189591182571
 31
0.0015258207003583
  0
LINE
  5
2D5
  8
0
 10
2022.999999999997
 20
468.14189591182372
 30
0.0015258207003583
 11
2022.999999999997
 21
322.14189591182628
 31
0.0015258207003583
  0
LINE
  5
2D6
  8
0
 10
2022.999999999997
 20
618.14189591182412
 30
0.0015258207003583
 11
2022.999999999997
 21
472.14189591182702
 31
0.0015258207003583
  0
LINE
  5
2D7
  8
0
 10
2022.999999999997
 20
768.14189591182492
 30
0.0015258207003583
 11
2022.999999999997
 21
622.1418959118231
 31
0.0015258207003583
  0
LINE
  5
2D8
  8
0
 10
2022.999999999998
 20
918.14189591182549
 30
0.0015258207003583
 11
2022.999999999998
 21
772.14189591182378
 31
0.0015258207003583
  0
LINE
  5
2D9
  8
0
 10
2022.999999999998
 20
1068.1418959118259
 30
0.0015258207003583
 11
2022.999999999998
 21
922.14189591182469
 31
0.0015258207003583
  0
LINE
  5
2DA
  8
0
 10
2022.9999999999991
 20
1218.1418959118271
 30
0.0015258207003583
 11
2022.999999999998
 21
1072.141895911825
 31
0.0015258207003583
  0
LINE
  5
2DB
  8
0
 10
2023.0
 20
1368.141895911823
 30
0.0015258207003583
 11
2023.0
 21
1222.141895911825
 31
0.0015258207003583
  0
LINE
  5
2DC
  8
0
 10
2023.0000000000009
 20
1518.1418959118239
 30
0.0015258207003583
 11
2023.0
 21
1372.1418959118271
 31
0.0015258207003583
  0
LINE
  5
2DD
  8
0
 10
2023.0
 20
1668.141895911825
 30
0.0015258207003583
 11
2023.0
 21
1522.1418959118271
 31
0.0015258207003583
  0
LINE
  5
2DE
  8
0
 10
2023.0
 20
1818.1418959118259
 30
0.0015258207003583
 11
2023.0
 21
1672.1418959118239
 31
0.0015258207003583
  0
LINE
  5
2DF
  8
0
 10
2023.0
 20
1968.1418959118259
 30
0.0015258207003583
 11
2023.0
 21
1822.141895911825
 31
0.0015258207003583
  0
LINE
  5
2E0
  8
0
 10
2023.0
 20
1990.1418959116779
 30
0.0015258207003583
 11
2023.0
 21
1972.141895911825
 31
0.0015258207003583
  0
LINE
  5
2E1
  8
0
 10
1877.0
 20
1972.1418959118239
 30
0.0015258207003583
 11
1877.0
 21
1990.14189591169
 31
0.0015258207003583
  0
LINE
  5
2E2
  8
0
 10
1876.9999999999991
 20
1822.141895911823
 30
0.0015258207003583
 11
1877.0
 21
1968.141895911825
 31
0.0015258207003583
  0
LINE
  5
2E3
  8
0
 10
1876.999999999998
 20
1672.1418959118221
 30
0.0015258207003583
 11
1876.9999999999991
 21
1818.1418959118239
 31
0.0015258207003583
  0
LINE
  5
2E4
  8
0
 10
1876.9999999999991
 20
1522.1418959118259
 30
0.0015258207003583
 11
1876.9999999999991
 21
1668.141895911823
 31
0.0015258207003583
  0
LINE
  5
2E5
  8
0
 10
1876.9999999999991
 20
1372.141895911825
 30
0.0015258207003583
 11
1876.9999999999991
 21
1518.141895911823
 31
0.0015258207003583
  0
LINE
  5
2E6
  8
0
 10
1876.999999999998
 20
1222.141895911825
 30
0.0015258207003583
 11
1876.9999999999991
 21
1368.1418959118221
 31
0.0015258207003583
  0
LINE
  5
2E7
  8
0
 10
1876.9999999999991
 20
1072.1418959118239
 30
0.0015258207003583
 11
1876.9999999999991
 21
1218.1418959118259
 31
0.0015258207003583
  0
LINE
  5
2E8
  8
0
 10
1876.9999999999991
 20
922.14189591182367
 30
0.0015258207003583
 11
1876.9999999999991
 21
1068.141895911825
 31
0.0015258207003583
  0
LINE
  5
2E9
  8
0
 10
1876.999999999998
 20
772.14189591182298
 30
0.0015258207003583
 11
1876.9999999999991
 21
918.14189591182446
 31
0.0015258207003583
  0
LINE
  5
2EA
  8
0
 10
1876.999999999998
 20
622.14189591182219
 30
0.0015258207003583
 11
1876.999999999998
 21
768.14189591182378
 31
0.0015258207003583
  0
LINE
  5
2EB
  8
0
 10
1876.999999999997
 20
472.141895911826
 30
0.0015258207003583
 11
1876.999999999998
 21
618.14189591182321
 31
0.0015258207003583
  0
LINE
  5
2EC
  8
0
 10
1876.999999999997
 20
322.14189591182537
 30
0.0015258207003583
 11
1876.999999999997
 21
468.14189591182247
 31
0.0015258207003583
  0
LINE
  5
2ED
  8
0
 10
1876.999999999997
 20
172.14189591182469
 30
0.0015258207003583
 11
1876.999999999997
 21
318.14189591182202
 31
0.0015258207003583
  0
LINE
  5
2EE
  8
0
 10
1876.999999999997
 20
22.141895911824069
 30
0.0015258207003583
 11
1876.999999999997
 21
168.1418959118256
 31
0.0015258207003583
  0
LINE
  5
2EF
  8
0
 10
1876.999999999997
 20
0.141895911690446
 30
0.0015258207003583
 11
1876.999999999997
 21
18.141895911824971
 31
0.0015258207003583
  0
LINE
  5
2F0
  8
0
 10
1872.999999999997
 20
18.141895911825038
 30
0.0015258207003583
 11
1872.999999999997
 21
0.1418959116904534
 31
0.0015258207003583
  0
LINE
  5
2F1
  8
0
 10
1872.999999999997
 20
168.14189591182571
 30
0.0015258207003583
 11
1872.999999999997
 21
22.14189591182404
 31
0.0015258207003583
  0
LINE
  5
2F2
  8
0
 10
1872.999999999997
 20
318.14189591182208
 30
0.0015258207003583
 11
1872.999999999997
 21
172.14189591182461
 31
0.0015258207003583
  0
LINE
  5
2F3
  8
0
 10
1872.999999999998
 20
468.14189591182259
 30
0.0015258207003583
 11
1872.999999999997
 21
322.14189591182549
 31
0.0015258207003583
  0
LINE
  5
2F4
  8
0
 10
1872.999999999998
 20
618.14189591182321
 30
0.0015258207003583
 11
1872.999999999998
 21
472.141895911826
 31
0.0015258207003583
  0
LINE
  5
2F5
  8
0
 10
1872.999999999998
 20
768.14189591182378
 30
0.0015258207003583
 11
1872.999999999998
 21
622.14189591182219
 31
0.0015258207003583
  0
LINE
  5
2F6
  8
0
 10
1872.999999999998
 20
918.14189591182446
 30
0.0015258207003583
 11
1872.999999999998
 21
772.14189591182298
 31
0.0015258207003583
  0
LINE
  5
2F7
  8
0
 10
1872.9999999999991
 20
1068.141895911825
 30
0.0015258207003583
 11
1872.999999999998
 21
922.14189591182367
 31
0.0015258207003583
  0
LINE
  5
2F8
  8
0
 10
1873.0
 20
1218.1418959118259
 30
0.0015258207003583
 11
1872.9999999999991
 21
1072.1418959118239
 31
0.0015258207003583
  0
LINE
  5
2F9
  8
0
 10
1873.0
 20
1368.141895911823
 30
0.0015258207003583
 11
1873.0
 21
1222.141895911825
 31
0.0015258207003583
  0
LINE
  5
2FA
  8
0
 10
1873.0
 20
1518.141895911823
 30
0.0015258207003583
 11
1873.0
 21
1372.1418959118259
 31
0.0015258207003583
  0
LINE
  5
2FB
  8
0
 10
1873.0
 20
1668.1418959118239
 30
0.0015258207003583
 11
1873.0
 21
1522.1418959118271
 31
0.0015258207003583
  0
LINE
  5
2FC
  8
0
 10
1873.0
 20
1818.141895911825
 30
0.0015258207003583
 11
1873.0
 21
1672.141895911823
 31
0.0015258207003583
  0
LINE
  5
2FD
  8
0
 10
1873.0
 20
1968.141895911825
 30
0.0015258207003583
 11
1873.0
 21
1822.1418959118239
 31
0.0015258207003583
  0
LINE
  5
2FE
  8
0
 10
1873.0
 20
1990.14189591169
 30
0.0015258207003583
 11
1873.0
 21
1972.1418959118239
 31
0.0015258207003583
  0
LINE
  5
2FF
  8
0
 10
1727.0000000000009
 20
1972.141895911825
 30
0.0015258207003583
 11
1727.0000000000009
 21
1990.1418959117
 31
0.0015258207003583
  0
LINE
  5
300
  8
0
 10
1727.0000000000009
 20
1822.1418959118239
 30
0.0015258207003583
 11
1727.0000000000009
 21
1968.1418959118259
 31
0.0015258207003583
  0
LINE
  5
301
  8
0
 10
1727.0
 20
1672.141895911823
 30
0.0015258207003583
 11
1727.0000000000009
 21
1818.141895911825
 31
0.0015258207003583
  0
LINE
  5
302
  8
0
 10
1726.9999999999991
 20
1522.1418959118271
 30
0.0015258207003583
 11
1727.0
 21
1668.141895911825
 31
0.0015258207003583
  0
LINE
  5
303
  8
0
 10
1726.9999999999991
 20
1372.1418959118271
 30
0.0015258207003583
 11
1726.9999999999991
 21
1518.1418959118239
 31
0.0015258207003583
  0
LINE
  5
304
  8
0
 10
1726.9999999999991
 20
1222.1418959118259
 30
0.0015258207003583
 11
1726.9999999999991
 21
1368.141895911823
 31
0.0015258207003583
  0
LINE
  5
305
  8
0
 10
1726.9999999999991
 20
1072.141895911825
 30
0.0015258207003583
 11
1726.9999999999991
 21
1218.1418959118271
 31
0.0015258207003583
  0
LINE
  5
306
  8
0
 10
1726.9999999999991
 20
922.14189591182469
 30
0.0015258207003583
 11
1726.9999999999991
 21
1068.1418959118259
 31
0.0015258207003583
  0
LINE
  5
307
  8
0
 10
1726.9999999999991
 20
772.14189591182412
 30
0.0015258207003583
 11
1726.9999999999991
 21
918.14189591182549
 31
0.0015258207003583
  0
LINE
  5
308
  8
0
 10
1726.999999999998
 20
622.14189591182344
 30
0.0015258207003583
 11
1726.9999999999991
 21
768.14189591182503
 31
0.0015258207003583
  0
LINE
  5
309
  8
0
 10
1726.999999999998
 20
472.14189591182708
 30
0.0015258207003583
 11
1726.999999999998
 21
618.14189591182458
 31
0.0015258207003583
  0
LINE
  5
30A
  8
0
 10
1726.999999999998
 20
322.14189591182651
 30
0.0015258207003583
 11
1726.999999999998
 21
468.14189591182378
 31
0.0015258207003583
  0
LINE
  5
30B
  8
0
 10
1726.999999999997
 20
172.1418959118258
 30
0.0015258207003583
 11
1726.999999999998
 21
318.1418959118231
 31
0.0015258207003583
  0
LINE
  5
30C
  8
0
 10
1726.9999999999959
 20
22.141895911825159
 30
0.0015258207003583
 11
1726.999999999997
 21
168.14189591182671
 31
0.0015258207003583
  0
LINE
  5
30D
  8
0
 10
1726.999999999997
 20
0.141895911700201
 30
0.0015258207003583
 11
1726.999999999997
 21
18.141895911826062
 31
0.0015258207003583
  0
LINE
  5
30E
  8
0
 10
1722.999999999997
 20
18.141895911826161
 30
0.0015258207003583
 11
1722.999999999997
 21
0.1418959117002083
 31
0.0015258207003583
  0
LINE
  5
30F
  8
0
 10
1722.999999999997
 20
168.14189591182679
 30
0.0015258207003583
 11
1722.999999999997
 21
22.141895911825159
 31
0.0015258207003583
  0
LINE
  5
310
  8
0
 10
1722.999999999998
 20
318.14189591182293
 30
0.0015258207003583
 11
1722.999999999997
 21
172.1418959118258
 31
0.0015258207003583
  0
LINE
  5
311
  8
0
 10
1722.999999999998
 20
468.14189591182378
 30
0.0015258207003583
 11
1722.999999999998
 21
322.1418959118264
 31
0.0015258207003583
  0
LINE
  5
312
  8
0
 10
1722.9999999999991
 20
618.14189591182458
 30
0.0015258207003583
 11
1722.999999999998
 21
472.14189591182719
 31
0.0015258207003583
  0
LINE
  5
313
  8
0
 10
1723.0
 20
768.14189591182526
 30
0.0015258207003583
 11
1722.9999999999991
 21
622.14189591182367
 31
0.0015258207003583
  0
LINE
  5
314
  8
0
 10
1723.0
 20
918.14189591182594
 30
0.0015258207003583
 11
1723.0
 21
772.14189591182435
 31
0.0015258207003583
  0
LINE
  5
315
  8
0
 10
1723.0
 20
1068.1418959118259
 30
0.0015258207003583
 11
1723.0
 21
922.14189591182515
 31
0.0015258207003583
  0
LINE
  5
316
  8
0
 10
1723.0
 20
1218.1418959118271
 30
0.0015258207003583
 11
1723.0
 21
1072.141895911825
 31
0.0015258207003583
  0
LINE
  5
317
  8
0
 10
1723.0
 20
1368.141895911823
 30
0.0015258207003583
 11
1723.0
 21
1222.1418959118259
 31
0.0015258207003583
  0
LINE
  5
318
  8
0
 10
1723.0000000000009
 20
1518.1418959118239
 30
0.0015258207003583
 11
1723.0
 21
1372.1418959118271
 31
0.0015258207003583
  0
LINE
  5
319
  8
0
 10
1723.000000000002
 20
1668.141895911825
 30
0.0015258207003583
 11
1723.0000000000009
 21
1522.1418959118271
 31
0.0015258207003583
  0
LINE
  5
31A
  8
0
 10
1723.000000000002
 20
1818.1418959118259
 30
0.0015258207003583
 11
1723.000000000002
 21
1672.1418959118239
 31
0.0015258207003583
  0
LINE
  5
31B
  8
0
 10
1723.0000000000009
 20
1968.1418959118259
 30
0.0015258207003583
 11
1723.0000000000009
 21
1822.141895911825
 31
0.0015258207003583
  0
LINE
  5
31C
  8
0
 10
1723.0000000000009
 20
1990.1418959117
 30
0.0015258207003583
 11
1723.0000000000009
 21
1972.141895911825
 31
0.0015258207003583
  0
LINE
  5
31D
  8
0
 10
1577.0000000000009
 20
1972.141895911825
 30
0.0015258207003583
 11
1577.0000000000009
 21
1990.1418959117129
 31
0.0015258207003583
  0
LINE
  5
31E
  8
0
 10
1577.0000000000009
 20
1822.141895911825
 30
0.0015258207003583
 11
1577.0000000000009
 21
1968.1418959118259
 31
0.0015258207003583
  0
LINE
  5
31F
  8
0
 10
1577.0000000000009
 20
1672.1418959118239
 30
0.0015258207003583
 11
1577.0000000000009
 21
1818.1418959118259
 31
0.0015258207003583
  0
LINE
  5
320
  8
0
 10
1577.0000000000009
 20
1522.1418959118271
 30
0.0015258207003583
 11
1577.0000000000009
 21
1668.141895911825
 31
0.0015258207003583
  0
LINE
  5
321
  8
0
 10
1577.0000000000009
 20
1372.1418959118271
 30
0.0015258207003583
 11
1577.0000000000009
 21
1518.1418959118239
 31
0.0015258207003583
  0
LINE
  5
322
  8
0
 10
1577.0000000000009
 20
1222.1418959118259
 30
0.0015258207003583
 11
1577.0000000000009
 21
1368.141895911823
 31
0.0015258207003583
  0
LINE
  5
323
  8
0
 10
1577.0
 20
1072.141895911825
 30
0.0015258207003583
 11
1577.0000000000009
 21
1218.1418959118271
 31
0.0015258207003583
  0
LINE
  5
324
  8
0
 10
1576.9999999999991
 20
922.14189591182469
 30
0.0015258207003583
 11
1577.0
 21
1068.1418959118259
 31
0.0015258207003583
  0
LINE
  5
325
  8
0
 10
1577.0
 20
772.14189591182412
 30
0.0015258207003583
 11
1577.0
 21
918.14189591182571
 31
0.0015258207003583
  0
LINE
  5
326
  8
0
 10
1577.0
 20
622.14189591182367
 30
0.0015258207003583
 11
1577.0
 21
768.14189591182503
 31
0.0015258207003583
  0
LINE
  5
327
  8
0
 10
1576.9999999999991
 20
472.14189591182708
 30
0.0015258207003583
 11
1577.0
 21
618.14189591182458
 31
0.0015258207003583
  0
LINE
  5
328
  8
0
 10
1576.9999999999991
 20
322.14189591182651
 30
0.0015258207003583
 11
1576.9999999999991
 21
468.14189591182378
 31
0.0015258207003583
  0
LINE
  5
329
  8
0
 10
1576.999999999998
 20
172.1418959118258
 30
0.0015258207003583
 11
1576.9999999999991
 21
318.1418959118231
 31
0.0015258207003583
  0
LINE
  5
32A
  8
0
 10
1576.999999999998
 20
22.14189591182517
 30
0.0015258207003583
 11
1576.999999999998
 21
168.14189591182679
 31
0.0015258207003583
  0
LINE
  5
32B
  8
0
 10
1576.999999999998
 20
0.1418959117132046
 30
0.0015258207003583
 11
1576.999999999998
 21
18.141895911826079
 31
0.0015258207003583
  0
LINE
  5
32C
  8
0
 10
1572.999999999997
 20
18.14189591182615
 30
0.0015258207003583
 11
1572.999999999997
 21
0.1418959117132119
 31
0.0015258207003583
  0
LINE
  5
32D
  8
0
 10
1572.999999999997
 20
168.14189591182691
 30
0.0015258207003583
 11
1572.999999999997
 21
22.141895911825149
 31
0.0015258207003583
  0
LINE
  5
32E
  8
0
 10
1572.999999999997
 20
318.14189591182333
 30
0.0015258207003583
 11
1572.999999999997
 21
172.1418959118258
 31
0.0015258207003583
  0
LINE
  5
32F
  8
0
 10
1572.999999999998
 20
468.14189591182389
 30
0.0015258207003583
 11
1572.999999999997
 21
322.14189591182668
 31
0.0015258207003583
  0
LINE
  5
330
  8
0
 10
1572.9999999999991
 20
618.14189591182458
 30
0.0015258207003583
 11
1572.999999999998
 21
472.14189591182742
 31
0.0015258207003583
  0
LINE
  5
331
  8
0
 10
1572.9999999999991
 20
768.14189591182537
 30
0.0015258207003583
 11
1572.9999999999991
 21
622.14189591182367
 31
0.0015258207003583
  0
LINE
  5
332
  8
0
 10
1572.9999999999991
 20
918.14189591182605
 30
0.0015258207003583
 11
1572.9999999999991
 21
772.14189591182458
 31
0.0015258207003583
  0
LINE
  5
333
  8
0
 10
1572.9999999999991
 20
1068.1418959118259
 30
0.0015258207003583
 11
1572.9999999999991
 21
922.14189591182515
 31
0.0015258207003583
  0
LINE
  5
334
  8
0
 10
1573.0
 20
1218.1418959118271
 30
0.0015258207003583
 11
1572.9999999999991
 21
1072.141895911825
 31
0.0015258207003583
  0
LINE
  5
335
  8
0
 10
1573.0
 20
1368.141895911823
 30
0.0015258207003583
 11
1573.0
 21
1222.1418959118259
 31
0.0015258207003583
  0
LINE
  5
336
  8
0
 10
1573.0000000000009
 20
1518.1418959118239
 30
0.0015258207003583
 11
1573.0
 21
1372.1418959118271
 31
0.0015258207003583
  0
LINE
  5
337
  8
0
 10
1573.000000000002
 20
1668.141895911825
 30
0.0015258207003583
 11
1573.0000000000009
 21
1522.1418959118271
 31
0.0015258207003583
  0
LINE
  5
338
  8
0
 10
1573.000000000002
 20
1818.141895911825
 30
0.0015258207003583
 11
1573.000000000002
 21
1672.1418959118239
 31
0.0015258207003583
  0
LINE
  5
339
  8
0
 10
1573.000000000002
 20
1968.1418959118259
 30
0.0015258207003583
 11
1573.000000000002
 21
1822.1418959118239
 31
0.0015258207003583
  0
LINE
  5
33A
  8
0
 10
1573.000000000002
 20
1990.1418959117129
 30
0.0015258207003583
 11
1573.000000000002
 21
1972.141895911825
 31
0.0015258207003583
  0
LINE
  5
33B
  8
0
 10
1427.000000000002
 20
1972.141895911823
 30
0.0015258207003583
 11
1427.000000000002
 21
1990.1418959117241
 31
0.0015258207003583
  0
LINE
  5
33C
  8
0
 10
1427.000000000002
 20
1822.141895911823
 30
0.0015258207003583
 11
1427.000000000002
 21
1968.141895911825
 31
0.0015258207003583
  0
LINE
  5
33D
  8
0
 10
1427.0000000000009
 20
1672.141895911823
 30
0.0015258207003583
 11
1427.000000000002
 21
1818.1418959118239
 31
0.0015258207003583
  0
LINE
  5
33E
  8
0
 10
1427.0
 20
1522.1418959118271
 30
0.0015258207003583
 11
1427.0000000000009
 21
1668.141895911823
 31
0.0015258207003583
  0
LINE
  5
33F
  8
0
 10
1427.0
 20
1372.1418959118271
 30
0.0015258207003583
 11
1427.0000000000009
 21
1518.141895911823
 31
0.0015258207003583
  0
LINE
  5
340
  8
0
 10
1427.0
 20
1222.1418959118259
 30
0.0015258207003583
 11
1427.0000000000009
 21
1368.141895911823
 31
0.0015258207003583
  0
LINE
  5
341
  8
0
 10
1427.0
 20
1072.141895911825
 30
0.0015258207003583
 11
1427.0000000000009
 21
1218.1418959118271
 31
0.0015258207003583
  0
LINE
  5
342
  8
0
 10
1426.9999999999991
 20
922.14189591182537
 30
0.0015258207003583
 11
1427.0
 21
1068.1418959118259
 31
0.0015258207003583
  0
LINE
  5
343
  8
0
 10
1426.9999999999991
 20
772.14189591182526
 30
0.0015258207003583
 11
1426.9999999999991
 21
918.1418959118264
 31
0.0015258207003583
  0
LINE
  5
344
  8
0
 10
1426.9999999999991
 20
622.14189591182469
 30
0.0015258207003583
 11
1427.0
 21
768.14189591182617
 31
0.0015258207003583
  0
LINE
  5
345
  8
0
 10
1426.9999999999991
 20
472.14189591182878
 30
0.0015258207003583
 11
1426.9999999999991
 21
618.14189591182571
 31
0.0015258207003583
  0
LINE
  5
346
  8
0
 10
1426.9999999999991
 20
322.14189591182861
 30
0.0015258207003583
 11
1426.9999999999991
 21
468.14189591182537
 31
0.0015258207003583
  0
LINE
  5
347
  8
0
 10
1426.999999999998
 20
172.14189591182819
 30
0.0015258207003583
 11
1426.9999999999991
 21
318.14189591182509
 31
0.0015258207003583
  0
LINE
  5
348
  8
0
 10
1426.999999999998
 20
22.141895911827842
 30
0.0015258207003583
 11
1426.999999999998
 21
168.1418959118291
 31
0.0015258207003583
  0
LINE
  5
349
  8
0
 10
1426.999999999998
 20
0.1418959117245839
 30
0.0015258207003583
 11
1426.999999999998
 21
18.141895911828751
 31
0.0015258207003583
  0
LINE
  5
34A
  8
0
 10
1422.999999999998
 20
18.141895911824491
 30
0.0015258207003583
 11
1422.999999999998
 21
0.1418959117245912
 31
0.0015258207003583
  0
LINE
  5
34B
  8
0
 10
1422.999999999998
 20
168.141895911825
 30
0.0015258207003583
 11
1422.999999999998
 21
22.141895911823489
 31
0.0015258207003583
  0
LINE
  5
34C
  8
0
 10
1422.9999999999991
 20
318.14189591182139
 30
0.0015258207003583
 11
1422.999999999998
 21
172.14189591182429
 31
0.0015258207003583
  0
LINE
  5
34D
  8
0
 10
1422.9999999999991
 20
468.1418959118219
 30
0.0015258207003583
 11
1422.9999999999991
 21
322.1418959118248
 31
0.0015258207003583
  0
LINE
  5
34E
  8
0
 10
1423.0
 20
618.14189591182253
 30
0.0015258207003583
 11
1422.9999999999991
 21
472.14189591182532
 31
0.0015258207003583
  0
LINE
  5
34F
  8
0
 10
1423.0
 20
768.14189591182321
 30
0.0015258207003583
 11
1423.0
 21
622.14189591182173
 31
0.0015258207003583
  0
LINE
  5
350
  8
0
 10
1423.0
 20
918.14189591182389
 30
0.0015258207003583
 11
1423.0
 21
772.14189591182242
 31
0.0015258207003583
  0
LINE
  5
351
  8
0
 10
1423.0
 20
1068.1418959118239
 30
0.0015258207003583
 11
1423.0
 21
922.14189591182298
 31
0.0015258207003583
  0
LINE
  5
352
  8
0
 10
1423.0000000000009
 20
1218.141895911825
 30
0.0015258207003583
 11
1423.0
 21
1072.141895911823
 31
0.0015258207003583
  0
LINE
  5
353
  8
0
 10
1423.0000000000009
 20
1368.1418959118209
 30
0.0015258207003583
 11
1423.0000000000009
 21
1222.1418959118239
 31
0.0015258207003583
  0
LINE
  5
354
  8
0
 10
1423.0000000000009
 20
1518.1418959118221
 30
0.0015258207003583
 11
1423.0000000000009
 21
1372.141895911825
 31
0.0015258207003583
  0
LINE
  5
355
  8
0
 10
1423.000000000002
 20
1668.141895911823
 30
0.0015258207003583
 11
1423.0000000000009
 21
1522.141895911825
 31
0.0015258207003583
  0
LINE
  5
356
  8
0
 10
1423.000000000002
 20
1818.1418959118239
 30
0.0015258207003583
 11
1423.000000000002
 21
1672.1418959118221
 31
0.0015258207003583
  0
LINE
  5
357
  8
0
 10
1423.000000000002
 20
1968.141895911825
 30
0.0015258207003583
 11
1423.000000000002
 21
1822.141895911823
 31
0.0015258207003583
  0
LINE
  5
358
  8
0
 10
1423.000000000002
 20
1990.1418959117241
 30
0.0015258207003583
 11
1423.000000000002
 21
1972.141895911823
 31
0.0015258207003583
  0
LINE
  5
359
  8
0
 10
1277.000000000002
 20
1972.1418959118259
 30
0.0015258207003583
 11
1277.000000000002
 21
1990.1418959117359
 31
0.0015258207003583
  0
LINE
  5
35A
  8
0
 10
1277.000000000002
 20
1822.1418959118259
 30
0.0015258207003583
 11
1277.000000000002
 21
1968.1418959118271
 31
0.0015258207003583
  0
LINE
  5
35B
  8
0
 10
1277.000000000002
 20
1672.141895911825
 30
0.0015258207003583
 11
1277.000000000002
 21
1818.1418959118271
 31
0.0015258207003583
  0
LINE
  5
35C
  8
0
 10
1277.000000000002
 20
1522.1418959118289
 30
0.0015258207003583
 11
1277.000000000002
 21
1668.1418959118259
 31
0.0015258207003583
  0
LINE
  5
35D
  8
0
 10
1277.000000000002
 20
1372.141895911828
 30
0.0015258207003583
 11
1277.000000000002
 21
1518.141895911825
 31
0.0015258207003583
  0
LINE
  5
35E
  8
0
 10
1277.000000000002
 20
1222.1418959118271
 30
0.0015258207003583
 11
1277.000000000002
 21
1368.141895911825
 31
0.0015258207003583
  0
LINE
  5
35F
  8
0
 10
1277.0000000000009
 20
1072.1418959118259
 30
0.0015258207003583
 11
1277.000000000002
 21
1218.141895911828
 31
0.0015258207003583
  0
LINE
  5
360
  8
0
 10
1277.0
 20
922.14189591182605
 30
0.0015258207003583
 11
1277.0000000000009
 21
1068.1418959118271
 31
0.0015258207003583
  0
LINE
  5
361
  8
0
 10
1277.0
 20
772.14189591182526
 30
0.0015258207003583
 11
1277.0
 21
918.14189591182685
 31
0.0015258207003583
  0
LINE
  5
362
  8
0
 10
1277.0
 20
622.14189591182458
 30
0.0015258207003583
 11
1277.0
 21
768.14189591182617
 31
0.0015258207003583
  0
LINE
  5
363
  8
0
 10
1277.0
 20
472.14189591182821
 30
0.0015258207003583
 11
1277.0
 21
618.14189591182549
 31
0.0015258207003583
  0
LINE
  5
364
  8
0
 10
1277.0
 20
322.14189591182759
 30
0.0015258207003583
 11
1277.0000000000009
 21
468.14189591182469
 31
0.0015258207003583
  0
LINE
  5
365
  8
0
 10
1277.0
 20
172.14189591182691
 30
0.0015258207003583
 11
1277.0
 21
318.14189591182418
 31
0.0015258207003583
  0
LINE
  5
366
  8
0
 10
1276.9999999999991
 20
22.141895911826271
 30
0.0015258207003583
 11
1277.0
 21
168.14189591182779
 31
0.0015258207003583
  0
LINE
  5
367
  8
0
 10
1276.9999999999991
 20
0.1418959117359632
 30
0.0015258207003583
 11
1276.9999999999991
 21
18.141895911827181
 31
0.0015258207003583
  0
LINE
  5
368
  8
0
 10
1272.9999999999991
 20
18.141895911827248
 30
0.0015258207003583
 11
1272.9999999999991
 21
0.1418959117359705
 31
0.0015258207003583
  0
LINE
  5
369
  8
0
 10
1272.9999999999991
 20
168.1418959118279
 30
0.0015258207003583
 11
1272.9999999999991
 21
22.14189591182625
 31
0.0015258207003583
  0
LINE
  5
36A
  8
0
 10
1272.9999999999991
 20
318.14189591182429
 30
0.0015258207003583
 11
1272.9999999999991
 21
172.14189591182691
 31
0.0015258207003583
  0
LINE
  5
36B
  8
0
 10
1272.9999999999991
 20
468.14189591182497
 30
0.0015258207003583
 11
1272.9999999999991
 21
322.14189591182782
 31
0.0015258207003583
  0
LINE
  5
36C
  8
0
 10
1273.0
 20
618.14189591182571
 30
0.0015258207003583
 11
1272.9999999999991
 21
472.14189591182861
 31
0.0015258207003583
  0
LINE
  5
36D
  8
0
 10
1273.0
 20
768.14189591182617
 30
0.0015258207003583
 11
1273.0
 21
622.14189591182458
 31
0.0015258207003583
  0
LINE
  5
36E
  8
0
 10
1273.0
 20
918.14189591182685
 30
0.0015258207003583
 11
1273.0
 21
772.14189591182537
 31
0.0015258207003583
  0
LINE
  5
36F
  8
0
 10
1273.0000000000009
 20
1068.1418959118271
 30
0.0015258207003583
 11
1273.0
 21
922.14189591182605
 31
0.0015258207003583
  0
LINE
  5
370
  8
0
 10
1273.0000000000009
 20
1218.141895911828
 30
0.0015258207003583
 11
1273.0000000000009
 21
1072.1418959118259
 31
0.0015258207003583
  0
LINE
  5
371
  8
0
 10
1273.0000000000009
 20
1368.1418959118239
 30
0.0015258207003583
 11
1273.0000000000009
 21
1222.1418959118271
 31
0.0015258207003583
  0
LINE
  5
372
  8
0
 10
1273.000000000002
 20
1518.141895911825
 30
0.0015258207003583
 11
1273.0000000000009
 21
1372.141895911828
 31
0.0015258207003583
  0
LINE
  5
373
  8
0
 10
1273.000000000002
 20
1668.1418959118259
 30
0.0015258207003583
 11
1273.0000000000009
 21
1522.141895911828
 31
0.0015258207003583
  0
LINE
  5
374
  8
0
 10
1273.000000000002
 20
1818.1418959118259
 30
0.0015258207003583
 11
1273.000000000002
 21
1672.141895911825
 31
0.0015258207003583
  0
LINE
  5
375
  8
0
 10
1273.000000000002
 20
1968.1418959118271
 30
0.0015258207003583
 11
1273.000000000002
 21
1822.1418959118259
 31
0.0015258207003583
  0
LINE
  5
376
  8
0
 10
1273.000000000003
 20
1990.1418959117359
 30
0.0015258207003583
 11
1273.000000000003
 21
1972.1418959118259
 31
0.0015258207003583
  0
LINE
  5
377
  8
0
 10
1127.000000000003
 20
1972.141895911825
 30
0.0015258207003583
 11
1127.000000000003
 21
1990.141895911747
 31
0.0015258207003583
  0
LINE
  5
378
  8
0
 10
1127.000000000003
 20
1822.1418959118239
 30
0.0015258207003583
 11
1127.000000000003
 21
1968.141895911825
 31
0.0015258207003583
  0
LINE
  5
379
  8
0
 10
1127.000000000002
 20
1672.141895911823
 30
0.0015258207003583
 11
1127.000000000002
 21
1818.141895911825
 31
0.0015258207003583
  0
LINE
  5
37A
  8
0
 10
1127.000000000002
 20
1522.1418959118271
 30
0.0015258207003583
 11
1127.000000000002
 21
1668.141895911825
 31
0.0015258207003583
  0
LINE
  5
37B
  8
0
 10
1127.000000000002
 20
1372.1418959118271
 30
0.0015258207003583
 11
1127.000000000002
 21
1518.1418959118239
 31
0.0015258207003583
  0
LINE
  5
37C
  8
0
 10
1127.000000000002
 20
1222.141895911825
 30
0.0015258207003583
 11
1127.000000000002
 21
1368.141895911823
 31
0.0015258207003583
  0
LINE
  5
37D
  8
0
 10
1127.000000000002
 20
1072.141895911825
 30
0.0015258207003583
 11
1127.000000000002
 21
1218.1418959118259
 31
0.0015258207003583
  0
LINE
  5
37E
  8
0
 10
1127.000000000002
 20
922.14189591182435
 30
0.0015258207003583
 11
1127.000000000002
 21
1068.1418959118259
 31
0.0015258207003583
  0
LINE
  5
37F
  8
0
 10
1127.000000000002
 20
772.14189591182378
 30
0.0015258207003583
 11
1127.000000000003
 21
918.14189591182515
 31
0.0015258207003583
  0
LINE
  5
380
  8
0
 10
1127.0000000000009
 20
622.14189591182298
 30
0.0015258207003583
 11
1127.000000000002
 21
768.14189591182458
 31
0.0015258207003583
  0
LINE
  5
381
  8
0
 10
1127.0000000000009
 20
472.14189591182662
 30
0.0015258207003583
 11
1127.0000000000009
 21
618.14189591182389
 31
0.0015258207003583
  0
LINE
  5
382
  8
0
 10
1127.0
 20
322.14189591182588
 30
0.0015258207003583
 11
1127.0000000000009
 21
468.1418959118231
 31
0.0015258207003583
  0
LINE
  5
383
  8
0
 10
1127.0
 20
172.14189591182529
 30
0.0015258207003583
 11
1127.0
 21
318.14189591182259
 31
0.0015258207003583
  0
LINE
  5
384
  8
0
 10
1127.0
 20
22.141895911824658
 30
0.0015258207003583
 11
1127.0
 21
168.1418959118262
 31
0.0015258207003583
  0
LINE
  5
385
  8
0
 10
1126.9999999999991
 20
0.1418959117473425
 30
0.0015258207003583
 11
1127.0
 21
18.141895911825561
 31
0.0015258207003583
  0
LINE
  5
386
  8
0
 10
1122.9999999999991
 20
18.1418959118256
 30
0.0015258207003583
 11
1122.9999999999991
 21
0.1418959117473498
 31
0.0015258207003583
  0
LINE
  5
387
  8
0
 10
1122.9999999999991
 20
168.1418959118262
 30
0.0015258207003583
 11
1122.9999999999991
 21
22.141895911824601
 31
0.0015258207003583
  0
LINE
  5
388
  8
0
 10
1122.9999999999991
 20
318.1418959118227
 30
0.0015258207003583
 11
1122.9999999999991
 21
172.14189591182549
 31
0.0015258207003583
  0
LINE
  5
389
  8
0
 10
1122.9999999999991
 20
468.1418959118231
 30
0.0015258207003583
 11
1122.9999999999991
 21
322.14189591182611
 31
0.0015258207003583
  0
LINE
  5
38A
  8
0
 10
1122.9999999999991
 20
618.14189591182378
 30
0.0015258207003583
 11
1122.9999999999991
 21
472.14189591182662
 31
0.0015258207003583
  0
LINE
  5
38B
  8
0
 10
1122.9999999999991
 20
768.14189591182458
 30
0.0015258207003583
 11
1122.9999999999991
 21
622.14189591182298
 31
0.0015258207003583
  0
LINE
  5
38C
  8
0
 10
1122.9999999999991
 20
918.14189591182537
 30
0.0015258207003583
 11
1122.9999999999991
 21
772.14189591182378
 31
0.0015258207003583
  0
LINE
  5
38D
  8
0
 10
1122.9999999999991
 20
1068.1418959118259
 30
0.0015258207003583
 11
1122.9999999999991
 21
922.14189591182435
 31
0.0015258207003583
  0
LINE
  5
38E
  8
0
 10
1123.0
 20
1218.1418959118259
 30
0.0015258207003583
 11
1122.9999999999991
 21
1072.1418959118239
 31
0.0015258207003583
  0
LINE
  5
38F
  8
0
 10
1123.0000000000009
 20
1368.141895911823
 30
0.0015258207003583
 11
1123.0
 21
1222.141895911825
 31
0.0015258207003583
  0
LINE
  5
390
  8
0
 10
1123.0000000000009
 20
1518.141895911823
 30
0.0015258207003583
 11
1123.0000000000009
 21
1372.1418959118259
 31
0.0015258207003583
  0
LINE
  5
391
  8
0
 10
1123.0000000000009
 20
1668.1418959118239
 30
0.0015258207003583
 11
1123.0000000000009
 21
1522.1418959118271
 31
0.0015258207003583
  0
LINE
  5
392
  8
0
 10
1123.000000000002
 20
1818.141895911825
 30
0.0015258207003583
 11
1123.0000000000009
 21
1672.141895911823
 31
0.0015258207003583
  0
LINE
  5
393
  8
0
 10
1123.000000000003
 20
1968.141895911825
 30
0.0015258207003583
 11
1123.000000000002
 21
1822.1418959118239
 31
0.0015258207003583
  0
LINE
  5
394
  8
0
 10
1123.000000000003
 20
1990.141895911747
 30
0.0015258207003583
 11
1123.000000000003
 21
1972.141895911825
 31
0.0015258207003583
  0
LINE
  5
395
  8
0
 10
977.00000000000273
 20
1972.1418959118189
 30
0.0015258207003583
 11
977.00000000000307
 21
1990.1418959117591
 31
0.0015258207003583
  0
LINE
  5
396
  8
0
 10
977.00000000000398
 20
1822.1418959118189
 30
0.0015258207003583
 11
977.00000000000307
 21
1968.14189591182
 31
0.0015258207003583
  0
LINE
  5
397
  8
0
 10
977.00000000000307
 20
1672.1418959118189
 30
0.0015258207003583
 11
977.00000000000307
 21
1818.14189591182
 31
0.0015258207003583
  0
LINE
  5
398
  8
0
 10
977.00000000000307
 20
1522.1418959118221
 30
0.0015258207003583
 11
977.00000000000307
 21
1668.1418959118189
 31
0.0015258207003583
  0
LINE
  5
399
  8
0
 10
977.00000000000398
 20
1372.1418959118221
 30
0.0015258207003583
 11
977.00000000000307
 21
1518.1418959118189
 31
0.0015258207003583
  0
LINE
  5
39A
  8
0
 10
977.00000000000307
 20
1222.1418959118221
 30
0.0015258207003583
 11
977.00000000000307
 21
1368.1418959118189
 31
0.0015258207003583
  0
LINE
  5
39B
  8
0
 10
977.00000000000307
 20
1072.1418959118209
 30
0.0015258207003583
 11
977.00000000000307
 21
1218.141895911823
 31
0.0015258207003583
  0
LINE
  5
39C
  8
0
 10
977.00000000000216
 20
922.14189591182082
 30
0.0015258207003583
 11
977.00000000000273
 21
1068.1418959118221
 31
0.0015258207003583
  0
LINE
  5
39D
  8
0
 10
977.00000000000193
 20
772.1418959118206
 30
0.0015258207003583
 11
977.00000000000216
 21
918.14189591182185
 31
0.0015258207003583
  0
LINE
  5
39E
  8
0
 10
977.00000000000045
 20
622.14189591182026
 30
0.0015258207003583
 11
977.00000000000125
 21
768.14189591182139
 31
0.0015258207003583
  0
LINE
  5
39F
  8
0
 10
977.00000000000125
 20
472.14189591182429
 30
0.0015258207003583
 11
977.00000000000125
 21
618.14189591182105
 31
0.0015258207003583
  0
LINE
  5
3A0
  8
0
 10
977.00000000000125
 20
322.14189591182389
 30
0.0015258207003583
 11
977.00000000000125
 21
468.14189591182082
 31
0.0015258207003583
  0
LINE
  5
3A1
  8
0
 10
977.00000000000045
 20
172.14189591182361
 30
0.0015258207003583
 11
977.00000000000045
 21
318.1418959118206
 31
0.0015258207003583
  0
LINE
  5
3A2
  8
0
 10
977.0
 20
22.141895911823259
 30
0.0015258207003583
 11
977.00000000000045
 21
168.14189591182449
 31
0.0015258207003583
  0
LINE
  5
3A3
  8
0
 10
977.0
 20
0.1418959117589924
 30
0.0015258207003583
 11
977.0
 21
18.141895911824172
 31
0.0015258207003583
  0
LINE
  5
3A4
  8
0
 10
973.0
 20
18.141895911824189
 30
0.0015258207003583
 11
973.0
 21
0.1418959117589998
 31
0.0015258207003583
  0
LINE
  5
3A5
  8
0
 10
973.00000000000034
 20
168.14189591182449
 30
0.0015258207003583
 11
973.0
 21
22.141895911823191
 31
0.0015258207003583
  0
LINE
  5
3A6
  8
0
 10
973.00000000000091
 20
318.14189591182031
 30
0.0015258207003583
 11
973.00000000000034
 21
172.14189591182341
 31
0.0015258207003583
  0
LINE
  5
3A7
  8
0
 10
973.00000000000091
 20
468.1418959118206
 30
0.0015258207003583
 11
973.00000000000091
 21
322.14189591182372
 31
0.0015258207003583
  0
LINE
  5
3A8
  8
0
 10
973.00000000000091
 20
618.1418959118206
 30
0.0015258207003583
 11
973.00000000000091
 21
472.14189591182378
 31
0.0015258207003583
  0
LINE
  5
3A9
  8
0
 10
973.00000000000091
 20
768.14189591182117
 30
0.0015258207003583
 11
973.00000000000091
 21
622.1418959118198
 31
0.0015258207003583
  0
LINE
  5
3AA
  8
0
 10
973.00000000000091
 20
918.14189591182139
 30
0.0015258207003583
 11
973.00000000000091
 21
772.14189591182014
 31
0.0015258207003583
  0
LINE
  5
3AB
  8
0
 10
973.00000000000136
 20
1068.1418959118209
 30
0.0015258207003583
 11
973.00000000000091
 21
922.14189591182026
 31
0.0015258207003583
  0
LINE
  5
3AC
  8
0
 10
973.00000000000136
 20
1218.1418959118221
 30
0.0015258207003583
 11
973.00000000000136
 21
1072.14189591182
 31
0.0015258207003583
  0
LINE
  5
3AD
  8
0
 10
973.00000000000227
 20
1368.141895911818
 30
0.0015258207003583
 11
973.00000000000136
 21
1222.1418959118209
 31
0.0015258207003583
  0
LINE
  5
3AE
  8
0
 10
973.00000000000318
 20
1518.141895911818
 30
0.0015258207003583
 11
973.00000000000273
 21
1372.1418959118221
 31
0.0015258207003583
  0
LINE
  5
3AF
  8
0
 10
973.00000000000352
 20
1668.1418959118189
 30
0.0015258207003583
 11
973.00000000000318
 21
1522.1418959118221
 31
0.0015258207003583
  0
LINE
  5
3B0
  8
0
 10
973.00000000000352
 20
1818.14189591182
 30
0.0015258207003583
 11
973.00000000000352
 21
1672.141895911818
 31
0.0015258207003583
  0
LINE
  5
3B1
  8
0
 10
973.00000000000352
 20
1968.14189591182
 30
0.0015258207003583
 11
973.00000000000352
 21
1822.1418959118189
 31
0.0015258207003583
  0
LINE
  5
3B2
  8
0
 10
973.00000000000352
 20
1990.1418959117591
 30
0.0015258207003583
 11
973.00000000000352
 21
1972.1418959118189
 31
0.0015258207003583
  0
LINE
  5
3B3
  8
0
 10
827.00000000000398
 20
1972.1418959118209
 30
0.0015258207003583
 11
827.00000000000398
 21
1990.14189591177
 31
0.0015258207003583
  0
LINE
  5
3B4
  8
0
 10
827.00000000000273
 20
1822.1418959118209
 30
0.0015258207003583
 11
827.00000000000398
 21
1968.1418959118221
 31
0.0015258207003583
  0
LINE
  5
3B5
  8
0
 10
827.00000000000273
 20
1672.14189591182
 30
0.0015258207003583
 11
827.00000000000273
 21
1818.1418959118221
 31
0.0015258207003583
  0
LINE
  5
3B6
  8
0
 10
827.00000000000273
 20
1522.141895911823
 30
0.0015258207003583
 11
827.00000000000273
 21
1668.1418959118209
 31
0.0015258207003583
  0
LINE
  5
3B7
  8
0
 10
827.00000000000273
 20
1372.141895911823
 30
0.0015258207003583
 11
827.00000000000273
 21
1518.14189591182
 31
0.0015258207003583
  0
LINE
  5
3B8
  8
0
 10
827.00000000000216
 20
1222.1418959118221
 30
0.0015258207003583
 11
827.00000000000216
 21
1368.14189591182
 31
0.0015258207003583
  0
LINE
  5
3B9
  8
0
 10
827.00000000000216
 20
1072.1418959118221
 30
0.0015258207003583
 11
827.00000000000216
 21
1218.141895911823
 31
0.0015258207003583
  0
LINE
  5
3BA
  8
0
 10
827.00000000000273
 20
922.14189591182117
 30
0.0015258207003583
 11
827.00000000000273
 21
1068.1418959118221
 31
0.0015258207003583
  0
LINE
  5
3BB
  8
0
 10
827.00000000000273
 20
772.14189591182037
 30
0.0015258207003583
 11
827.00000000000273
 21
918.14189591182196
 31
0.0015258207003583
  0
LINE
  5
3BC
  8
0
 10
827.00000000000216
 20
622.1418959118198
 30
0.0015258207003583
 11
827.00000000000273
 21
768.14189591182128
 31
0.0015258207003583
  0
LINE
  5
3BD
  8
0
 10
827.00000000000193
 20
472.14189591182338
 30
0.0015258207003583
 11
827.00000000000216
 21
618.1418959118206
 31
0.0015258207003583
  0
LINE
  5
3BE
  8
0
 10
827.00000000000193
 20
322.14189591182281
 30
0.0015258207003583
 11
827.00000000000193
 21
468.14189591181997
 31
0.0015258207003583
  0
LINE
  5
3BF
  8
0
 10
827.00000000000193
 20
172.14189591182199
 30
0.0015258207003583
 11
827.00000000000193
 21
318.1418959118194
 31
0.0015258207003583
  0
LINE
  5
3C0
  8
0
 10
827.00000000000125
 20
22.141895911821429
 30
0.0015258207003583
 11
827.00000000000125
 21
168.14189591182301
 31
0.0015258207003583
  0
LINE
  5
3C1
  8
0
 10
827.00000000000045
 20
0.141895911770101
 30
0.0015258207003583
 11
827.00000000000045
 21
18.141895911822331
 31
0.0015258207003583
  0
LINE
  5
3C2
  8
0
 10
823.00000000000034
 20
18.141895911822289
 30
0.0015258207003583
 11
823.00000000000034
 21
0.1418959117701084
 31
0.0015258207003583
  0
LINE
  5
3C3
  8
0
 10
823.00000000000034
 20
168.1418959118229
 30
0.0015258207003583
 11
823.00000000000034
 21
22.141895911821511
 31
0.0015258207003583
  0
LINE
  5
3C4
  8
0
 10
823.0
 20
318.1418959118194
 30
0.0015258207003583
 11
823.00000000000034
 21
172.1418959118221
 31
0.0015258207003583
  0
LINE
  5
3C5
  8
0
 10
823.00000000000034
 20
468.14189591181997
 30
0.0015258207003583
 11
823.00000000000034
 21
322.14189591182293
 31
0.0015258207003583
  0
LINE
  5
3C6
  8
0
 10
823.00000000000091
 20
618.14189591182105
 30
0.0015258207003583
 11
823.00000000000034
 21
472.14189591182361
 31
0.0015258207003583
  0
LINE
  5
3C7
  8
0
 10
823.00000000000136
 20
768.14189591182139
 30
0.0015258207003583
 11
823.00000000000136
 21
622.1418959118198
 31
0.0015258207003583
  0
LINE
  5
3C8
  8
0
 10
823.00000000000136
 20
918.14189591182219
 30
0.0015258207003583
 11
823.00000000000136
 21
772.14189591182048
 31
0.0015258207003583
  0
LINE
  5
3C9
  8
0
 10
823.00000000000227
 20
1068.141895911823
 30
0.0015258207003583
 11
823.00000000000136
 21
922.14189591182117
 31
0.0015258207003583
  0
LINE
  5
3CA
  8
0
 10
823.00000000000273
 20
1218.141895911823
 30
0.0015258207003583
 11
823.00000000000227
 21
1072.1418959118221
 31
0.0015258207003583
  0
LINE
  5
3CB
  8
0
 10
823.00000000000318
 20
1368.14189591182
 30
0.0015258207003583
 11
823.00000000000273
 21
1222.1418959118221
 31
0.0015258207003583
  0
LINE
  5
3CC
  8
0
 10
823.00000000000318
 20
1518.14189591182
 30
0.0015258207003583
 11
823.00000000000273
 21
1372.141895911823
 31
0.0015258207003583
  0
LINE
  5
3CD
  8
0
 10
823.00000000000352
 20
1668.1418959118209
 30
0.0015258207003583
 11
823.00000000000318
 21
1522.1418959118239
 31
0.0015258207003583
  0
LINE
  5
3CE
  8
0
 10
823.00000000000318
 20
1818.1418959118221
 30
0.0015258207003583
 11
823.00000000000318
 21
1672.14189591182
 31
0.0015258207003583
  0
LINE
  5
3CF
  8
0
 10
823.00000000000409
 20
1968.1418959118221
 30
0.0015258207003583
 11
823.00000000000352
 21
1822.1418959118209
 31
0.0015258207003583
  0
LINE
  5
3D0
  8
0
 10
823.00000000000409
 20
1990.14189591177
 30
0.0015258207003583
 11
823.00000000000409
 21
1972.1418959118209
 31
0.0015258207003583
  0
LINE
  5
3D1
  8
0
 10
677.00000000000455
 20
1972.14189591182
 30
0.0015258207003583
 11
677.00000000000455
 21
1990.1418959117809
 31
0.0015258207003583
  0
LINE
  5
3D2
  8
0
 10
677.00000000000455
 20
1822.1418959118189
 30
0.0015258207003583
 11
677.00000000000455
 21
1968.1418959118209
 31
0.0015258207003583
  0
LINE
  5
3D3
  8
0
 10
677.00000000000409
 20
1672.141895911818
 30
0.0015258207003583
 11
677.00000000000455
 21
1818.14189591182
 31
0.0015258207003583
  0
LINE
  5
3D4
  8
0
 10
677.00000000000455
 20
1522.1418959118221
 30
0.0015258207003583
 11
677.00000000000409
 21
1668.1418959118189
 31
0.0015258207003583
  0
LINE
  5
3D5
  8
0
 10
677.00000000000455
 20
1372.1418959118209
 30
0.0015258207003583
 11
677.00000000000409
 21
1518.141895911818
 31
0.0015258207003583
  0
LINE
  5
3D6
  8
0
 10
677.00000000000409
 20
1222.1418959118209
 30
0.0015258207003583
 11
677.00000000000409
 21
1368.141895911818
 31
0.0015258207003583
  0
LINE
  5
3D7
  8
0
 10
677.00000000000307
 20
1072.14189591182
 30
0.0015258207003583
 11
677.00000000000409
 21
1218.1418959118221
 31
0.0015258207003583
  0
LINE
  5
3D8
  8
0
 10
677.00000000000307
 20
922.14189591181957
 30
0.0015258207003583
 11
677.00000000000307
 21
1068.1418959118209
 31
0.0015258207003583
  0
LINE
  5
3D9
  8
0
 10
677.00000000000273
 20
772.14189591181901
 30
0.0015258207003583
 11
677.00000000000307
 21
918.1418959118206
 31
0.0015258207003583
  0
LINE
  5
3DA
  8
0
 10
677.00000000000273
 20
622.14189591181821
 30
0.0015258207003583
 11
677.00000000000273
 21
768.1418959118198
 31
0.0015258207003583
  0
LINE
  5
3DB
  8
0
 10
677.00000000000216
 20
472.14189591182202
 30
0.0015258207003583
 11
677.00000000000273
 21
618.14189591181923
 31
0.0015258207003583
  0
LINE
  5
3DC
  8
0
 10
677.00000000000182
 20
322.14189591182139
 30
0.0015258207003583
 11
677.00000000000216
 21
468.14189591181861
 31
0.0015258207003583
  0
LINE
  5
3DD
  8
0
 10
677.00000000000182
 20
172.14189591182071
 30
0.0015258207003583
 11
677.00000000000216
 21
318.14189591181793
 31
0.0015258207003583
  0
LINE
  5
3DE
  8
0
 10
677.00000000000182
 20
22.141895911820079
 30
0.0015258207003583
 11
677.00000000000182
 21
168.14189591182159
 31
0.0015258207003583
  0
LINE
  5
3DF
  8
0
 10
677.00000000000125
 20
0.1418959117817511
 30
0.0015258207003583
 11
677.00000000000125
 21
18.141895911820981
 31
0.0015258207003583
  0
LINE
  5
3E0
  8
0
 10
673.00000000000091
 20
18.1418959118209
 30
0.0015258207003583
 11
673.00000000000091
 21
0.1418959117817584
 31
0.0015258207003583
  0
LINE
  5
3E1
  8
0
 10
673.00000000000216
 20
168.14189591182179
 30
0.0015258207003583
 11
673.00000000000125
 21
22.141895911820122
 31
0.0015258207003583
  0
LINE
  5
3E2
  8
0
 10
673.00000000000216
 20
318.14189591181798
 30
0.0015258207003583
 11
673.00000000000125
 21
172.1418959118208
 31
0.0015258207003583
  0
LINE
  5
3E3
  8
0
 10
673.00000000000216
 20
468.14189591181861
 30
0.0015258207003583
 11
673.00000000000216
 21
322.14189591182139
 31
0.0015258207003583
  0
LINE
  5
3E4
  8
0
 10
673.00000000000273
 20
618.14189591181935
 30
0.0015258207003583
 11
673.00000000000216
 21
472.14189591182219
 31
0.0015258207003583
  0
LINE
  5
3E5
  8
0
 10
673.00000000000273
 20
768.14189591182037
 30
0.0015258207003583
 11
673.00000000000273
 21
622.14189591181855
 31
0.0015258207003583
  0
LINE
  5
3E6
  8
0
 10
673.00000000000216
 20
918.14189591182105
 30
0.0015258207003583
 11
673.00000000000216
 21
772.14189591181935
 31
0.0015258207003583
  0
LINE
  5
3E7
  8
0
 10
673.00000000000318
 20
1068.1418959118209
 30
0.0015258207003583
 11
673.00000000000273
 21
922.14189591182014
 31
0.0015258207003583
  0
LINE
  5
3E8
  8
0
 10
673.00000000000318
 20
1218.1418959118221
 30
0.0015258207003583
 11
673.00000000000273
 21
1072.14189591182
 31
0.0015258207003583
  0
LINE
  5
3E9
  8
0
 10
673.00000000000364
 20
1368.1418959118189
 30
0.0015258207003583
 11
673.00000000000318
 21
1222.1418959118209
 31
0.0015258207003583
  0
LINE
  5
3EA
  8
0
 10
673.00000000000364
 20
1518.1418959118189
 30
0.0015258207003583
 11
673.00000000000364
 21
1372.1418959118221
 31
0.0015258207003583
  0
LINE
  5
3EB
  8
0
 10
673.00000000000409
 20
1668.1418959118189
 30
0.0015258207003583
 11
673.00000000000409
 21
1522.1418959118221
 31
0.0015258207003583
  0
LINE
  5
3EC
  8
0
 10
673.000000000005
 20
1818.14189591182
 30
0.0015258207003583
 11
673.00000000000409
 21
1672.1418959118189
 31
0.0015258207003583
  0
LINE
  5
3ED
  8
0
 10
673.000000000005
 20
1968.1418959118209
 30
0.0015258207003583
 11
673.000000000005
 21
1822.1418959118189
 31
0.0015258207003583
  0
LINE
  5
3EE
  8
0
 10
673.000000000005
 20
1990.1418959117809
 30
0.0015258207003583
 11
673.000000000005
 21
1972.14189591182
 31
0.0015258207003583
  0
LINE
  5
3EF
  8
0
 10
527.00000000000455
 20
1972.141895911818
 30
0.0015258207003583
 11
527.00000000000455
 21
1990.1418959117921
 31
0.0015258207003583
  0
LINE
  5
3F0
  8
0
 10
527.00000000000455
 20
1822.141895911818
 30
0.0015258207003583
 11
527.00000000000455
 21
1968.1418959118189
 31
0.0015258207003583
  0
LINE
  5
3F1
  8
0
 10
527.00000000000364
 20
1672.1418959118171
 30
0.0015258207003583
 11
527.00000000000455
 21
1818.1418959118189
 31
0.0015258207003583
  0
LINE
  5
3F2
  8
0
 10
527.00000000000364
 20
1522.1418959118209
 30
0.0015258207003583
 11
527.00000000000364
 21
1668.1418959118189
 31
0.0015258207003583
  0
LINE
  5
3F3
  8
0
 10
527.00000000000364
 20
1372.1418959118209
 30
0.0015258207003583
 11
527.00000000000364
 21
1518.141895911818
 31
0.0015258207003583
  0
LINE
  5
3F4
  8
0
 10
527.00000000000273
 20
1222.1418959118209
 30
0.0015258207003583
 11
527.00000000000364
 21
1368.141895911818
 31
0.0015258207003583
  0
LINE
  5
3F5
  8
0
 10
527.00000000000273
 20
1072.14189591182
 30
0.0015258207003583
 11
527.00000000000273
 21
1218.1418959118221
 31
0.0015258207003583
  0
LINE
  5
3F6
  8
0
 10
527.00000000000182
 20
922.14189591182026
 30
0.0015258207003583
 11
527.00000000000273
 21
1068.1418959118209
 31
0.0015258207003583
  0
LINE
  5
3F7
  8
0
 10
527.00000000000182
 20
772.1418959118198
 30
0.0015258207003583
 11
527.00000000000182
 21
918.14189591182128
 31
0.0015258207003583
  0
LINE
  5
3F8
  8
0
 10
527.00000000000182
 20
622.14189591181969
 30
0.0015258207003583
 11
527.00000000000182
 21
768.14189591182082
 31
0.0015258207003583
  0
LINE
  5
3F9
  8
0
 10
527.00000000000091
 20
472.14189591182361
 30
0.0015258207003583
 11
527.00000000000182
 21
618.1418959118206
 31
0.0015258207003583
  0
LINE
  5
3FA
  8
0
 10
527.00000000000182
 20
322.14189591182321
 30
0.0015258207003583
 11
527.00000000000182
 21
468.14189591181997
 31
0.0015258207003583
  0
LINE
  5
3FB
  8
0
 10
527.00000000000182
 20
172.14189591182279
 30
0.0015258207003583
 11
527.00000000000182
 21
318.1418959118198
 31
0.0015258207003583
  0
LINE
  5
3FC
  8
0
 10
527.00000000000091
 20
22.141895911822481
 30
0.0015258207003583
 11
527.00000000000182
 21
168.1418959118237
 31
0.0015258207003583
  0
LINE
  5
3FD
  8
0
 10
527.00000000000182
 20
0.1418959117928596
 30
0.0015258207003583
 11
527.00000000000182
 21
18.14189591182339
 31
0.0015258207003583
  0
LINE
  5
3FE
  8
0
 10
523.00000000000182
 20
18.141895911823379
 30
0.0015258207003583
 11
523.00000000000182
 21
0.141895911792867
 31
0.0015258207003583
  0
LINE
  5
3FF
  8
0
 10
523.00000000000182
 20
168.1418959118237
 30
0.0015258207003583
 11
523.00000000000182
 21
22.141895911822381
 31
0.0015258207003583
  0
LINE
  5
400
  8
0
 10
523.00000000000182
 20
318.14189591181957
 30
0.0015258207003583
 11
523.00000000000182
 21
172.1418959118227
 31
0.0015258207003583
  0
LINE
  5
401
  8
0
 10
523.00000000000182
 20
468.14189591181997
 30
0.0015258207003583
 11
523.00000000000182
 21
322.14189591182298
 31
0.0015258207003583
  0
LINE
  5
402
  8
0
 10
523.00000000000273
 20
618.14189591182014
 30
0.0015258207003583
 11
523.00000000000182
 21
472.14189591182338
 31
0.0015258207003583
  0
LINE
  5
403
  8
0
 10
523.00000000000273
 20
768.1418959118206
 30
0.0015258207003583
 11
523.00000000000273
 21
622.14189591181935
 31
0.0015258207003583
  0
LINE
  5
404
  8
0
 10
523.00000000000364
 20
918.14189591182094
 30
0.0015258207003583
 11
523.00000000000273
 21
772.1418959118198
 31
0.0015258207003583
  0
LINE
  5
405
  8
0
 10
523.00000000000455
 20
1068.1418959118209
 30
0.0015258207003583
 11
523.00000000000364
 21
922.14189591181992
 31
0.0015258207003583
  0
LINE
  5
406
  8
0
 10
523.00000000000455
 20
1218.1418959118209
 30
0.0015258207003583
 11
523.00000000000455
 21
1072.14189591182
 31
0.0015258207003583
  0
LINE
  5
407
  8
0
 10
523.00000000000455
 20
1368.141895911818
 30
0.0015258207003583
 11
523.00000000000455
 21
1222.1418959118209
 31
0.0015258207003583
  0
LINE
  5
408
  8
0
 10
523.00000000000455
 20
1518.141895911818
 30
0.0015258207003583
 11
523.00000000000455
 21
1372.1418959118209
 31
0.0015258207003583
  0
LINE
  5
409
  8
0
 10
523.00000000000455
 20
1668.141895911818
 30
0.0015258207003583
 11
523.00000000000455
 21
1522.1418959118209
 31
0.0015258207003583
  0
LINE
  5
40A
  8
0
 10
523.00000000000455
 20
1818.1418959118189
 30
0.0015258207003583
 11
523.00000000000455
 21
1672.1418959118171
 31
0.0015258207003583
  0
LINE
  5
40B
  8
0
 10
523.00000000000534
 20
1968.1418959118189
 30
0.0015258207003583
 11
523.00000000000455
 21
1822.141895911818
 31
0.0015258207003583
  0
LINE
  5
40C
  8
0
 10
523.00000000000534
 20
1990.1418959117921
 30
0.0015258207003583
 11
523.00000000000534
 21
1972.141895911818
 31
0.0015258207003583
  0
LINE
  5
40D
  8
0
 10
377.0000000000046
 20
1972.1418959118189
 30
0.0015258207003583
 11
377.00000000000551
 21
1990.1418959118059
 31
0.0015258207003583
  0
LINE
  5
40E
  8
0
 10
377.0000000000046
 20
1822.141895911818
 30
0.0015258207003583
 11
377.00000000000551
 21
1968.14189591182
 31
0.0015258207003583
  0
LINE
  5
40F
  8
0
 10
377.0000000000046
 20
1672.141895911818
 30
0.0015258207003583
 11
377.0000000000046
 21
1818.1418959118189
 31
0.0015258207003583
  0
LINE
  5
410
  8
0
 10
377.00000000000358
 20
1522.1418959118221
 30
0.0015258207003583
 11
377.0000000000046
 21
1668.1418959118189
 31
0.0015258207003583
  0
LINE
  5
411
  8
0
 10
377.00000000000358
 20
1372.1418959118221
 30
0.0015258207003583
 11
377.0000000000046
 21
1518.141895911818
 31
0.0015258207003583
  0
LINE
  5
412
  8
0
 10
377.0000000000046
 20
1222.1418959118209
 30
0.0015258207003583
 11
377.0000000000046
 21
1368.1418959118189
 31
0.0015258207003583
  0
LINE
  5
413
  8
0
 10
377.00000000000358
 20
1072.1418959118209
 30
0.0015258207003583
 11
377.0000000000046
 21
1218.1418959118221
 31
0.0015258207003583
  0
LINE
  5
414
  8
0
 10
377.00000000000358
 20
922.14189591182082
 30
0.0015258207003583
 11
377.00000000000358
 21
1068.1418959118221
 31
0.0015258207003583
  0
LINE
  5
415
  8
0
 10
377.00000000000267
 20
772.14189591182048
 30
0.0015258207003583
 11
377.00000000000358
 21
918.14189591182162
 31
0.0015258207003583
  0
LINE
  5
416
  8
0
 10
377.00000000000182
 20
622.14189591182026
 30
0.0015258207003583
 11
377.00000000000267
 21
768.14189591182139
 31
0.0015258207003583
  0
LINE
  5
417
  8
0
 10
377.00000000000182
 20
472.14189591182412
 30
0.0015258207003583
 11
377.00000000000182
 21
618.14189591182105
 31
0.0015258207003583
  0
LINE
  5
418
  8
0
 10
377.00000000000091
 20
322.14189591182378
 30
0.0015258207003583
 11
377.00000000000182
 21
468.1418959118206
 31
0.0015258207003583
  0
LINE
  5
419
  8
0
 10
377.00000000000091
 20
172.14189591182341
 30
0.0015258207003583
 11
377.00000000000091
 21
318.14189591182043
 31
0.0015258207003583
  0
LINE
  5
41A
  8
0
 10
377.00000000000182
 20
22.141895911823031
 30
0.0015258207003583
 11
377.00000000000182
 21
168.14189591182429
 31
0.0015258207003583
  0
LINE
  5
41B
  8
0
 10
377.00000000000182
 20
0.1418959118064047
 30
0.0015258207003583
 11
377.00000000000182
 21
18.141895911823941
 31
0.0015258207003583
  0
LINE
  5
41C
  8
0
 10
373.00000000000182
 20
18.14189591182388
 30
0.0015258207003583
 11
373.00000000000182
 21
0.141895911806412
 31
0.0015258207003583
  0
LINE
  5
41D
  8
0
 10
373.00000000000182
 20
168.14189591182421
 30
0.0015258207003583
 11
373.00000000000182
 21
22.141895911823099
 31
0.0015258207003583
  0
LINE
  5
41E
  8
0
 10
373.00000000000267
 20
318.1418959118202
 30
0.0015258207003583
 11
373.00000000000182
 21
172.14189591182321
 31
0.0015258207003583
  0
LINE
  5
41F
  8
0
 10
373.00000000000267
 20
468.14189591182043
 30
0.0015258207003583
 11
373.00000000000267
 21
322.1418959118235
 31
0.0015258207003583
  0
LINE
  5
420
  8
0
 10
373.00000000000267
 20
618.1418959118206
 30
0.0015258207003583
 11
373.00000000000267
 21
472.14189591182378
 31
0.0015258207003583
  0
LINE
  5
421
  8
0
 10
373.00000000000358
 20
768.14189591182105
 30
0.0015258207003583
 11
373.00000000000267
 21
622.1418959118198
 31
0.0015258207003583
  0
LINE
  5
422
  8
0
 10
373.00000000000358
 20
918.14189591182128
 30
0.0015258207003583
 11
373.00000000000358
 21
772.14189591182026
 31
0.0015258207003583
  0
LINE
  5
423
  8
0
 10
373.0000000000046
 20
1068.1418959118221
 30
0.0015258207003583
 11
373.0000000000046
 21
922.14189591182026
 31
0.0015258207003583
  0
LINE
  5
424
  8
0
 10
373.0000000000046
 20
1218.1418959118221
 30
0.0015258207003583
 11
373.0000000000046
 21
1072.14189591182
 31
0.0015258207003583
  0
LINE
  5
425
  8
0
 10
373.0000000000046
 20
1368.141895911818
 30
0.0015258207003583
 11
373.0000000000046
 21
1222.1418959118209
 31
0.0015258207003583
  0
LINE
  5
426
  8
0
 10
373.00000000000551
 20
1518.141895911818
 30
0.0015258207003583
 11
373.0000000000046
 21
1372.1418959118209
 31
0.0015258207003583
  0
LINE
  5
427
  8
0
 10
373.00000000000551
 20
1668.1418959118189
 30
0.0015258207003583
 11
373.00000000000551
 21
1522.1418959118221
 31
0.0015258207003583
  0
LINE
  5
428
  8
0
 10
373.00000000000551
 20
1818.1418959118189
 30
0.0015258207003583
 11
373.00000000000551
 21
1672.141895911818
 31
0.0015258207003583
  0
LINE
  5
429
  8
0
 10
373.00000000000551
 20
1968.14189591182
 30
0.0015258207003583
 11
373.00000000000551
 21
1822.141895911818
 31
0.0015258207003583
  0
LINE
  5
42A
  8
0
 10
373.00000000000551
 20
1990.1418959118059
 30
0.0015258207003583
 11
373.00000000000551
 21
1972.1418959118189
 31
0.0015258207003583
  0
LINE
  5
42B
  8
0
 10
227.00000000000631
 20
1972.1418959118209
 30
0.0015258207003583
 11
227.00000000000631
 21
1990.1418959118171
 31
0.0015258207003583
  0
LINE
  5
42C
  8
0
 10
227.00000000000551
 20
1822.1418959118209
 30
0.0015258207003583
 11
227.00000000000631
 21
1968.1418959118221
 31
0.0015258207003583
  0
LINE
  5
42D
  8
0
 10
227.00000000000449
 20
1672.14189591182
 30
0.0015258207003583
 11
227.00000000000449
 21
1818.1418959118221
 31
0.0015258207003583
  0
LINE
  5
42E
  8
0
 10
227.00000000000449
 20
1522.1418959118239
 30
0.0015258207003583
 11
227.00000000000449
 21
1668.1418959118209
 31
0.0015258207003583
  0
LINE
  5
42F
  8
0
 10
227.00000000000551
 20
1372.141895911823
 30
0.0015258207003583
 11
227.00000000000449
 21
1518.14189591182
 31
0.0015258207003583
  0
LINE
  5
430
  8
0
 10
227.00000000000449
 20
1222.1418959118221
 30
0.0015258207003583
 11
227.00000000000551
 21
1368.14189591182
 31
0.0015258207003583
  0
LINE
  5
431
  8
0
 10
227.00000000000449
 20
1072.1418959118221
 30
0.0015258207003583
 11
227.00000000000449
 21
1218.141895911823
 31
0.0015258207003583
  0
LINE
  5
432
  8
0
 10
227.00000000000361
 20
922.14189591182117
 30
0.0015258207003583
 11
227.00000000000449
 21
1068.141895911823
 31
0.0015258207003583
  0
LINE
  5
433
  8
0
 10
227.00000000000361
 20
772.1418959118206
 30
0.0015258207003583
 11
227.00000000000361
 21
918.14189591182219
 31
0.0015258207003583
  0
LINE
  5
434
  8
0
 10
227.00000000000361
 20
622.1418959118198
 30
0.0015258207003583
 11
227.00000000000361
 21
768.14189591182139
 31
0.0015258207003583
  0
LINE
  5
435
  8
0
 10
227.00000000000361
 20
472.1418959118235
 30
0.0015258207003583
 11
227.00000000000361
 21
618.1418959118206
 31
0.0015258207003583
  0
LINE
  5
436
  8
0
 10
227.0000000000027
 20
322.14189591182281
 30
0.0015258207003583
 11
227.00000000000361
 21
468.14189591181997
 31
0.0015258207003583
  0
LINE
  5
437
  8
0
 10
227.0000000000027
 20
172.1418959118221
 30
0.0015258207003583
 11
227.0000000000027
 21
318.1418959118194
 31
0.0015258207003583
  0
LINE
  5
438
  8
0
 10
227.0000000000027
 20
22.141895911821461
 30
0.0015258207003583
 11
227.0000000000027
 21
168.14189591182301
 31
0.0015258207003583
  0
LINE
  5
439
  8
0
 10
227.0000000000027
 20
0.1418959118177839
 30
0.0015258207003583
 11
227.0000000000027
 21
18.14189591182237
 31
0.0015258207003583
  0
LINE
  5
43A
  8
0
 10
223.0000000000027
 20
18.14189591182247
 30
0.0015258207003583
 11
223.0000000000027
 21
0.1418959118177913
 31
0.0015258207003583
  0
LINE
  5
43B
  8
0
 10
223.0000000000027
 20
168.1418959118231
 30
0.0015258207003583
 11
223.0000000000027
 21
22.141895911821472
 31
0.0015258207003583
  0
LINE
  5
43C
  8
0
 10
223.00000000000361
 20
318.1418959118194
 30
0.0015258207003583
 11
223.0000000000027
 21
172.1418959118221
 31
0.0015258207003583
  0
LINE
  5
43D
  8
0
 10
223.0000000000046
 20
468.14189591182031
 30
0.0015258207003583
 11
223.00000000000361
 21
322.14189591182281
 31
0.0015258207003583
  0
LINE
  5
43E
  8
0
 10
223.0000000000046
 20
618.14189591182105
 30
0.0015258207003583
 11
223.00000000000361
 21
472.14189591182378
 31
0.0015258207003583
  0
LINE
  5
43F
  8
0
 10
223.0000000000046
 20
768.14189591182139
 30
0.0015258207003583
 11
223.0000000000046
 21
622.1418959118198
 31
0.0015258207003583
  0
LINE
  5
440
  8
0
 10
223.0000000000046
 20
918.14189591182196
 30
0.0015258207003583
 11
223.0000000000046
 21
772.14189591182048
 31
0.0015258207003583
  0
LINE
  5
441
  8
0
 10
223.00000000000551
 20
1068.1418959118221
 30
0.0015258207003583
 11
223.0000000000046
 21
922.14189591182117
 31
0.0015258207003583
  0
LINE
  5
442
  8
0
 10
223.00000000000551
 20
1218.141895911823
 30
0.0015258207003583
 11
223.00000000000551
 21
1072.1418959118221
 31
0.0015258207003583
  0
LINE
  5
443
  8
0
 10
223.00000000000551
 20
1368.14189591182
 30
0.0015258207003583
 11
223.00000000000551
 21
1222.1418959118221
 31
0.0015258207003583
  0
LINE
  5
444
  8
0
 10
223.00000000000551
 20
1518.1418959118209
 30
0.0015258207003583
 11
223.00000000000551
 21
1372.141895911823
 31
0.0015258207003583
  0
LINE
  5
445
  8
0
 10
223.00000000000551
 20
1668.1418959118209
 30
0.0015258207003583
 11
223.00000000000551
 21
1522.1418959118239
 31
0.0015258207003583
  0
LINE
  5
446
  8
0
 10
223.00000000000551
 20
1818.1418959118221
 30
0.0015258207003583
 11
223.00000000000551
 21
1672.14189591182
 31
0.0015258207003583
  0
LINE
  5
447
  8
0
 10
223.00000000000551
 20
1968.1418959118221
 30
0.0015258207003583
 11
223.00000000000551
 21
1822.1418959118209
 31
0.0015258207003583
  0
LINE
  5
448
  8
0
 10
223.00000000000639
 20
1990.1418959118171
 30
0.0015258207003583
 11
223.00000000000551
 21
1972.1418959118209
 31
0.0015258207003583
  0
LINE
  5
449
  8
0
 10
77.000000000006366
 20
1972.14189591182
 30
0.0015258207003583
 11
77.000000000006366
 21
1990.1418959118289
 31
0.0015258207003583
  0
LINE
  5
44A
  8
0
 10
77.000000000006366
 20
1822.1418959118189
 30
0.0015258207003583
 11
77.000000000006366
 21
1968.1418959118209
 31
0.0015258207003583
  0
LINE
  5
44B
  8
0
 10
77.000000000006366
 20
1672.141895911818
 30
0.0015258207003583
 11
77.000000000006366
 21
1818.14189591182
 31
0.0015258207003583
  0
LINE
  5
44C
  8
0
 10
77.000000000006366
 20
1522.1418959118221
 30
0.0015258207003583
 11
77.000000000006366
 21
1668.1418959118189
 31
0.0015258207003583
  0
LINE
  5
44D
  8
0
 10
77.000000000006366
 20
1372.1418959118221
 30
0.0015258207003583
 11
77.000000000006366
 21
1518.1418959118189
 31
0.0015258207003583
  0
LINE
  5
44E
  8
0
 10
77.000000000006366
 20
1222.1418959118209
 30
0.0015258207003583
 11
77.000000000006366
 21
1368.141895911818
 31
0.0015258207003583
  0
LINE
  5
44F
  8
0
 10
77.000000000006366
 20
1072.14189591182
 30
0.0015258207003583
 11
77.000000000006366
 21
1218.1418959118221
 31
0.0015258207003583
  0
LINE
  5
450
  8
0
 10
77.000000000006366
 20
922.14189591181957
 30
0.0015258207003583
 11
77.000000000006366
 21
1068.1418959118209
 31
0.0015258207003583
  0
LINE
  5
451
  8
0
 10
77.000000000006366
 20
772.14189591181889
 30
0.0015258207003583
 11
77.000000000006366
 21
918.14189591182037
 31
0.0015258207003583
  0
LINE
  5
452
  8
0
 10
77.000000000005457
 20
622.14189591181821
 30
0.0015258207003583
 11
77.000000000006366
 21
768.1418959118198
 31
0.0015258207003583
  0
LINE
  5
453
  8
0
 10
77.000000000004533
 20
472.1418959118219
 30
0.0015258207003583
 11
77.000000000005457
 21
618.14189591181901
 31
0.0015258207003583
  0
LINE
  5
454
  8
0
 10
77.000000000003638
 20
322.14189591182128
 30
0.0015258207003583
 11
77.000000000004533
 21
468.14189591181838
 31
0.0015258207003583
  0
LINE
  5
455
  8
0
 10
77.000000000003638
 20
172.14189591182051
 30
0.0015258207003583
 11
77.000000000003638
 21
318.14189591181781
 31
0.0015258207003583
  0
LINE
  5
456
  8
0
 10
77.000000000003638
 20
22.141895911819852
 30
0.0015258207003583
 11
77.000000000003638
 21
168.14189591182139
 31
0.0015258207003583
  0
LINE
  5
457
  8
0
 10
77.000000000003638
 20
0.1418959118291632
 30
0.0015258207003583
 11
77.000000000003638
 21
18.14189591182075
 31
0.0015258207003583
  0
LINE
  5
458
  8
0
 10
73.000000000002728
 20
18.141895911820789
 30
0.0015258207003583
 11
73.000000000002728
 21
0.1418959118291706
 31
0.0015258207003583
  0
LINE
  5
459
  8
0
 10
73.000000000002728
 20
168.14189591182139
 30
0.0015258207003583
 11
73.000000000002728
 21
22.141895911819791
 31
0.0015258207003583
  0
LINE
  5
45A
  8
0
 10
73.000000000002728
 20
318.1418959118177
 30
0.0015258207003583
 11
73.000000000002728
 21
172.1418959118204
 31
0.0015258207003583
  0
LINE
  5
45B
  8
0
 10
73.000000000002728
 20
468.14189591181821
 30
0.0015258207003583
 11
73.000000000002728
 21
322.14189591182122
 31
0.0015258207003583
  0
LINE
  5
45C
  8
0
 10
73.000000000003624
 20
618.14189591181878
 30
0.0015258207003583
 11
73.000000000002728
 21
472.14189591182168
 31
0.0015258207003583
  0
LINE
  5
45D
  8
0
 10
73.000000000003624
 20
768.14189591181957
 30
0.0015258207003583
 11
73.000000000003624
 21
622.14189591181776
 31
0.0015258207003583
  0
LINE
  5
45E
  8
0
 10
73.000000000003624
 20
918.14189591182026
 30
0.0015258207003583
 11
73.000000000003624
 21
772.14189591181878
 31
0.0015258207003583
  0
LINE
  5
45F
  8
0
 10
73.000000000004547
 20
1068.1418959118209
 30
0.0015258207003583
 11
73.000000000004547
 21
922.14189591181935
 31
0.0015258207003583
  0
LINE
  5
460
  8
0
 10
73.000000000005457
 20
1218.1418959118209
 30
0.0015258207003583
 11
73.000000000005457
 21
1072.14189591182
 31
0.0015258207003583
  0
LINE
  5
461
  8
0
 10
73.000000000005457
 20
1368.141895911818
 30
0.0015258207003583
 11
73.000000000005457
 21
1222.1418959118209
 31
0.0015258207003583
  0
LINE
  5
462
  8
0
 10
73.000000000005457
 20
1518.141895911818
 30
0.0015258207003583
 11
73.000000000005457
 21
1372.1418959118209
 31
0.0015258207003583
  0
LINE
  5
463
  8
0
 10
73.000000000005457
 20
1668.1418959118189
 30
0.0015258207003583
 11
73.000000000005457
 21
1522.1418959118221
 31
0.0015258207003583
  0
LINE
  5
464
  8
0
 10
73.000000000006366
 20
1818.14189591182
 30
0.0015258207003583
 11
73.000000000005457
 21
1672.141895911818
 31
0.0015258207003583
  0
LINE
  5
465
  8
0
 10
73.000000000006366
 20
1968.1418959118209
 30
0.0015258207003583
 11
73.000000000006366
 21
1822.1418959118189
 31
0.0015258207003583
  0
LINE
  5
466
  8
0
 10
73.000000000007276
 20
1990.1418959118289
 30
0.0015258207003583
 11
73.000000000007276
 21
1972.14189591182
 31
0.0015258207003583
  0
LINE
  5
467
  8
0
 10
0.0
 20
1968.14189591182
 30
0.0015258207003583
 11
4650.0
 21
1968.14189591182
 31
0.0015258207003583
  0
LINE
  5
468
  8
0
 10
4650.0
 20
1972.14189591182
 30
0.0015258207003583
 11
0.0
 21
1972.1418959118209
 31
0.0015258207003583
  0
LINE
  5
469
  8
0
 10
0.0
 20
1818.14189591182
 30
0.0015258207003583
 11
4650.0
 21
1818.14189591182
 31
0.0015258207003583
  0
LINE
  5
46A
  8
0
 10
4650.0
 20
1822.1418959118209
 30
0.0015258207003583
 11
0.0
 21
1822.1418959118209
 31
0.0015258207003583
  0
LINE
  5
46B
  8
0
 10
0.0
 20
1668.14189591182
 30
0.0015258207003583
 11
4650.0
 21
1668.14189591182
 31
0.0015258207003583
  0
LINE
  5
46C
  8
0
 10
4650.0
 20
1672.14189591182
 30
0.0015258207003583
 11
0.0
 21
1672.1418959118209
 31
0.0015258207003583
  0
LINE
  5
46D
  8
0
 10
0.0
 20
1518.14189591182
 30
0.0015258207003583
 11
4650.0
 21
1518.14189591182
 31
0.0015258207003583
  0
LINE
  5
46E
  8
0
 10
4650.0
 20
1522.14189591182
 30
0.0015258207003583
 11
0.0
 21
1522.14189591182
 31
0.0015258207003583
  0
LINE
  5
46F
  8
0
 10
0.0
 20
1368.1418959118209
 30
0.0015258207003583
 11
4650.0
 21
1368.14189591182
 31
0.0015258207003583
  0
LINE
  5
470
  8
0
 10
4650.0
 20
1372.1418959118209
 30
0.0015258207003583
 11
0.0
 21
1372.1418959118209
 31
0.0015258207003583
  0
LINE
  5
471
  8
0
 10
0.0
 20
1218.1418959118209
 30
0.0015258207003583
 11
4650.0
 21
1218.1418959118209
 31
0.0015258207003583
  0
LINE
  5
472
  8
0
 10
4650.0
 20
1222.1418959118209
 30
0.0015258207003583
 11
0.0
 21
1222.1418959118209
 31
0.0015258207003583
  0
LINE
  5
473
  8
0
 10
0.0
 20
1068.1418959118209
 30
0.0015258207003583
 11
4650.0
 21
1068.1418959118209
 31
0.0015258207003583
  0
LINE
  5
474
  8
0
 10
4650.0
 20
1072.1418959118209
 30
0.0015258207003583
 11
0.0
 21
1072.1418959118209
 31
0.0015258207003583
  0
LINE
  5
475
  8
0
 10
0.0
 20
918.14189591182128
 30
0.0015258207003583
 11
4650.0
 21
918.14189591182094
 31
0.0015258207003583
  0
LINE
  5
476
  8
0
 10
4650.0
 20
922.14189591182082
 30
0.0015258207003583
 11
0.0
 21
922.14189591182117
 31
0.0015258207003583
  0
LINE
  5
477
  8
0
 10
0.0
 20
768.14189591182128
 30
0.0015258207003583
 11
4650.0
 21
768.14189591182094
 31
0.0015258207003583
  0
LINE
  5
478
  8
0
 10
4650.0
 20
772.14189591182082
 30
0.0015258207003583
 11
0.0
 21
772.14189591182105
 31
0.0015258207003583
  0
LINE
  5
479
  8
0
 10
0.0
 20
618.14189591182128
 30
0.0015258207003583
 11
4650.0
 21
618.14189591182094
 31
0.0015258207003583
  0
LINE
  5
47A
  8
0
 10
4650.0
 20
622.14189591182082
 30
0.0015258207003583
 11
0.0
 21
622.14189591182105
 31
0.0015258207003583
  0
LINE
  5
47B
  8
0
 10
0.0
 20
468.14189591182139
 30
0.0015258207003583
 11
4650.0
 21
468.14189591182111
 31
0.0015258207003583
  0
LINE
  5
47C
  8
0
 10
4650.0
 20
472.14189591182111
 30
0.0015258207003583
 11
0.0
 21
472.14189591182139
 31
0.0015258207003583
  0
LINE
  5
47D
  8
0
 10
0.0
 20
318.14189591182139
 30
0.0015258207003583
 11
4650.0
 21
318.14189591182111
 31
0.0015258207003583
  0
LINE
  5
47E
  8
0
 10
4650.0
 20
322.14189591182111
 30
0.0015258207003583
 11
0.0
 21
322.14189591182139
 31
0.0015258207003583
  0
LINE
  5
47F
  8
0
 10
0.0
 20
168.14189591182159
 30
0.0015258207003583
 11
4650.0000000000009
 21
168.14189591182139
 31
0.0015258207003583
  0
LINE
  5
480
  8
0
 10
4650.0000000000009
 20
172.14189591182131
 30
0.0015258207003583
 11
0.0
 21
172.14189591182159
 31
0.0015258207003583
  0
LINE
  5
481
  8
0
 10
0.0
 20
18.141895911821639
 30
0.0015258207003583
 11
4650.0
 21
18.141895911821361
 31
0.0015258207003583
  0
LINE
  5
482
  8
0
 10
4650.0
 20
22.141895911821351
 30
0.0015258207003583
 11
0.0
 21
22.141895911821639
 31
0.0015258207003583
  0
INSERT
  5
4F6
  8
HURRICANE_09_274_5329_03_3
  2
HURRICANE
 10
0.0
 20
0.0
 30
0.0
  0
VIEWPORT
  5
50F
 67
     1
  8
0
 10
143.43592834472651
 20
99.959580898284912
 30
0.0
 40
415.04454626822121
 41
222.15178063964851
 68
     1
 69
     1
1001
ACAD
1000
MVIEW
1002
{
1070
    16
1010
0.0
1020
0.0
1030
0.0
1010
0.0
1020
0.0
1030
1.0
1040
0.0
1040
222.15178063964851
1040
143.43592834472651
1040
99.959580898284912
1040
50.0
1040
0.0
1040
0.0
1070
     0
1070
  1000
1070
     1
1070
     1
1070
     0
1070
     0
1070
     0
1070
     0
1040
0.0
1040
0.0
1040
0.0
1040
10.0
1040
10.0
1040
10.0
1040
10.0
1070
     0
1002
{
1002
}
1002
}
  0
VIEWPORT
  5
513
 67
     1
  8
0
 10
143.4359130859375
 20
99.95958781242372
 30
0.0
 40
229.49746093749999
 41
159.9353404998779
 68
     2
 69
     2
1001
ACAD
1000
MVIEW
1002
{
1070
    16
1010
0.0
1020
0.0
1030
0.0
1010
0.0
1020
0.0
1030
1.0
1040
0.0
1040
3275.0657271283658
1040
2313.490720936798
1040
992.35750404629391
1040
50.0
1040
0.0
1040
0.0
1070
     0
1070
  1000
1070
     1
1070
     3
1070
     0
1070
     0
1070
     0
1070
     0
1040
0.0
1040
0.0
1040
0.0
1040
1.0
1040
1.0
1040
10.0
1040
10.0
1070
     0
1002
{
1002
}
1002
}
  0
ENDSEC
  0
EOF
