  0
SECTION
  2
HEADER
  9
$ACADVER
  1
AC1009
  9
$INSBASE
 10
0.0
 20
0.0
 30
0.0
  9
$EXTMIN
 10
-23.018558126405399
 20
-5.4268878192411121
 30
0.0
  9
$EXTMAX
 10
6900.0
 20
2400.0000000000082
 30
0.0
  9
$LIMMIN
 10
0.0
 20
0.0
  9
$LIMMAX
 10
12.0
 20
9.0
  9
$ORTHOMODE
 70
     0
  9
$REGENMODE
 70
     1
  9
$FILLMODE
 70
     1
  9
$QTEXTMODE
 70
     0
  9
$MIRRTEXT
 70
     0
  9
$DRAGMODE
 70
     2
  9
$LTSCALE
 40
1.0
  9
$OSMODE
 70
     0
  9
$ATTMODE
 70
     1
  9
$TEXTSIZE
 40
0.2
  9
$TRACEWID
 40
0.05
  9
$TEXTSTYLE
  7
ARIAL
  9
$CLAYER
  8
0
  9
$CELTYPE
  6
BYLAYER
  9
$CECOLOR
 62
   256
  9
$DIMSCALE
 40
50.0
  9
$DIMASZ
 40
1.8
  9
$DIMEXO
 40
1.8
  9
$DIMDLI
 40
5.0
  9
$DIMRND
 40
0.0
  9
$DIMDLE
 40
1.8
  9
$DIMEXE
 40
1.8
  9
$DIMTP
 40
0.0
  9
$DIMTM
 40
0.0
  9
$DIMTXT
 40
2.5
  9
$DIMCEN
 40
1.8
  9
$DIMTSZ
 40
0.0
  9
$DIMTOL
 70
     0
  9
$DIMLIM
 70
     0
  9
$DIMTIH
 70
     0
  9
$DIMTOH
 70
     0
  9
$DIMSE1
 70
     0
  9
$DIMSE2
 70
     0
  9
$DIMTAD
 70
     1
  9
$DIMZIN
 70
     0
  9
$DIMBLK
  1
ARCHTICK
  9
$DIMASO
 70
     1
  9
$DIMSHO
 70
     1
  9
$DIMPOST
  1

  9
$DIMAPOST
  1

  9
$DIMALT
 70
     0
  9
$DIMALTD
 70
     2
  9
$DIMALTF
 40
0.0394
  9
$DIMLFAC
 40
1.0
  9
$DIMTOFL
 70
     0
  9
$DIMTVP
 40
0.0
  9
$DIMTIX
 70
     0
  9
$DIMSOXD
 70
     0
  9
$DIMSAH
 70
     0
  9
$DIMBLK1
  1

  9
$DIMBLK2
  1

  9
$DIMSTYLE
  2
1_TO_50
  9
$DIMCLRD
 70
   256
  9
$DIMCLRE
 70
   256
  9
$DIMCLRT
 70
   256
  9
$DIMTFAC
 40
1.0
  9
$DIMGAP
 40
1.0
  9
$LUNITS
 70
     2
  9
$LUPREC
 70
     1
  9
$SKETCHINC
 40
0.1
  9
$FILLETRAD
 40
0.0
  9
$AUNITS
 70
     1
  9
$AUPREC
 70
     4
  9
$MENU
  1
.
  9
$ELEVATION
 40
0.0
  9
$PELEVATION
 40
0.0
  9
$THICKNESS
 40
0.0
  9
$LIMCHECK
 70
     0
  9
$BLIPMODE
 70
     0
  9
$CHAMFERA
 40
0.0
  9
$CHAMFERB
 40
0.0
  9
$SKPOLY
 70
     0
  9
$TDCREATE
 40
2455078.8019558219
  9
$TDUPDATE
 40
2455873.4889895832
  9
$TDINDWG
 40
0.0007087037
  9
$TDUSRTIMER
 40
0.0007087037
  9
$USRTIMER
 70
     1
  9
$ANGBASE
 50
0.0
  9
$ANGDIR
 70
     0
  9
$PDMODE
 70
     0
  9
$PDSIZE
 40
0.0
  9
$PLINEWID
 40
0.0
  9
$COORDS
 70
     1
  9
$SPLFRAME
 70
     0
  9
$SPLINETYPE
 70
     6
  9
$SPLINESEGS
 70
     8
  9
$ATTDIA
 70
     0
  9
$ATTREQ
 70
     1
  9
$HANDLING
 70
     1
  9
$HANDSEED
  5
6A4
  9
$SURFTAB1
 70
     6
  9
$SURFTAB2
 70
     6
  9
$SURFTYPE
 70
     6
  9
$SURFU
 70
     6
  9
$SURFV
 70
     6
  9
$UCSNAME
  2

  9
$UCSORG
 10
0.0
 20
0.0
 30
0.0
  9
$UCSXDIR
 10
1.0
 20
0.0
 30
0.0
  9
$UCSYDIR
 10
0.0
 20
1.0
 30
0.0
  9
$PUCSNAME
  2

  9
$PUCSORG
 10
0.0
 20
0.0
 30
0.0
  9
$PUCSXDIR
 10
1.0
 20
0.0
 30
0.0
  9
$PUCSYDIR
 10
0.0
 20
1.0
 30
0.0
  9
$USERI1
 70
     0
  9
$USERI2
 70
     0
  9
$USERI3
 70
     0
  9
$USERI4
 70
     0
  9
$USERI5
 70
     0
  9
$USERR1
 40
0.0
  9
$USERR2
 40
0.0
  9
$USERR3
 40
0.0
  9
$USERR4
 40
0.0
  9
$USERR5
 40
0.0
  9
$WORLDVIEW
 70
     1
  9
$SHADEDGE
 70
     3
  9
$SHADEDIF
 70
    70
  9
$TILEMODE
 70
     0
  9
$MAXACTVP
 70
    64
  9
$PLIMCHECK
 70
     0
  9
$PEXTMIN
 10
29.068184208869919
 20
20.362332463264458
 30
0.0
  9
$PEXTMAX
 10
261.61365787982942
 20
183.26099216938019
 30
0.0
  9
$PLIMMIN
 10
-3.17498779296875
 20
-3.1749999523162842
  9
$PLIMMAX
 10
293.85684204101562
 20
206.79832768440241
  9
$UNITMODE
 70
     0
  9
$VISRETAIN
 70
     1
  9
$PLINEGEN
 70
     0
  9
$PSLTSCALE
 70
     1
  0
ENDSEC
  0
SECTION
  2
TABLES
  0
TABLE
  2
VPORT
 70
     1
  0
VPORT
  2
*ACTIVE
 70
     0
 10
0.0
 20
0.0
 11
1.0
 21
1.0
 12
3438.4185951533918
 22
1197.253423553361
 13
0.0
 23
0.0
 14
1.0
 24
1.0
 15
0.0
 25
0.0
 16
0.0
 26
0.0
 36
1.0
 17
0.0
 27
0.0
 37
0.0
 40
3610.1852974182229
 41
1.923857868020304
 42
50.0
 43
0.0
 44
0.0
 50
0.0
 51
0.0
 71
     0
 72
   100
 73
     1
 74
     3
 75
     0
 76
     0
 77
     0
 78
     0
  0
ENDTAB
  0
TABLE
  2
LTYPE
 70
     2
  0
LTYPE
  2
CONTINUOUS
 70
     0
  3
Solid line
 72
    65
 73
     0
 40
0.0
  0
LTYPE
  2
DASH
 70
     0
  3

 72
    65
 73
     2
 40
6.3499999999999979
 49
3.1749999999999989
 49
-3.1749999999999989
  0
ENDTAB
  0
TABLE
  2
LAYER
 70
     5
  0
LAYER
  2
0
 70
     0
 62
     7
  6
CONTINUOUS
  0
LAYER
  2
MESH
 70
     0
 62
     3
  6
CONTINUOUS
  0
LAYER
  2
G-PLANOTM
 70
     0
 62
     6
  6
DASH
  0
LAYER
  2
HURRICANE_09_274_5329_03_3
 70
     0
 62
     7
  6
CONTINUOUS
  0
ENDTAB
  0
TABLE
  2
STYLE
 70
     2
  0
STYLE
  2
STANDARD
 70
     0
 40
0.0
 41
1.0
 50
0.0
 71
     0
 42
0.2
  3
txt
  4

  0
STYLE
  2
ARIAL
 70
     0
 40
0.0
 41
1.0
 50
0.0
 71
     0
 42
0.2
  3
txt
  4

  0
ENDTAB
  0
TABLE
  2
VIEW
 70
     1
  0
ENDTAB
  0
TABLE
  2
UCS
 70
     0
  0
ENDTAB
  0
TABLE
  2
APPID
 70
    14
  0
APPID
  2
ACAD
 70
     0
  0
APPID
  2
ACADANNOTATIVE
 70
     0
  0
APPID
  2
REVIT
 70
     0
  0
APPID
  2
ACAD_MLEADERVER
 70
     0
  0
APPID
  2
ACAUTHENVIRON
 70
     0
  0
APPID
  2
ACDBDYNAMICBLOCKTRUENAME
 70
     0
  0
APPID
  2
ACDBDYNAMICBLOCKGUID
 70
     0
  0
APPID
  2
ACAD_DSTYLE_DIMEXT_ENABLED
 70
     0
  0
APPID
  2
ACAD_DSTYLE_DIMEXT_LENGTH
 70
     0
  0
APPID
  2
ACAD_PSEXT
 70
     0
  0
APPID
  2
ACAD_DSTYLE_DIMJAG
 70
     0
  0
APPID
  2
ACAD_DSTYLE_DIMTALN
 70
     0
  0
APPID
  2
PE_URL
 70
     0
  0
APPID
  2
ACAD_EXEMPT_FROM_CAD_STANDARDS
 70
     0
  0
ENDTAB
  0
TABLE
  2
DIMSTYLE
 70
     2
  0
DIMSTYLE
  2
1_TO_50
 70
     0
  3

  4

  5
ARCHTICK
  6

  7

 40
50.0
 41
1.8
 42
1.8
 43
5.0
 44
1.8
 45
0.0
 46
1.8
 47
0.0
 48
0.0
140
2.5
141
1.8
142
0.0
143
0.0394
144
1.0
145
0.0
146
1.0
147
1.0
 71
     0
 72
     0
 73
     0
 74
     0
 75
     0
 76
     0
 77
     1
 78
     0
170
     0
171
     2
172
     0
173
     0
174
     0
175
     0
176
   256
177
   256
178
   256
  0
ENDTAB
  0
ENDSEC
  0
SECTION
  2
BLOCKS
  0
BLOCK
  8
0
  2
$MODEL_SPACE
 70
     0
 10
0.0
 20
0.0
 30
0.0
  3
$MODEL_SPACE
  1

  0
ENDBLK
  5
79
  8
0
  0
BLOCK
 67
     1
  8
0
  2
$PAPER_SPACE
 70
     0
 10
0.0
 20
0.0
 30
0.0
  3
$PAPER_SPACE
  1

  0
ENDBLK
  5
7D
 67
     1
  8
0
  0
BLOCK
  8
0
  2
MESH_-_212ST-0-212ST
 70
     0
 10
0.0
 20
0.0
 30
0.0
  3
MESH_-_212ST-0-212ST
  1

  0
LINE
  5
2F1
  8
MESH
 10
2104.5000000000032
 20
6899.9999999999982
 30
0.0
 11
2095.5000000000032
 21
6899.9999999999982
 31
0.0
  0
LINE
  5
2F2
  8
MESH
 10
2095.5000000000032
 20
0.0
 30
0.0
 11
2104.5000000000032
 21
0.0
 31
0.0
  0
LINE
  5
2F3
  8
MESH
 10
1804.500000000002
 20
6899.9999999999982
 30
0.0
 11
1795.500000000002
 21
6899.9999999999982
 31
0.0
  0
LINE
  5
2F4
  8
MESH
 10
1795.500000000002
 20
0.0
 30
0.0
 11
1804.500000000002
 21
0.0
 31
0.0
  0
LINE
  5
2F5
  8
MESH
 10
1504.5000000000009
 20
6899.9999999999982
 30
0.0
 11
1495.5000000000009
 21
6899.9999999999982
 31
0.0
  0
LINE
  5
2F6
  8
MESH
 10
1495.5000000000009
 20
0.0
 30
0.0
 11
1504.5000000000009
 21
0.0
 31
0.0
  0
LINE
  5
2F7
  8
MESH
 10
1204.5000000000009
 20
6899.9999999999982
 30
0.0
 11
1195.5
 21
6899.9999999999982
 31
0.0
  0
LINE
  5
2F8
  8
MESH
 10
1195.5
 20
0.0
 30
0.0
 11
1204.5000000000009
 21
0.0
 31
0.0
  0
LINE
  5
2F9
  8
MESH
 10
904.50000000000011
 20
6899.9999999999982
 30
0.0
 11
895.5
 21
6899.9999999999982
 31
0.0
  0
LINE
  5
2FA
  8
MESH
 10
895.5
 20
0.0
 30
0.0
 11
904.50000000000011
 21
0.0
 31
0.0
  0
LINE
  5
2FB
  8
MESH
 10
604.49999999999955
 20
6899.9999999999982
 30
0.0
 11
595.49999999999955
 21
6899.9999999999982
 31
0.0
  0
LINE
  5
2FC
  8
MESH
 10
595.49999999999955
 20
-0.0000000000010829
 30
0.0
 11
604.49999999999955
 21
-0.0000000000010829
 31
0.0
  0
LINE
  5
2FD
  8
MESH
 10
-0.0000000002422835
 20
304.49999999997181
 30
0.0
 11
-0.0000000002422995
 21
295.49999999997181
 31
0.0
  0
LINE
  5
2FE
  8
MESH
 10
2399.9999999997581
 20
295.49999999996749
 30
0.0
 11
2399.9999999997581
 21
304.49999999996749
 31
0.0
  0
LINE
  5
2FF
  8
MESH
 10
-0.0000000002301013
 20
604.49999999997294
 30
0.0
 11
-0.0000000002301173
 21
595.49999999997294
 31
0.0
  0
LINE
  5
300
  8
MESH
 10
2399.9999999997699
 20
595.49999999996862
 30
0.0
 11
2399.9999999997699
 21
604.49999999996862
 31
0.0
  0
LINE
  5
301
  8
MESH
 10
-0.000000000217919
 20
904.49999999997397
 30
0.0
 11
-0.000000000217935
 21
895.49999999997385
 31
0.0
  0
LINE
  5
302
  8
MESH
 10
2399.9999999997822
 20
895.49999999996965
 30
0.0
 11
2399.9999999997822
 21
904.49999999996965
 31
0.0
  0
LINE
  5
303
  8
MESH
 10
-0.0000000002057368
 20
1204.499999999975
 30
0.0
 11
-0.0000000002057527
 21
1195.499999999975
 31
0.0
  0
LINE
  5
304
  8
MESH
 10
2399.9999999997949
 20
1195.49999999997
 30
0.0
 11
2399.9999999997949
 21
1204.4999999999709
 31
0.0
  0
LINE
  5
305
  8
MESH
 10
-0.0000000001935545
 20
1504.4999999999759
 30
0.0
 11
-0.0000000001935705
 21
1495.4999999999759
 31
0.0
  0
LINE
  5
306
  8
MESH
 10
2399.9999999998072
 20
1495.499999999972
 30
0.0
 11
2399.9999999998072
 21
1504.499999999972
 31
0.0
  0
LINE
  5
307
  8
MESH
 10
-0.0000000001813723
 20
1804.499999999977
 30
0.0
 11
-0.0000000001813882
 21
1795.499999999977
 31
0.0
  0
LINE
  5
308
  8
MESH
 10
2399.999999999819
 20
1795.4999999999729
 30
0.0
 11
2399.999999999819
 21
1804.4999999999729
 31
0.0
  0
LINE
  5
309
  8
MESH
 10
-0.00000000016919
 20
2104.4999999999782
 30
0.0
 11
-0.000000000169206
 21
2095.4999999999791
 31
0.0
  0
LINE
  5
30A
  8
MESH
 10
2399.9999999998308
 20
2095.4999999999741
 30
0.0
 11
2399.9999999998308
 21
2104.4999999999741
 31
0.0
  0
LINE
  5
30B
  8
MESH
 10
-0.0000000001570077
 20
2404.49999999998
 30
0.0
 11
-0.0000000001570237
 21
2395.49999999998
 31
0.0
  0
LINE
  5
30C
  8
MESH
 10
2399.999999999844
 20
2395.499999999975
 30
0.0
 11
2399.999999999844
 21
2404.4999999999759
 31
0.0
  0
LINE
  5
30D
  8
MESH
 10
-0.0000000001448255
 20
2704.4999999999809
 30
0.0
 11
-0.0000000001448415
 21
2695.4999999999809
 31
0.0
  0
LINE
  5
30E
  8
MESH
 10
2399.9999999998558
 20
2695.4999999999759
 30
0.0
 11
2399.9999999998558
 21
2704.4999999999759
 31
0.0
  0
LINE
  5
30F
  8
MESH
 10
-0.0000000001326432
 20
3004.4999999999818
 30
0.0
 11
-0.0000000001326592
 21
2995.4999999999818
 31
0.0
  0
LINE
  5
310
  8
MESH
 10
2399.9999999998681
 20
2995.4999999999782
 30
0.0
 11
2399.9999999998681
 21
3004.4999999999782
 31
0.0
  0
LINE
  5
311
  8
MESH
 10
-0.000000000120461
 20
3304.4999999999832
 30
0.0
 11
-0.000000000120477
 21
3295.4999999999832
 31
0.0
  0
LINE
  5
312
  8
MESH
 10
2399.9999999998799
 20
3295.4999999999791
 30
0.0
 11
2399.9999999998799
 21
3304.4999999999791
 31
0.0
  0
LINE
  5
313
  8
MESH
 10
-0.0000000001082787
 20
3604.4999999999841
 30
0.0
 11
-0.0000000001082947
 21
3595.4999999999841
 31
0.0
  0
LINE
  5
314
  8
MESH
 10
2399.9999999998922
 20
3595.49999999998
 30
0.0
 11
2399.9999999998922
 21
3604.49999999998
 31
0.0
  0
LINE
  5
315
  8
MESH
 10
-0.0000000000960965
 20
3904.499999999985
 30
0.0
 11
-0.0000000000961125
 21
3895.499999999985
 31
0.0
  0
LINE
  5
316
  8
MESH
 10
2399.999999999904
 20
3895.4999999999809
 30
0.0
 11
2399.999999999904
 21
3904.4999999999809
 31
0.0
  0
LINE
  5
317
  8
MESH
 10
-0.0000000000839142
 20
4204.4999999999873
 30
0.0
 11
-0.0000000000839302
 21
4195.4999999999864
 31
0.0
  0
LINE
  5
318
  8
MESH
 10
2399.9999999999159
 20
4195.4999999999818
 30
0.0
 11
2399.9999999999159
 21
4204.4999999999809
 31
0.0
  0
LINE
  5
319
  8
MESH
 10
-0.000000000071732
 20
4504.4999999999873
 30
0.0
 11
-0.0000000000717479
 21
4495.4999999999873
 31
0.0
  0
LINE
  5
31A
  8
MESH
 10
2399.9999999999291
 20
4495.4999999999818
 30
0.0
 11
2399.9999999999291
 21
4504.4999999999827
 31
0.0
  0
LINE
  5
31B
  8
MESH
 10
-0.0000000000595497
 20
4804.4999999999882
 30
0.0
 11
-0.0000000000595657
 21
4795.4999999999882
 31
0.0
  0
LINE
  5
31C
  8
MESH
 10
2399.99999999994
 20
4795.4999999999827
 30
0.0
 11
2399.99999999994
 21
4804.4999999999836
 31
0.0
  0
LINE
  5
31D
  8
MESH
 10
-0.0000000000473674
 20
5104.49999999999
 30
0.0
 11
-0.0000000000473834
 21
5095.4999999999891
 31
0.0
  0
LINE
  5
31E
  8
MESH
 10
2399.9999999999532
 20
5095.4999999999864
 30
0.0
 11
2399.9999999999532
 21
5104.4999999999854
 31
0.0
  0
LINE
  5
31F
  8
MESH
 10
-0.0000000000351852
 20
5404.4999999999909
 30
0.0
 11
-0.0000000000352012
 21
5395.4999999999909
 31
0.0
  0
LINE
  5
320
  8
MESH
 10
2399.999999999965
 20
5395.4999999999864
 30
0.0
 11
2399.999999999965
 21
5404.4999999999873
 31
0.0
  0
LINE
  5
321
  8
MESH
 10
-0.0000000000230029
 20
5704.4999999999918
 30
0.0
 11
-0.0000000000230189
 21
5695.4999999999918
 31
0.0
  0
LINE
  5
322
  8
MESH
 10
2399.9999999999768
 20
5695.4999999999873
 30
0.0
 11
2399.9999999999768
 21
5704.4999999999873
 31
0.0
  0
LINE
  5
323
  8
MESH
 10
-0.0000000000108207
 20
6004.4999999999927
 30
0.0
 11
-0.0000000000108367
 21
5995.4999999999918
 31
0.0
  0
LINE
  5
324
  8
MESH
 10
2399.99999999999
 20
5995.4999999999891
 30
0.0
 11
2399.99999999999
 21
6004.4999999999882
 31
0.0
  0
LINE
  5
325
  8
MESH
 10
0.0000000000013616
 20
6304.4999999999927
 30
0.0
 11
0.0000000000013456
 21
6295.4999999999927
 31
0.0
  0
LINE
  5
326
  8
MESH
 10
2400.0000000000018
 20
6295.4999999999891
 30
0.0
 11
2400.0000000000018
 21
6304.49999999999
 31
0.0
  0
LINE
  5
327
  8
MESH
 10
0.0000000000135438
 20
6604.4999999999964
 30
0.0
 11
0.0000000000135278
 21
6595.4999999999936
 31
0.0
  0
LINE
  5
328
  8
MESH
 10
2400.0000000000141
 20
6595.4999999999909
 30
0.0
 11
2400.0000000000141
 21
6604.4999999999909
 31
0.0
  0
LINE
  5
329
  8
MESH
 10
304.49999999999869
 20
6899.9999999999982
 30
0.0
 11
295.49999999999869
 21
6899.9999999999982
 31
0.0
  0
LINE
  5
32A
  8
MESH
 10
295.49999999999869
 20
0.0
 30
0.0
 11
304.49999999999869
 21
0.0
 31
0.0
  0
LINE
  5
32B
  8
G-PLANOTM
 10
2100.0000000000082
 20
6899.9999999999973
 30
0.0
 11
0.0000000000054143
 21
6899.9999999999973
 31
0.0
1001
REVIT
1002
{
1070
     3
1000
-2009512
1002
}
  0
LINE
  5
32C
  8
G-PLANOTM
 10
2100.0000000000082
 20
300.00000000000711
 30
0.0
 11
2100.0000000000082
 21
6899.9999999999973
 31
0.0
1001
REVIT
1002
{
1070
     3
1000
-2009512
1002
}
  0
LINE
  5
32D
  8
G-PLANOTM
 10
0.000000000005482
 20
300.00000000000711
 30
0.0
 11
2100.0000000000082
 21
300.00000000000711
 31
0.0
1001
REVIT
1002
{
1070
     3
1000
-2009512
1002
}
  0
LINE
  5
32E
  8
G-PLANOTM
 10
0.000000000005482
 20
6899.9999999999973
 30
0.0
 11
0.000000000005482
 21
300.00000000000762
 31
0.0
1001
REVIT
1002
{
1070
     3
1000
-2009512
1002
}
  0
LINE
  5
32F
  8
MESH
 10
2104.5000000000032
 20
295.49999999996811
 30
0.0
 11
2399.9999999997581
 21
295.49999999996749
 31
0.0
  0
LINE
  5
330
  8
MESH
 10
1804.500000000002
 20
295.49999999996862
 30
0.0
 11
2095.5000000000032
 21
295.49999999996811
 31
0.0
  0
LINE
  5
331
  8
MESH
 10
1504.5000000000009
 20
295.49999999996919
 30
0.0
 11
1795.5000000000009
 21
295.49999999996862
 31
0.0
  0
LINE
  5
332
  8
MESH
 10
1204.5
 20
295.49999999996959
 30
0.0
 11
1495.5000000000009
 21
295.49999999996919
 31
0.0
  0
LINE
  5
333
  8
MESH
 10
904.49999999999989
 20
295.49999999997021
 30
0.0
 11
1195.5
 21
295.4999999999697
 31
0.0
  0
LINE
  5
334
  8
MESH
 10
604.49999999999932
 20
295.49999999997073
 30
0.0
 11
895.49999999999977
 21
295.49999999997021
 31
0.0
  0
LINE
  5
335
  8
MESH
 10
304.49999999999869
 20
295.49999999997118
 30
0.0
 11
595.4999999999992
 21
295.49999999997078
 31
0.0
  0
LINE
  5
336
  8
MESH
 10
-0.0000000002422995
 20
295.49999999997181
 30
0.0
 11
295.49999999999869
 21
295.49999999997129
 31
0.0
  0
LINE
  5
337
  8
MESH
 10
295.49999999999869
 20
304.49999999997129
 30
0.0
 11
-0.0000000002422835
 21
304.49999999997181
 31
0.0
  0
LINE
  5
338
  8
MESH
 10
595.49999999999955
 20
304.49999999997078
 30
0.0
 11
304.49999999999892
 21
304.49999999997129
 31
0.0
  0
LINE
  5
339
  8
MESH
 10
895.50000000000045
 20
304.49999999997021
 30
0.0
 11
604.49999999999977
 21
304.49999999997073
 31
0.0
  0
LINE
  5
33A
  8
MESH
 10
1195.5000000000009
 20
304.4999999999697
 30
0.0
 11
904.50000000000045
 21
304.49999999997021
 31
0.0
  0
LINE
  5
33B
  8
MESH
 10
1495.5000000000009
 20
304.49999999996919
 30
0.0
 11
1204.5000000000009
 21
304.4999999999697
 31
0.0
  0
LINE
  5
33C
  8
MESH
 10
1795.500000000002
 20
304.49999999996862
 30
0.0
 11
1504.5000000000009
 21
304.49999999996908
 31
0.0
  0
LINE
  5
33D
  8
MESH
 10
2095.5000000000032
 20
304.49999999996811
 30
0.0
 11
1804.500000000002
 21
304.49999999996862
 31
0.0
  0
LINE
  5
33E
  8
MESH
 10
2399.9999999997581
 20
304.49999999996749
 30
0.0
 11
2104.5000000000032
 21
304.49999999996811
 31
0.0
  0
LINE
  5
33F
  8
MESH
 10
2104.5000000000032
 20
595.49999999996919
 30
0.0
 11
2399.9999999997699
 21
595.49999999996862
 31
0.0
  0
LINE
  5
340
  8
MESH
 10
1804.500000000002
 20
595.49999999996976
 30
0.0
 11
2095.5000000000032
 21
595.49999999996919
 31
0.0
  0
LINE
  5
341
  8
MESH
 10
1504.5000000000009
 20
595.49999999997021
 30
0.0
 11
1795.500000000002
 21
595.49999999996976
 31
0.0
  0
LINE
  5
342
  8
MESH
 10
1204.5000000000009
 20
595.49999999997067
 30
0.0
 11
1495.5000000000009
 21
595.49999999997021
 31
0.0
  0
LINE
  5
343
  8
MESH
 10
904.50000000000011
 20
595.49999999997124
 30
0.0
 11
1195.5
 21
595.49999999997067
 31
0.0
  0
LINE
  5
344
  8
MESH
 10
604.49999999999955
 20
595.49999999997181
 30
0.0
 11
895.5
 21
595.49999999997124
 31
0.0
  0
LINE
  5
345
  8
MESH
 10
304.49999999999869
 20
595.49999999997226
 30
0.0
 11
595.49999999999955
 21
595.49999999997181
 31
0.0
  0
LINE
  5
346
  8
MESH
 10
-0.0000000002301173
 20
595.49999999997294
 30
0.0
 11
295.49999999999869
 21
595.49999999997226
 31
0.0
  0
LINE
  5
347
  8
MESH
 10
295.49999999999852
 20
604.49999999997226
 30
0.0
 11
-0.0000000002301013
 21
604.49999999997294
 31
0.0
  0
LINE
  5
348
  8
MESH
 10
595.4999999999992
 20
604.49999999997192
 30
0.0
 11
304.49999999999858
 21
604.49999999997226
 31
0.0
  0
LINE
  5
349
  8
MESH
 10
895.49999999999977
 20
604.49999999997135
 30
0.0
 11
604.49999999999932
 21
604.49999999997192
 31
0.0
  0
LINE
  5
34A
  8
MESH
 10
1195.5
 20
604.4999999999709
 30
0.0
 11
904.49999999999989
 21
604.49999999997135
 31
0.0
  0
LINE
  5
34B
  8
MESH
 10
1495.5
 20
604.49999999997021
 30
0.0
 11
1204.5
 21
604.49999999997067
 31
0.0
  0
LINE
  5
34C
  8
MESH
 10
1795.5000000000009
 20
604.49999999996965
 30
0.0
 11
1504.5000000000009
 21
604.49999999997021
 31
0.0
  0
LINE
  5
34D
  8
MESH
 10
2095.5000000000032
 20
604.49999999996908
 30
0.0
 11
1804.5000000000009
 21
604.49999999996965
 31
0.0
  0
LINE
  5
34E
  8
MESH
 10
2399.9999999997699
 20
604.49999999996862
 30
0.0
 11
2104.5000000000032
 21
604.49999999996908
 31
0.0
  0
LINE
  5
34F
  8
MESH
 10
2104.5000000000032
 20
895.4999999999701
 30
0.0
 11
2399.9999999997822
 21
895.49999999996965
 31
0.0
  0
LINE
  5
350
  8
MESH
 10
1804.500000000002
 20
895.49999999997078
 30
0.0
 11
2095.5000000000032
 21
895.4999999999701
 31
0.0
  0
LINE
  5
351
  8
MESH
 10
1504.5000000000009
 20
895.49999999997135
 30
0.0
 11
1795.500000000002
 21
895.49999999997078
 31
0.0
  0
LINE
  5
352
  8
MESH
 10
1204.5
 20
895.49999999997169
 30
0.0
 11
1495.5
 21
895.49999999997135
 31
0.0
  0
LINE
  5
353
  8
MESH
 10
904.49999999999989
 20
895.49999999997215
 30
0.0
 11
1195.5
 21
895.49999999997169
 31
0.0
  0
LINE
  5
354
  8
MESH
 10
604.49999999999955
 20
895.49999999997283
 30
0.0
 11
895.5
 21
895.49999999997237
 31
0.0
  0
LINE
  5
355
  8
MESH
 10
304.49999999999869
 20
895.49999999997328
 30
0.0
 11
595.49999999999943
 21
895.49999999997283
 31
0.0
  0
LINE
  5
356
  8
MESH
 10
-0.000000000217935
 20
895.49999999997385
 30
0.0
 11
295.49999999999869
 21
895.49999999997328
 31
0.0
  0
LINE
  5
357
  8
MESH
 10
295.49999999999852
 20
904.49999999997328
 30
0.0
 11
-0.000000000217919
 21
904.49999999997397
 31
0.0
  0
LINE
  5
358
  8
MESH
 10
595.4999999999992
 20
904.49999999997283
 30
0.0
 11
304.49999999999858
 21
904.49999999997328
 31
0.0
  0
LINE
  5
359
  8
MESH
 10
895.5
 20
904.49999999997237
 30
0.0
 11
604.49999999999955
 21
904.49999999997294
 31
0.0
  0
LINE
  5
35A
  8
MESH
 10
1195.5
 20
904.49999999997169
 30
0.0
 11
904.50000000000011
 21
904.49999999997237
 31
0.0
  0
LINE
  5
35B
  8
MESH
 10
1495.5000000000009
 20
904.49999999997124
 30
0.0
 11
1204.5000000000009
 21
904.49999999997169
 31
0.0
  0
LINE
  5
35C
  8
MESH
 10
1795.500000000002
 20
904.49999999997056
 30
0.0
 11
1504.5000000000009
 21
904.49999999997124
 31
0.0
  0
LINE
  5
35D
  8
MESH
 10
2095.5000000000032
 20
904.4999999999701
 30
0.0
 11
1804.500000000002
 21
904.49999999997056
 31
0.0
  0
LINE
  5
35E
  8
MESH
 10
2399.9999999997822
 20
904.49999999996965
 30
0.0
 11
2104.5000000000032
 21
904.4999999999701
 31
0.0
  0
LINE
  5
35F
  8
MESH
 10
2104.5000000000018
 20
1195.4999999999709
 30
0.0
 11
2399.9999999997949
 21
1195.49999999997
 31
0.0
  0
LINE
  5
360
  8
MESH
 10
1804.5000000000009
 20
1195.499999999972
 30
0.0
 11
2095.5000000000032
 21
1195.4999999999709
 31
0.0
  0
LINE
  5
361
  8
MESH
 10
1504.5000000000009
 20
1195.499999999972
 30
0.0
 11
1795.5000000000009
 21
1195.499999999972
 31
0.0
  0
LINE
  5
362
  8
MESH
 10
1204.5000000000009
 20
1195.4999999999729
 30
0.0
 11
1495.5000000000009
 21
1195.499999999972
 31
0.0
  0
LINE
  5
363
  8
MESH
 10
904.50000000000011
 20
1195.4999999999729
 30
0.0
 11
1195.5
 21
1195.4999999999729
 31
0.0
  0
LINE
  5
364
  8
MESH
 10
604.49999999999955
 20
1195.4999999999741
 30
0.0
 11
895.50000000000011
 21
1195.4999999999729
 31
0.0
  0
LINE
  5
365
  8
MESH
 10
304.49999999999881
 20
1195.4999999999741
 30
0.0
 11
595.49999999999955
 21
1195.4999999999741
 31
0.0
  0
LINE
  5
366
  8
MESH
 10
-0.0000000002057527
 20
1195.499999999975
 30
0.0
 11
295.49999999999869
 21
1195.4999999999741
 31
0.0
  0
LINE
  5
367
  8
MESH
 10
295.49999999999858
 20
1204.4999999999741
 30
0.0
 11
-0.0000000002057368
 21
1204.499999999975
 31
0.0
  0
LINE
  5
368
  8
MESH
 10
595.4999999999992
 20
1204.4999999999741
 30
0.0
 11
304.49999999999869
 21
1204.4999999999741
 31
0.0
  0
LINE
  5
369
  8
MESH
 10
895.49999999999943
 20
1204.4999999999729
 30
0.0
 11
604.49999999999898
 21
1204.4999999999741
 31
0.0
  0
LINE
  5
36A
  8
MESH
 10
1195.5
 20
1204.4999999999729
 30
0.0
 11
904.49999999999955
 21
1204.4999999999729
 31
0.0
  0
LINE
  5
36B
  8
MESH
 10
1495.5000000000009
 20
1204.499999999972
 30
0.0
 11
1204.5
 21
1204.4999999999729
 31
0.0
  0
LINE
  5
36C
  8
MESH
 10
1795.500000000002
 20
1204.499999999972
 30
0.0
 11
1504.5000000000009
 21
1204.499999999972
 31
0.0
  0
LINE
  5
36D
  8
MESH
 10
2095.5000000000032
 20
1204.4999999999709
 30
0.0
 11
1804.500000000002
 21
1204.499999999972
 31
0.0
  0
LINE
  5
36E
  8
MESH
 10
2399.9999999997949
 20
1204.4999999999709
 30
0.0
 11
2104.5000000000032
 21
1204.4999999999709
 31
0.0
  0
LINE
  5
36F
  8
MESH
 10
2104.5000000000018
 20
1495.499999999972
 30
0.0
 11
2399.9999999998072
 21
1495.499999999972
 31
0.0
  0
LINE
  5
370
  8
MESH
 10
1804.500000000002
 20
1495.4999999999729
 30
0.0
 11
2095.5000000000032
 21
1495.499999999972
 31
0.0
  0
LINE
  5
371
  8
MESH
 10
1504.5000000000009
 20
1495.4999999999741
 30
0.0
 11
1795.5000000000009
 21
1495.4999999999729
 31
0.0
  0
LINE
  5
372
  8
MESH
 10
1204.5
 20
1495.4999999999741
 30
0.0
 11
1495.5
 21
1495.4999999999729
 31
0.0
  0
LINE
  5
373
  8
MESH
 10
904.49999999999989
 20
1495.4999999999741
 30
0.0
 11
1195.5
 21
1495.4999999999741
 31
0.0
  0
LINE
  5
374
  8
MESH
 10
604.49999999999932
 20
1495.499999999975
 30
0.0
 11
895.49999999999977
 21
1495.4999999999741
 31
0.0
  0
LINE
  5
375
  8
MESH
 10
304.49999999999869
 20
1495.4999999999759
 30
0.0
 11
595.4999999999992
 21
1495.499999999975
 31
0.0
  0
LINE
  5
376
  8
MESH
 10
-0.0000000001935705
 20
1495.4999999999759
 30
0.0
 11
295.49999999999869
 21
1495.4999999999759
 31
0.0
  0
LINE
  5
377
  8
MESH
 10
295.49999999999898
 20
1504.4999999999759
 30
0.0
 11
-0.0000000001935545
 21
1504.4999999999759
 31
0.0
  0
LINE
  5
378
  8
MESH
 10
595.49999999999955
 20
1504.499999999975
 30
0.0
 11
304.49999999999881
 21
1504.4999999999759
 31
0.0
  0
LINE
  5
379
  8
MESH
 10
895.5
 20
1504.499999999975
 30
0.0
 11
604.49999999999955
 21
1504.499999999975
 31
0.0
  0
LINE
  5
37A
  8
MESH
 10
1195.5
 20
1504.4999999999741
 30
0.0
 11
904.49999999999989
 21
1504.499999999975
 31
0.0
  0
LINE
  5
37B
  8
MESH
 10
1495.5000000000009
 20
1504.4999999999729
 30
0.0
 11
1204.5
 21
1504.4999999999741
 31
0.0
  0
LINE
  5
37C
  8
MESH
 10
1795.5000000000009
 20
1504.4999999999729
 30
0.0
 11
1504.5000000000009
 21
1504.4999999999729
 31
0.0
  0
LINE
  5
37D
  8
MESH
 10
2095.5000000000032
 20
1504.499999999972
 30
0.0
 11
1804.500000000002
 21
1504.4999999999729
 31
0.0
  0
LINE
  5
37E
  8
MESH
 10
2399.9999999998072
 20
1504.499999999972
 30
0.0
 11
2104.5000000000018
 21
1504.499999999972
 31
0.0
  0
LINE
  5
37F
  8
MESH
 10
2104.5000000000032
 20
1795.4999999999741
 30
0.0
 11
2399.999999999819
 21
1795.4999999999729
 31
0.0
  0
LINE
  5
380
  8
MESH
 10
1804.500000000002
 20
1795.4999999999741
 30
0.0
 11
2095.5000000000032
 21
1795.4999999999741
 31
0.0
  0
LINE
  5
381
  8
MESH
 10
1504.5000000000009
 20
1795.499999999975
 30
0.0
 11
1795.500000000002
 21
1795.4999999999741
 31
0.0
  0
LINE
  5
382
  8
MESH
 10
1204.5000000000009
 20
1795.499999999975
 30
0.0
 11
1495.5000000000009
 21
1795.499999999975
 31
0.0
  0
LINE
  5
383
  8
MESH
 10
904.50000000000034
 20
1795.4999999999759
 30
0.0
 11
1195.5
 21
1795.499999999975
 31
0.0
  0
LINE
  5
384
  8
MESH
 10
604.49999999999955
 20
1795.499999999977
 30
0.0
 11
895.50000000000011
 21
1795.4999999999759
 31
0.0
  0
LINE
  5
385
  8
MESH
 10
304.49999999999869
 20
1795.499999999977
 30
0.0
 11
595.49999999999955
 21
1795.499999999977
 31
0.0
  0
LINE
  5
386
  8
MESH
 10
-0.0000000001813882
 20
1795.499999999977
 30
0.0
 11
295.49999999999881
 21
1795.499999999977
 31
0.0
  0
LINE
  5
387
  8
MESH
 10
295.49999999999892
 20
1804.499999999977
 30
0.0
 11
-0.0000000001813723
 21
1804.499999999977
 31
0.0
  0
LINE
  5
388
  8
MESH
 10
595.4999999999992
 20
1804.4999999999759
 30
0.0
 11
304.49999999999869
 21
1804.499999999977
 31
0.0
  0
LINE
  5
389
  8
MESH
 10
895.50000000000011
 20
1804.4999999999759
 30
0.0
 11
604.49999999999955
 21
1804.4999999999759
 31
0.0
  0
LINE
  5
38A
  8
MESH
 10
1195.5
 20
1804.499999999975
 30
0.0
 11
904.50000000000011
 21
1804.4999999999759
 31
0.0
  0
LINE
  5
38B
  8
MESH
 10
1495.5000000000009
 20
1804.499999999975
 30
0.0
 11
1204.5
 21
1804.499999999975
 31
0.0
  0
LINE
  5
38C
  8
MESH
 10
1795.500000000002
 20
1804.4999999999741
 30
0.0
 11
1504.5000000000009
 21
1804.4999999999741
 31
0.0
  0
LINE
  5
38D
  8
MESH
 10
2095.5000000000032
 20
1804.4999999999729
 30
0.0
 11
1804.500000000002
 21
1804.4999999999741
 31
0.0
  0
LINE
  5
38E
  8
MESH
 10
2399.999999999819
 20
1804.4999999999729
 30
0.0
 11
2104.5000000000032
 21
1804.4999999999729
 31
0.0
  0
LINE
  5
38F
  8
MESH
 10
2104.5000000000032
 20
2095.499999999975
 30
0.0
 11
2399.9999999998308
 21
2095.4999999999741
 31
0.0
  0
LINE
  5
390
  8
MESH
 10
1804.500000000002
 20
2095.499999999975
 30
0.0
 11
2095.5000000000032
 21
2095.499999999975
 31
0.0
  0
LINE
  5
391
  8
MESH
 10
1504.5000000000009
 20
2095.4999999999759
 30
0.0
 11
1795.500000000002
 21
2095.499999999975
 31
0.0
  0
LINE
  5
392
  8
MESH
 10
1204.5
 20
2095.4999999999759
 30
0.0
 11
1495.5000000000009
 21
2095.4999999999759
 31
0.0
  0
LINE
  5
393
  8
MESH
 10
904.50000000000011
 20
2095.4999999999768
 30
0.0
 11
1195.5
 21
2095.4999999999759
 31
0.0
  0
LINE
  5
394
  8
MESH
 10
604.49999999999932
 20
2095.4999999999782
 30
0.0
 11
895.5
 21
2095.4999999999768
 31
0.0
  0
LINE
  5
395
  8
MESH
 10
304.49999999999869
 20
2095.4999999999782
 30
0.0
 11
595.49999999999943
 21
2095.4999999999782
 31
0.0
  0
LINE
  5
396
  8
MESH
 10
-0.000000000169206
 20
2095.4999999999791
 30
0.0
 11
295.49999999999869
 21
2095.4999999999782
 31
0.0
  0
LINE
  5
397
  8
MESH
 10
295.49999999999841
 20
2104.4999999999782
 30
0.0
 11
-0.00000000016919
 21
2104.4999999999782
 31
0.0
  0
LINE
  5
398
  8
MESH
 10
595.4999999999992
 20
2104.4999999999782
 30
0.0
 11
304.49999999999881
 21
2104.4999999999782
 31
0.0
  0
LINE
  5
399
  8
MESH
 10
895.49999999999977
 20
2104.4999999999768
 30
0.0
 11
604.49999999999955
 21
2104.4999999999782
 31
0.0
  0
LINE
  5
39A
  8
MESH
 10
1195.5
 20
2104.4999999999759
 30
0.0
 11
904.49999999999989
 21
2104.4999999999768
 31
0.0
  0
LINE
  5
39B
  8
MESH
 10
1495.5
 20
2104.4999999999759
 30
0.0
 11
1204.5
 21
2104.4999999999759
 31
0.0
  0
LINE
  5
39C
  8
MESH
 10
1795.5000000000009
 20
2104.4999999999759
 30
0.0
 11
1504.5000000000009
 21
2104.4999999999759
 31
0.0
  0
LINE
  5
39D
  8
MESH
 10
2095.5000000000032
 20
2104.4999999999741
 30
0.0
 11
1804.5000000000009
 21
2104.4999999999759
 31
0.0
  0
LINE
  5
39E
  8
MESH
 10
2399.9999999998308
 20
2104.4999999999741
 30
0.0
 11
2104.5000000000018
 21
2104.4999999999741
 31
0.0
  0
LINE
  5
39F
  8
MESH
 10
2104.5000000000032
 20
2395.4999999999759
 30
0.0
 11
2399.999999999844
 21
2395.499999999975
 31
0.0
  0
LINE
  5
3A0
  8
MESH
 10
1804.500000000002
 20
2395.4999999999768
 30
0.0
 11
2095.5000000000032
 21
2395.4999999999759
 31
0.0
  0
LINE
  5
3A1
  8
MESH
 10
1504.5000000000009
 20
2395.4999999999768
 30
0.0
 11
1795.500000000002
 21
2395.4999999999768
 31
0.0
  0
LINE
  5
3A2
  8
MESH
 10
1204.5000000000009
 20
2395.4999999999768
 30
0.0
 11
1495.5000000000009
 21
2395.4999999999768
 31
0.0
  0
LINE
  5
3A3
  8
MESH
 10
904.50000000000011
 20
2395.4999999999782
 30
0.0
 11
1195.5
 21
2395.4999999999768
 31
0.0
  0
LINE
  5
3A4
  8
MESH
 10
604.49999999999955
 20
2395.4999999999782
 30
0.0
 11
895.50000000000011
 21
2395.4999999999782
 31
0.0
  0
LINE
  5
3A5
  8
MESH
 10
304.49999999999869
 20
2395.4999999999791
 30
0.0
 11
595.49999999999955
 21
2395.4999999999782
 31
0.0
  0
LINE
  5
3A6
  8
MESH
 10
-0.0000000001570237
 20
2395.49999999998
 30
0.0
 11
295.49999999999869
 21
2395.4999999999791
 31
0.0
  0
LINE
  5
3A7
  8
MESH
 10
295.49999999999869
 20
2404.4999999999791
 30
0.0
 11
-0.0000000001570077
 21
2404.49999999998
 31
0.0
  0
LINE
  5
3A8
  8
MESH
 10
595.49999999999943
 20
2404.4999999999791
 30
0.0
 11
304.49999999999881
 21
2404.4999999999791
 31
0.0
  0
LINE
  5
3A9
  8
MESH
 10
895.49999999999977
 20
2404.4999999999782
 30
0.0
 11
604.49999999999932
 21
2404.4999999999791
 31
0.0
  0
LINE
  5
3AA
  8
MESH
 10
1195.5
 20
2404.4999999999782
 30
0.0
 11
904.50000000000011
 21
2404.4999999999782
 31
0.0
  0
LINE
  5
3AB
  8
MESH
 10
1495.5000000000009
 20
2404.4999999999768
 30
0.0
 11
1204.5000000000009
 21
2404.4999999999768
 31
0.0
  0
LINE
  5
3AC
  8
MESH
 10
1795.5000000000009
 20
2404.4999999999759
 30
0.0
 11
1504.5000000000009
 21
2404.4999999999768
 31
0.0
  0
LINE
  5
3AD
  8
MESH
 10
2095.5000000000032
 20
2404.4999999999759
 30
0.0
 11
1804.500000000002
 21
2404.4999999999759
 31
0.0
  0
LINE
  5
3AE
  8
MESH
 10
2399.999999999844
 20
2404.4999999999759
 30
0.0
 11
2104.5000000000032
 21
2404.4999999999759
 31
0.0
  0
LINE
  5
3AF
  8
MESH
 10
2104.5000000000018
 20
2695.4999999999759
 30
0.0
 11
2399.9999999998558
 21
2695.4999999999759
 31
0.0
  0
LINE
  5
3B0
  8
MESH
 10
1804.500000000002
 20
2695.4999999999782
 30
0.0
 11
2095.5000000000032
 21
2695.4999999999759
 31
0.0
  0
LINE
  5
3B1
  8
MESH
 10
1504.5000000000009
 20
2695.4999999999782
 30
0.0
 11
1795.5000000000009
 21
2695.4999999999782
 31
0.0
  0
LINE
  5
3B2
  8
MESH
 10
1204.5000000000009
 20
2695.4999999999791
 30
0.0
 11
1495.5000000000009
 21
2695.4999999999782
 31
0.0
  0
LINE
  5
3B3
  8
MESH
 10
904.49999999999989
 20
2695.49999999998
 30
0.0
 11
1195.5
 21
2695.4999999999791
 31
0.0
  0
LINE
  5
3B4
  8
MESH
 10
604.49999999999943
 20
2695.49999999998
 30
0.0
 11
895.5
 21
2695.49999999998
 31
0.0
  0
LINE
  5
3B5
  8
MESH
 10
304.49999999999869
 20
2695.49999999998
 30
0.0
 11
595.49999999999943
 21
2695.49999999998
 31
0.0
  0
LINE
  5
3B6
  8
MESH
 10
-0.0000000001448415
 20
2695.4999999999809
 30
0.0
 11
295.49999999999869
 21
2695.49999999998
 31
0.0
  0
LINE
  5
3B7
  8
MESH
 10
295.49999999999869
 20
2704.4999999999809
 30
0.0
 11
-0.0000000001448255
 21
2704.4999999999809
 31
0.0
  0
LINE
  5
3B8
  8
MESH
 10
595.49999999999943
 20
2704.49999999998
 30
0.0
 11
304.49999999999869
 21
2704.4999999999809
 31
0.0
  0
LINE
  5
3B9
  8
MESH
 10
895.5
 20
2704.49999999998
 30
0.0
 11
604.49999999999955
 21
2704.49999999998
 31
0.0
  0
LINE
  5
3BA
  8
MESH
 10
1195.5
 20
2704.4999999999791
 30
0.0
 11
904.50000000000011
 21
2704.49999999998
 31
0.0
  0
LINE
  5
3BB
  8
MESH
 10
1495.5
 20
2704.4999999999782
 30
0.0
 11
1204.5
 21
2704.4999999999791
 31
0.0
  0
LINE
  5
3BC
  8
MESH
 10
1795.5000000000009
 20
2704.4999999999782
 30
0.0
 11
1504.5000000000009
 21
2704.4999999999782
 31
0.0
  0
LINE
  5
3BD
  8
MESH
 10
2095.5000000000032
 20
2704.4999999999768
 30
0.0
 11
1804.500000000002
 21
2704.4999999999782
 31
0.0
  0
LINE
  5
3BE
  8
MESH
 10
2399.9999999998558
 20
2704.4999999999759
 30
0.0
 11
2104.5000000000018
 21
2704.4999999999768
 31
0.0
  0
LINE
  5
3BF
  8
MESH
 10
2104.5000000000018
 20
2995.4999999999782
 30
0.0
 11
2399.9999999998681
 21
2995.4999999999782
 31
0.0
  0
LINE
  5
3C0
  8
MESH
 10
1804.500000000002
 20
2995.4999999999782
 30
0.0
 11
2095.5000000000032
 21
2995.4999999999782
 31
0.0
  0
LINE
  5
3C1
  8
MESH
 10
1504.5000000000009
 20
2995.4999999999782
 30
0.0
 11
1795.5000000000009
 21
2995.4999999999782
 31
0.0
  0
LINE
  5
3C2
  8
MESH
 10
1204.5
 20
2995.4999999999791
 30
0.0
 11
1495.5000000000009
 21
2995.4999999999782
 31
0.0
  0
LINE
  5
3C3
  8
MESH
 10
904.49999999999989
 20
2995.49999999998
 30
0.0
 11
1195.5
 21
2995.4999999999791
 31
0.0
  0
LINE
  5
3C4
  8
MESH
 10
604.49999999999955
 20
2995.49999999998
 30
0.0
 11
895.5
 21
2995.49999999998
 31
0.0
  0
LINE
  5
3C5
  8
MESH
 10
304.49999999999869
 20
2995.4999999999809
 30
0.0
 11
595.49999999999943
 21
2995.49999999998
 31
0.0
  0
LINE
  5
3C6
  8
MESH
 10
-0.0000000001326592
 20
2995.4999999999818
 30
0.0
 11
295.49999999999869
 21
2995.4999999999818
 31
0.0
  0
LINE
  5
3C7
  8
MESH
 10
295.49999999999841
 20
3004.4999999999809
 30
0.0
 11
-0.0000000001326432
 21
3004.4999999999818
 31
0.0
  0
LINE
  5
3C8
  8
MESH
 10
595.4999999999992
 20
3004.4999999999809
 30
0.0
 11
304.49999999999858
 21
3004.4999999999809
 31
0.0
  0
LINE
  5
3C9
  8
MESH
 10
895.49999999999977
 20
3004.49999999998
 30
0.0
 11
604.49999999999932
 21
3004.4999999999809
 31
0.0
  0
LINE
  5
3CA
  8
MESH
 10
1195.5
 20
3004.4999999999791
 30
0.0
 11
904.49999999999989
 21
3004.49999999998
 31
0.0
  0
LINE
  5
3CB
  8
MESH
 10
1495.5000000000009
 20
3004.4999999999791
 30
0.0
 11
1204.5
 21
3004.4999999999791
 31
0.0
  0
LINE
  5
3CC
  8
MESH
 10
1795.5000000000009
 20
3004.4999999999782
 30
0.0
 11
1504.5000000000009
 21
3004.4999999999791
 31
0.0
  0
LINE
  5
3CD
  8
MESH
 10
2095.5000000000032
 20
3004.4999999999782
 30
0.0
 11
1804.500000000002
 21
3004.4999999999782
 31
0.0
  0
LINE
  5
3CE
  8
MESH
 10
2399.9999999998681
 20
3004.4999999999782
 30
0.0
 11
2104.5000000000032
 21
3004.4999999999782
 31
0.0
  0
LINE
  5
3CF
  8
MESH
 10
2104.5000000000018
 20
3295.49999999998
 30
0.0
 11
2399.9999999998799
 21
3295.4999999999791
 31
0.0
  0
LINE
  5
3D0
  8
MESH
 10
1804.500000000002
 20
3295.49999999998
 30
0.0
 11
2095.5000000000032
 21
3295.49999999998
 31
0.0
  0
LINE
  5
3D1
  8
MESH
 10
1504.5000000000009
 20
3295.49999999998
 30
0.0
 11
1795.500000000002
 21
3295.49999999998
 31
0.0
  0
LINE
  5
3D2
  8
MESH
 10
1204.5000000000009
 20
3295.4999999999809
 30
0.0
 11
1495.5000000000009
 21
3295.49999999998
 31
0.0
  0
LINE
  5
3D3
  8
MESH
 10
904.50000000000011
 20
3295.4999999999818
 30
0.0
 11
1195.5
 21
3295.4999999999809
 31
0.0
  0
LINE
  5
3D4
  8
MESH
 10
604.49999999999943
 20
3295.4999999999818
 30
0.0
 11
895.5
 21
3295.4999999999809
 31
0.0
  0
LINE
  5
3D5
  8
MESH
 10
304.49999999999869
 20
3295.4999999999818
 30
0.0
 11
595.49999999999943
 21
3295.4999999999818
 31
0.0
  0
LINE
  5
3D6
  8
MESH
 10
-0.000000000120477
 20
3295.4999999999832
 30
0.0
 11
295.49999999999869
 21
3295.4999999999818
 31
0.0
  0
LINE
  5
3D7
  8
MESH
 10
295.49999999999869
 20
3304.4999999999832
 30
0.0
 11
-0.000000000120461
 21
3304.4999999999832
 31
0.0
  0
LINE
  5
3D8
  8
MESH
 10
595.49999999999955
 20
3304.4999999999818
 30
0.0
 11
304.49999999999881
 21
3304.4999999999832
 31
0.0
  0
LINE
  5
3D9
  8
MESH
 10
895.50000000000011
 20
3304.4999999999818
 30
0.0
 11
604.49999999999955
 21
3304.4999999999818
 31
0.0
  0
LINE
  5
3DA
  8
MESH
 10
1195.5
 20
3304.4999999999809
 30
0.0
 11
904.50000000000011
 21
3304.4999999999818
 31
0.0
  0
LINE
  5
3DB
  8
MESH
 10
1495.5000000000009
 20
3304.49999999998
 30
0.0
 11
1204.5
 21
3304.4999999999809
 31
0.0
  0
LINE
  5
3DC
  8
MESH
 10
1795.5000000000009
 20
3304.49999999998
 30
0.0
 11
1504.5000000000009
 21
3304.49999999998
 31
0.0
  0
LINE
  5
3DD
  8
MESH
 10
2095.5000000000032
 20
3304.4999999999791
 30
0.0
 11
1804.500000000002
 21
3304.49999999998
 31
0.0
  0
LINE
  5
3DE
  8
MESH
 10
2399.9999999998799
 20
3304.4999999999791
 30
0.0
 11
2104.5000000000018
 21
3304.4999999999791
 31
0.0
  0
LINE
  5
3DF
  8
MESH
 10
2104.5000000000018
 20
3595.49999999998
 30
0.0
 11
2399.9999999998922
 21
3595.49999999998
 31
0.0
  0
LINE
  5
3E0
  8
MESH
 10
1804.500000000002
 20
3595.4999999999809
 30
0.0
 11
2095.5000000000032
 21
3595.49999999998
 31
0.0
  0
LINE
  5
3E1
  8
MESH
 10
1504.5000000000009
 20
3595.4999999999818
 30
0.0
 11
1795.5000000000009
 21
3595.4999999999809
 31
0.0
  0
LINE
  5
3E2
  8
MESH
 10
1204.5000000000009
 20
3595.4999999999818
 30
0.0
 11
1495.5000000000009
 21
3595.4999999999818
 31
0.0
  0
LINE
  5
3E3
  8
MESH
 10
904.50000000000011
 20
3595.4999999999832
 30
0.0
 11
1195.5
 21
3595.4999999999818
 31
0.0
  0
LINE
  5
3E4
  8
MESH
 10
604.49999999999955
 20
3595.4999999999832
 30
0.0
 11
895.5
 21
3595.4999999999832
 31
0.0
  0
LINE
  5
3E5
  8
MESH
 10
304.49999999999869
 20
3595.4999999999841
 30
0.0
 11
595.49999999999943
 21
3595.4999999999832
 31
0.0
  0
LINE
  5
3E6
  8
MESH
 10
-0.0000000001082947
 20
3595.4999999999841
 30
0.0
 11
295.49999999999869
 21
3595.4999999999841
 31
0.0
  0
LINE
  5
3E7
  8
MESH
 10
295.49999999999869
 20
3604.4999999999841
 30
0.0
 11
-0.0000000001082787
 21
3604.4999999999841
 31
0.0
  0
LINE
  5
3E8
  8
MESH
 10
595.49999999999955
 20
3604.4999999999841
 30
0.0
 11
304.49999999999869
 21
3604.4999999999841
 31
0.0
  0
LINE
  5
3E9
  8
MESH
 10
895.50000000000011
 20
3604.4999999999841
 30
0.0
 11
604.49999999999943
 21
3604.4999999999841
 31
0.0
  0
LINE
  5
3EA
  8
MESH
 10
1195.5
 20
3604.4999999999818
 30
0.0
 11
904.50000000000011
 21
3604.4999999999832
 31
0.0
  0
LINE
  5
3EB
  8
MESH
 10
1495.5000000000009
 20
3604.4999999999818
 30
0.0
 11
1204.5000000000009
 21
3604.4999999999818
 31
0.0
  0
LINE
  5
3EC
  8
MESH
 10
1795.5000000000009
 20
3604.4999999999818
 30
0.0
 11
1504.5000000000009
 21
3604.4999999999818
 31
0.0
  0
LINE
  5
3ED
  8
MESH
 10
2095.5000000000032
 20
3604.4999999999809
 30
0.0
 11
1804.500000000002
 21
3604.4999999999818
 31
0.0
  0
LINE
  5
3EE
  8
MESH
 10
2399.9999999998922
 20
3604.49999999998
 30
0.0
 11
2104.5000000000032
 21
3604.4999999999809
 31
0.0
  0
LINE
  5
3EF
  8
MESH
 10
2104.5000000000018
 20
3895.4999999999818
 30
0.0
 11
2399.999999999904
 21
3895.4999999999809
 31
0.0
  0
LINE
  5
3F0
  8
MESH
 10
1804.500000000002
 20
3895.4999999999818
 30
0.0
 11
2095.5000000000032
 21
3895.4999999999818
 31
0.0
  0
LINE
  5
3F1
  8
MESH
 10
1504.5000000000009
 20
3895.4999999999818
 30
0.0
 11
1795.5000000000009
 21
3895.4999999999818
 31
0.0
  0
LINE
  5
3F2
  8
MESH
 10
1204.5
 20
3895.4999999999832
 30
0.0
 11
1495.5
 21
3895.4999999999818
 31
0.0
  0
LINE
  5
3F3
  8
MESH
 10
904.49999999999989
 20
3895.4999999999832
 30
0.0
 11
1195.5
 21
3895.4999999999832
 31
0.0
  0
LINE
  5
3F4
  8
MESH
 10
604.49999999999932
 20
3895.4999999999841
 30
0.0
 11
895.49999999999977
 21
3895.4999999999832
 31
0.0
  0
LINE
  5
3F5
  8
MESH
 10
304.49999999999869
 20
3895.499999999985
 30
0.0
 11
595.4999999999992
 21
3895.4999999999841
 31
0.0
  0
LINE
  5
3F6
  8
MESH
 10
-0.0000000000961125
 20
3895.499999999985
 30
0.0
 11
295.49999999999869
 21
3895.499999999985
 31
0.0
  0
LINE
  5
3F7
  8
MESH
 10
295.49999999999869
 20
3904.4999999999841
 30
0.0
 11
-0.0000000000960965
 21
3904.499999999985
 31
0.0
  0
LINE
  5
3F8
  8
MESH
 10
595.4999999999992
 20
3904.4999999999841
 30
0.0
 11
304.49999999999852
 21
3904.4999999999841
 31
0.0
  0
LINE
  5
3F9
  8
MESH
 10
895.49999999999977
 20
3904.4999999999841
 30
0.0
 11
604.49999999999932
 21
3904.4999999999841
 31
0.0
  0
LINE
  5
3FA
  8
MESH
 10
1195.5
 20
3904.4999999999841
 30
0.0
 11
904.49999999999989
 21
3904.4999999999841
 31
0.0
  0
LINE
  5
3FB
  8
MESH
 10
1495.5
 20
3904.4999999999832
 30
0.0
 11
1204.5
 21
3904.4999999999841
 31
0.0
  0
LINE
  5
3FC
  8
MESH
 10
1795.5000000000009
 20
3904.4999999999818
 30
0.0
 11
1504.5000000000009
 21
3904.4999999999832
 31
0.0
  0
LINE
  5
3FD
  8
MESH
 10
2095.5000000000018
 20
3904.4999999999818
 30
0.0
 11
1804.5000000000009
 21
3904.4999999999818
 31
0.0
  0
LINE
  5
3FE
  8
MESH
 10
2399.999999999904
 20
3904.4999999999809
 30
0.0
 11
2104.5000000000018
 21
3904.4999999999818
 31
0.0
  0
LINE
  5
3FF
  8
MESH
 10
2104.5000000000032
 20
4195.4999999999827
 30
0.0
 11
2399.9999999999159
 21
4195.4999999999818
 31
0.0
  0
LINE
  5
400
  8
MESH
 10
1804.500000000002
 20
4195.4999999999827
 30
0.0
 11
2095.5000000000032
 21
4195.4999999999827
 31
0.0
  0
LINE
  5
401
  8
MESH
 10
1504.5000000000009
 20
4195.4999999999836
 30
0.0
 11
1795.5000000000009
 21
4195.4999999999827
 31
0.0
  0
LINE
  5
402
  8
MESH
 10
1204.5000000000009
 20
4195.4999999999836
 30
0.0
 11
1495.5000000000009
 21
4195.4999999999836
 31
0.0
  0
LINE
  5
403
  8
MESH
 10
904.50000000000011
 20
4195.4999999999836
 30
0.0
 11
1195.5
 21
4195.4999999999836
 31
0.0
  0
LINE
  5
404
  8
MESH
 10
604.49999999999955
 20
4195.4999999999854
 30
0.0
 11
895.5
 21
4195.4999999999836
 31
0.0
  0
LINE
  5
405
  8
MESH
 10
304.49999999999869
 20
4195.4999999999854
 30
0.0
 11
595.49999999999943
 21
4195.4999999999854
 31
0.0
  0
LINE
  5
406
  8
MESH
 10
-0.0000000000839302
 20
4195.4999999999864
 30
0.0
 11
295.49999999999869
 21
4195.4999999999854
 31
0.0
  0
LINE
  5
407
  8
MESH
 10
295.49999999999869
 20
4204.4999999999854
 30
0.0
 11
-0.0000000000839142
 21
4204.4999999999873
 31
0.0
  0
LINE
  5
408
  8
MESH
 10
595.49999999999943
 20
4204.4999999999854
 30
0.0
 11
304.49999999999881
 21
4204.4999999999854
 31
0.0
  0
LINE
  5
409
  8
MESH
 10
895.49999999999977
 20
4204.4999999999836
 30
0.0
 11
604.49999999999909
 21
4204.4999999999854
 31
0.0
  0
LINE
  5
40A
  8
MESH
 10
1195.5
 20
4204.4999999999836
 30
0.0
 11
904.49999999999989
 21
4204.4999999999836
 31
0.0
  0
LINE
  5
40B
  8
MESH
 10
1495.5000000000009
 20
4204.4999999999836
 30
0.0
 11
1204.5000000000009
 21
4204.4999999999836
 31
0.0
  0
LINE
  5
40C
  8
MESH
 10
1795.500000000002
 20
4204.4999999999836
 30
0.0
 11
1504.5000000000009
 21
4204.4999999999836
 31
0.0
  0
LINE
  5
40D
  8
MESH
 10
2095.5000000000032
 20
4204.4999999999827
 30
0.0
 11
1804.500000000002
 21
4204.4999999999836
 31
0.0
  0
LINE
  5
40E
  8
MESH
 10
2399.9999999999159
 20
4204.4999999999809
 30
0.0
 11
2104.5000000000032
 21
4204.4999999999827
 31
0.0
  0
LINE
  5
40F
  8
MESH
 10
2104.5000000000032
 20
4495.4999999999827
 30
0.0
 11
2399.9999999999291
 21
4495.4999999999818
 31
0.0
  0
LINE
  5
410
  8
MESH
 10
1804.500000000002
 20
4495.4999999999827
 30
0.0
 11
2095.5000000000032
 21
4495.4999999999827
 31
0.0
  0
LINE
  5
411
  8
MESH
 10
1504.5000000000009
 20
4495.4999999999836
 30
0.0
 11
1795.500000000002
 21
4495.4999999999827
 31
0.0
  0
LINE
  5
412
  8
MESH
 10
1204.5000000000009
 20
4495.4999999999854
 30
0.0
 11
1495.5000000000009
 21
4495.4999999999836
 31
0.0
  0
LINE
  5
413
  8
MESH
 10
904.50000000000011
 20
4495.4999999999864
 30
0.0
 11
1195.5
 21
4495.4999999999854
 31
0.0
  0
LINE
  5
414
  8
MESH
 10
604.49999999999955
 20
4495.4999999999864
 30
0.0
 11
895.50000000000011
 21
4495.4999999999864
 31
0.0
  0
LINE
  5
415
  8
MESH
 10
304.49999999999869
 20
4495.4999999999873
 30
0.0
 11
595.49999999999955
 21
4495.4999999999864
 31
0.0
  0
LINE
  5
416
  8
MESH
 10
-0.0000000000717479
 20
4495.4999999999873
 30
0.0
 11
295.49999999999869
 21
4495.4999999999873
 31
0.0
  0
LINE
  5
417
  8
MESH
 10
295.49999999999881
 20
4504.4999999999873
 30
0.0
 11
-0.000000000071732
 21
4504.4999999999873
 31
0.0
  0
LINE
  5
418
  8
MESH
 10
595.49999999999955
 20
4504.4999999999864
 30
0.0
 11
304.49999999999892
 21
4504.4999999999873
 31
0.0
  0
LINE
  5
419
  8
MESH
 10
895.50000000000011
 20
4504.4999999999854
 30
0.0
 11
604.49999999999977
 21
4504.4999999999864
 31
0.0
  0
LINE
  5
41A
  8
MESH
 10
1195.5
 20
4504.4999999999854
 30
0.0
 11
904.50000000000011
 21
4504.4999999999854
 31
0.0
  0
LINE
  5
41B
  8
MESH
 10
1495.5000000000009
 20
4504.4999999999854
 30
0.0
 11
1204.5
 21
4504.4999999999854
 31
0.0
  0
LINE
  5
41C
  8
MESH
 10
1795.500000000002
 20
4504.4999999999827
 30
0.0
 11
1504.5000000000009
 21
4504.4999999999854
 31
0.0
  0
LINE
  5
41D
  8
MESH
 10
2095.5000000000032
 20
4504.4999999999827
 30
0.0
 11
1804.500000000002
 21
4504.4999999999827
 31
0.0
  0
LINE
  5
41E
  8
MESH
 10
2399.9999999999291
 20
4504.4999999999827
 30
0.0
 11
2104.5000000000018
 21
4504.4999999999827
 31
0.0
  0
LINE
  5
41F
  8
MESH
 10
2104.5000000000032
 20
4795.4999999999827
 30
0.0
 11
2399.99999999994
 21
4795.4999999999827
 31
0.0
  0
LINE
  5
420
  8
MESH
 10
1804.500000000002
 20
4795.4999999999854
 30
0.0
 11
2095.5000000000032
 21
4795.4999999999827
 31
0.0
  0
LINE
  5
421
  8
MESH
 10
1504.5000000000009
 20
4795.4999999999854
 30
0.0
 11
1795.500000000002
 21
4795.4999999999854
 31
0.0
  0
LINE
  5
422
  8
MESH
 10
1204.5000000000009
 20
4795.4999999999864
 30
0.0
 11
1495.5000000000009
 21
4795.4999999999854
 31
0.0
  0
LINE
  5
423
  8
MESH
 10
904.50000000000011
 20
4795.4999999999864
 30
0.0
 11
1195.5
 21
4795.4999999999864
 31
0.0
  0
LINE
  5
424
  8
MESH
 10
604.49999999999955
 20
4795.4999999999873
 30
0.0
 11
895.5
 21
4795.4999999999864
 31
0.0
  0
LINE
  5
425
  8
MESH
 10
304.49999999999869
 20
4795.4999999999873
 30
0.0
 11
595.49999999999955
 21
4795.4999999999873
 31
0.0
  0
LINE
  5
426
  8
MESH
 10
-0.0000000000595657
 20
4795.4999999999882
 30
0.0
 11
295.49999999999869
 21
4795.4999999999873
 31
0.0
  0
LINE
  5
427
  8
MESH
 10
295.49999999999869
 20
4804.4999999999873
 30
0.0
 11
-0.0000000000595497
 21
4804.4999999999882
 31
0.0
  0
LINE
  5
428
  8
MESH
 10
595.49999999999955
 20
4804.4999999999873
 30
0.0
 11
304.49999999999881
 21
4804.4999999999873
 31
0.0
  0
LINE
  5
429
  8
MESH
 10
895.50000000000011
 20
4804.4999999999854
 30
0.0
 11
604.49999999999955
 21
4804.4999999999873
 31
0.0
  0
LINE
  5
42A
  8
MESH
 10
1195.5
 20
4804.4999999999854
 30
0.0
 11
904.50000000000011
 21
4804.4999999999854
 31
0.0
  0
LINE
  5
42B
  8
MESH
 10
1495.5000000000009
 20
4804.4999999999836
 30
0.0
 11
1204.5
 21
4804.4999999999854
 31
0.0
  0
LINE
  5
42C
  8
MESH
 10
1795.5000000000009
 20
4804.4999999999836
 30
0.0
 11
1504.5000000000009
 21
4804.4999999999836
 31
0.0
  0
LINE
  5
42D
  8
MESH
 10
2095.5000000000032
 20
4804.4999999999836
 30
0.0
 11
1804.500000000002
 21
4804.4999999999836
 31
0.0
  0
LINE
  5
42E
  8
MESH
 10
2399.99999999994
 20
4804.4999999999836
 30
0.0
 11
2104.5000000000032
 21
4804.4999999999836
 31
0.0
  0
LINE
  5
42F
  8
MESH
 10
2104.5000000000018
 20
5095.4999999999864
 30
0.0
 11
2399.9999999999532
 21
5095.4999999999864
 31
0.0
  0
LINE
  5
430
  8
MESH
 10
1804.500000000002
 20
5095.4999999999873
 30
0.0
 11
2095.5000000000032
 21
5095.4999999999864
 31
0.0
  0
LINE
  5
431
  8
MESH
 10
1504.5000000000009
 20
5095.4999999999873
 30
0.0
 11
1795.500000000002
 21
5095.4999999999873
 31
0.0
  0
LINE
  5
432
  8
MESH
 10
1204.5000000000009
 20
5095.4999999999873
 30
0.0
 11
1495.5000000000009
 21
5095.4999999999873
 31
0.0
  0
LINE
  5
433
  8
MESH
 10
904.50000000000011
 20
5095.4999999999882
 30
0.0
 11
1195.5
 21
5095.4999999999873
 31
0.0
  0
LINE
  5
434
  8
MESH
 10
604.49999999999955
 20
5095.4999999999882
 30
0.0
 11
895.49999999999977
 21
5095.4999999999873
 31
0.0
  0
LINE
  5
435
  8
MESH
 10
304.49999999999869
 20
5095.4999999999882
 30
0.0
 11
595.49999999999943
 21
5095.4999999999882
 31
0.0
  0
LINE
  5
436
  8
MESH
 10
-0.0000000000473834
 20
5095.4999999999891
 30
0.0
 11
295.49999999999869
 21
5095.4999999999882
 31
0.0
  0
LINE
  5
437
  8
MESH
 10
295.49999999999869
 20
5104.49999999999
 30
0.0
 11
-0.0000000000473674
 21
5104.49999999999
 31
0.0
  0
LINE
  5
438
  8
MESH
 10
595.49999999999955
 20
5104.4999999999882
 30
0.0
 11
304.49999999999869
 21
5104.49999999999
 31
0.0
  0
LINE
  5
439
  8
MESH
 10
895.50000000000011
 20
5104.4999999999873
 30
0.0
 11
604.49999999999955
 21
5104.4999999999882
 31
0.0
  0
LINE
  5
43A
  8
MESH
 10
1195.5
 20
5104.4999999999873
 30
0.0
 11
904.50000000000011
 21
5104.4999999999873
 31
0.0
  0
LINE
  5
43B
  8
MESH
 10
1495.5000000000009
 20
5104.4999999999873
 30
0.0
 11
1204.5000000000009
 21
5104.4999999999873
 31
0.0
  0
LINE
  5
43C
  8
MESH
 10
1795.500000000002
 20
5104.4999999999854
 30
0.0
 11
1504.5000000000009
 21
5104.4999999999873
 31
0.0
  0
LINE
  5
43D
  8
MESH
 10
2095.5000000000032
 20
5104.4999999999854
 30
0.0
 11
1804.500000000002
 21
5104.4999999999854
 31
0.0
  0
LINE
  5
43E
  8
MESH
 10
2399.9999999999532
 20
5104.4999999999854
 30
0.0
 11
2104.5000000000018
 21
5104.4999999999854
 31
0.0
  0
LINE
  5
43F
  8
MESH
 10
2104.5000000000032
 20
5395.4999999999882
 30
0.0
 11
2399.999999999965
 21
5395.4999999999864
 31
0.0
  0
LINE
  5
440
  8
MESH
 10
1804.500000000002
 20
5395.4999999999882
 30
0.0
 11
2095.5000000000032
 21
5395.4999999999873
 31
0.0
  0
LINE
  5
441
  8
MESH
 10
1504.5000000000009
 20
5395.4999999999882
 30
0.0
 11
1795.500000000002
 21
5395.4999999999882
 31
0.0
  0
LINE
  5
442
  8
MESH
 10
1204.5000000000009
 20
5395.4999999999882
 30
0.0
 11
1495.5000000000009
 21
5395.4999999999882
 31
0.0
  0
LINE
  5
443
  8
MESH
 10
904.50000000000011
 20
5395.4999999999882
 30
0.0
 11
1195.5
 21
5395.4999999999882
 31
0.0
  0
LINE
  5
444
  8
MESH
 10
604.49999999999943
 20
5395.4999999999882
 30
0.0
 11
895.5
 21
5395.4999999999882
 31
0.0
  0
LINE
  5
445
  8
MESH
 10
304.49999999999869
 20
5395.4999999999891
 30
0.0
 11
595.49999999999943
 21
5395.4999999999882
 31
0.0
  0
LINE
  5
446
  8
MESH
 10
-0.0000000000352012
 20
5395.4999999999909
 30
0.0
 11
295.49999999999869
 21
5395.4999999999891
 31
0.0
  0
LINE
  5
447
  8
MESH
 10
295.49999999999869
 20
5404.4999999999909
 30
0.0
 11
-0.0000000000351852
 21
5404.4999999999909
 31
0.0
  0
LINE
  5
448
  8
MESH
 10
595.49999999999955
 20
5404.4999999999909
 30
0.0
 11
304.49999999999881
 21
5404.4999999999909
 31
0.0
  0
LINE
  5
449
  8
MESH
 10
895.49999999999977
 20
5404.49999999999
 30
0.0
 11
604.49999999999932
 21
5404.4999999999909
 31
0.0
  0
LINE
  5
44A
  8
MESH
 10
1195.5
 20
5404.4999999999882
 30
0.0
 11
904.49999999999989
 21
5404.49999999999
 31
0.0
  0
LINE
  5
44B
  8
MESH
 10
1495.5000000000009
 20
5404.4999999999882
 30
0.0
 11
1204.5
 21
5404.4999999999882
 31
0.0
  0
LINE
  5
44C
  8
MESH
 10
1795.5000000000009
 20
5404.4999999999882
 30
0.0
 11
1504.5000000000009
 21
5404.4999999999882
 31
0.0
  0
LINE
  5
44D
  8
MESH
 10
2095.5000000000032
 20
5404.4999999999882
 30
0.0
 11
1804.500000000002
 21
5404.4999999999882
 31
0.0
  0
LINE
  5
44E
  8
MESH
 10
2399.999999999965
 20
5404.4999999999873
 30
0.0
 11
2104.5000000000032
 21
5404.4999999999882
 31
0.0
  0
LINE
  5
44F
  8
MESH
 10
2104.5000000000032
 20
5695.4999999999873
 30
0.0
 11
2399.9999999999768
 21
5695.4999999999873
 31
0.0
  0
LINE
  5
450
  8
MESH
 10
1804.500000000002
 20
5695.4999999999873
 30
0.0
 11
2095.5000000000032
 21
5695.4999999999873
 31
0.0
  0
LINE
  5
451
  8
MESH
 10
1504.5000000000009
 20
5695.4999999999882
 30
0.0
 11
1795.500000000002
 21
5695.4999999999873
 31
0.0
  0
LINE
  5
452
  8
MESH
 10
1204.5
 20
5695.4999999999891
 30
0.0
 11
1495.5000000000009
 21
5695.4999999999882
 31
0.0
  0
LINE
  5
453
  8
MESH
 10
904.50000000000011
 20
5695.4999999999918
 30
0.0
 11
1195.5
 21
5695.4999999999891
 31
0.0
  0
LINE
  5
454
  8
MESH
 10
604.49999999999955
 20
5695.4999999999918
 30
0.0
 11
895.50000000000011
 21
5695.4999999999918
 31
0.0
  0
LINE
  5
455
  8
MESH
 10
304.49999999999869
 20
5695.4999999999918
 30
0.0
 11
595.49999999999955
 21
5695.4999999999918
 31
0.0
  0
LINE
  5
456
  8
MESH
 10
-0.0000000000230189
 20
5695.4999999999918
 30
0.0
 11
295.49999999999881
 21
5695.4999999999918
 31
0.0
  0
LINE
  5
457
  8
MESH
 10
295.49999999999869
 20
5704.4999999999909
 30
0.0
 11
-0.0000000000230029
 21
5704.4999999999918
 31
0.0
  0
LINE
  5
458
  8
MESH
 10
595.49999999999955
 20
5704.49999999999
 30
0.0
 11
304.49999999999881
 21
5704.4999999999909
 31
0.0
  0
LINE
  5
459
  8
MESH
 10
895.50000000000011
 20
5704.49999999999
 30
0.0
 11
604.49999999999955
 21
5704.49999999999
 31
0.0
  0
LINE
  5
45A
  8
MESH
 10
1195.5000000000009
 20
5704.49999999999
 30
0.0
 11
904.50000000000011
 21
5704.49999999999
 31
0.0
  0
LINE
  5
45B
  8
MESH
 10
1495.5000000000009
 20
5704.4999999999882
 30
0.0
 11
1204.5000000000009
 21
5704.49999999999
 31
0.0
  0
LINE
  5
45C
  8
MESH
 10
1795.500000000002
 20
5704.4999999999873
 30
0.0
 11
1504.5000000000009
 21
5704.4999999999882
 31
0.0
  0
LINE
  5
45D
  8
MESH
 10
2095.5000000000032
 20
5704.4999999999873
 30
0.0
 11
1804.500000000002
 21
5704.4999999999873
 31
0.0
  0
LINE
  5
45E
  8
MESH
 10
2399.9999999999768
 20
5704.4999999999873
 30
0.0
 11
2104.5000000000032
 21
5704.4999999999873
 31
0.0
  0
LINE
  5
45F
  8
MESH
 10
2104.5000000000032
 20
5995.4999999999891
 30
0.0
 11
2399.99999999999
 21
5995.4999999999891
 31
0.0
  0
LINE
  5
460
  8
MESH
 10
1804.500000000002
 20
5995.4999999999891
 30
0.0
 11
2095.5000000000032
 21
5995.4999999999891
 31
0.0
  0
LINE
  5
461
  8
MESH
 10
1504.5000000000009
 20
5995.4999999999891
 30
0.0
 11
1795.500000000002
 21
5995.4999999999891
 31
0.0
  0
LINE
  5
462
  8
MESH
 10
1204.5000000000009
 20
5995.4999999999909
 30
0.0
 11
1495.5000000000009
 21
5995.4999999999909
 31
0.0
  0
LINE
  5
463
  8
MESH
 10
904.50000000000011
 20
5995.4999999999918
 30
0.0
 11
1195.5000000000009
 21
5995.4999999999909
 31
0.0
  0
LINE
  5
464
  8
MESH
 10
604.49999999999955
 20
5995.4999999999918
 30
0.0
 11
895.50000000000011
 21
5995.4999999999918
 31
0.0
  0
LINE
  5
465
  8
MESH
 10
304.49999999999869
 20
5995.4999999999918
 30
0.0
 11
595.49999999999943
 21
5995.4999999999918
 31
0.0
  0
LINE
  5
466
  8
MESH
 10
-0.0000000000108367
 20
5995.4999999999918
 30
0.0
 11
295.49999999999869
 21
5995.4999999999918
 31
0.0
  0
LINE
  5
467
  8
MESH
 10
295.49999999999869
 20
6004.4999999999918
 30
0.0
 11
-0.0000000000108207
 21
6004.4999999999927
 31
0.0
  0
LINE
  5
468
  8
MESH
 10
595.49999999999955
 20
6004.4999999999909
 30
0.0
 11
304.49999999999869
 21
6004.4999999999918
 31
0.0
  0
LINE
  5
469
  8
MESH
 10
895.5
 20
6004.4999999999909
 30
0.0
 11
604.49999999999955
 21
6004.4999999999909
 31
0.0
  0
LINE
  5
46A
  8
MESH
 10
1195.5000000000009
 20
6004.49999999999
 30
0.0
 11
904.50000000000011
 21
6004.4999999999909
 31
0.0
  0
LINE
  5
46B
  8
MESH
 10
1495.5000000000009
 20
6004.49999999999
 30
0.0
 11
1204.5000000000009
 21
6004.4999999999909
 31
0.0
  0
LINE
  5
46C
  8
MESH
 10
1795.500000000002
 20
6004.4999999999882
 30
0.0
 11
1504.5000000000009
 21
6004.49999999999
 31
0.0
  0
LINE
  5
46D
  8
MESH
 10
2095.5000000000032
 20
6004.4999999999873
 30
0.0
 11
1804.500000000002
 21
6004.4999999999882
 31
0.0
  0
LINE
  5
46E
  8
MESH
 10
2399.99999999999
 20
6004.4999999999882
 30
0.0
 11
2104.5000000000032
 21
6004.4999999999882
 31
0.0
  0
LINE
  5
46F
  8
MESH
 10
2104.5000000000032
 20
6295.4999999999909
 30
0.0
 11
2400.0000000000018
 21
6295.4999999999891
 31
0.0
  0
LINE
  5
470
  8
MESH
 10
1804.500000000002
 20
6295.4999999999891
 30
0.0
 11
2095.5000000000032
 21
6295.4999999999891
 31
0.0
  0
LINE
  5
471
  8
MESH
 10
1504.5000000000009
 20
6295.4999999999891
 30
0.0
 11
1795.500000000002
 21
6295.4999999999891
 31
0.0
  0
LINE
  5
472
  8
MESH
 10
1204.5000000000009
 20
6295.4999999999909
 30
0.0
 11
1495.5000000000009
 21
6295.4999999999891
 31
0.0
  0
LINE
  5
473
  8
MESH
 10
904.50000000000011
 20
6295.4999999999909
 30
0.0
 11
1195.5
 21
6295.4999999999909
 31
0.0
  0
LINE
  5
474
  8
MESH
 10
604.49999999999955
 20
6295.4999999999918
 30
0.0
 11
895.5
 21
6295.4999999999918
 31
0.0
  0
LINE
  5
475
  8
MESH
 10
304.49999999999869
 20
6295.4999999999927
 30
0.0
 11
595.49999999999943
 21
6295.4999999999918
 31
0.0
  0
LINE
  5
476
  8
MESH
 10
0.0000000000013456
 20
6295.4999999999927
 30
0.0
 11
295.49999999999869
 21
6295.4999999999927
 31
0.0
  0
LINE
  5
477
  8
MESH
 10
295.49999999999892
 20
6304.4999999999964
 30
0.0
 11
0.0000000000013616
 21
6304.4999999999927
 31
0.0
  0
LINE
  5
478
  8
MESH
 10
595.49999999999955
 20
6304.4999999999927
 30
0.0
 11
304.49999999999869
 21
6304.4999999999927
 31
0.0
  0
LINE
  5
479
  8
MESH
 10
895.50000000000011
 20
6304.4999999999927
 30
0.0
 11
604.49999999999955
 21
6304.4999999999927
 31
0.0
  0
LINE
  5
47A
  8
MESH
 10
1195.5000000000009
 20
6304.4999999999909
 30
0.0
 11
904.50000000000045
 21
6304.4999999999927
 31
0.0
  0
LINE
  5
47B
  8
MESH
 10
1495.5000000000009
 20
6304.4999999999909
 30
0.0
 11
1204.5000000000009
 21
6304.4999999999909
 31
0.0
  0
LINE
  5
47C
  8
MESH
 10
1795.500000000002
 20
6304.4999999999909
 30
0.0
 11
1504.5000000000009
 21
6304.4999999999909
 31
0.0
  0
LINE
  5
47D
  8
MESH
 10
2095.5000000000032
 20
6304.4999999999909
 30
0.0
 11
1804.500000000002
 21
6304.4999999999909
 31
0.0
  0
LINE
  5
47E
  8
MESH
 10
2400.0000000000018
 20
6304.49999999999
 30
0.0
 11
2104.5000000000032
 21
6304.4999999999909
 31
0.0
  0
LINE
  5
47F
  8
MESH
 10
2104.5000000000032
 20
6595.4999999999909
 30
0.0
 11
2400.0000000000141
 21
6595.4999999999909
 31
0.0
  0
LINE
  5
480
  8
MESH
 10
1804.500000000002
 20
6595.4999999999909
 30
0.0
 11
2095.5000000000032
 21
6595.4999999999909
 31
0.0
  0
LINE
  5
481
  8
MESH
 10
1504.5000000000009
 20
6595.4999999999927
 30
0.0
 11
1795.500000000002
 21
6595.4999999999909
 31
0.0
  0
LINE
  5
482
  8
MESH
 10
1204.5000000000009
 20
6595.4999999999936
 30
0.0
 11
1495.5000000000009
 21
6595.4999999999936
 31
0.0
  0
LINE
  5
483
  8
MESH
 10
904.50000000000011
 20
6595.4999999999936
 30
0.0
 11
1195.5000000000009
 21
6595.4999999999936
 31
0.0
  0
LINE
  5
484
  8
MESH
 10
604.49999999999955
 20
6595.4999999999936
 30
0.0
 11
895.50000000000011
 21
6595.4999999999936
 31
0.0
  0
LINE
  5
485
  8
MESH
 10
304.49999999999869
 20
6595.4999999999936
 30
0.0
 11
595.49999999999955
 21
6595.4999999999936
 31
0.0
  0
LINE
  5
486
  8
MESH
 10
0.0000000000135278
 20
6595.4999999999936
 30
0.0
 11
295.49999999999869
 21
6595.4999999999936
 31
0.0
  0
LINE
  5
487
  8
MESH
 10
295.49999999999892
 20
6604.4999999999964
 30
0.0
 11
0.0000000000135438
 21
6604.4999999999964
 31
0.0
  0
LINE
  5
488
  8
MESH
 10
595.49999999999955
 20
6604.4999999999964
 30
0.0
 11
304.49999999999892
 21
6604.4999999999964
 31
0.0
  0
LINE
  5
489
  8
MESH
 10
895.5
 20
6604.4999999999964
 30
0.0
 11
604.49999999999955
 21
6604.4999999999964
 31
0.0
  0
LINE
  5
48A
  8
MESH
 10
1195.5000000000009
 20
6604.4999999999964
 30
0.0
 11
904.50000000000034
 21
6604.4999999999964
 31
0.0
  0
LINE
  5
48B
  8
MESH
 10
1495.5000000000009
 20
6604.4999999999964
 30
0.0
 11
1204.5000000000009
 21
6604.4999999999964
 31
0.0
  0
LINE
  5
48C
  8
MESH
 10
1795.500000000002
 20
6604.4999999999927
 30
0.0
 11
1504.5000000000009
 21
6604.4999999999927
 31
0.0
  0
LINE
  5
48D
  8
MESH
 10
2095.5000000000032
 20
6604.4999999999927
 30
0.0
 11
1804.500000000002
 21
6604.4999999999927
 31
0.0
  0
LINE
  5
48E
  8
MESH
 10
2400.0000000000141
 20
6604.4999999999909
 30
0.0
 11
2104.5000000000032
 21
6604.4999999999909
 31
0.0
  0
LINE
  5
48F
  8
MESH
 10
2095.5000000000032
 20
6899.9999999999982
 30
0.0
 11
2095.5000000000032
 21
0.0
 31
0.0
  0
LINE
  5
490
  8
MESH
 10
2104.5000000000032
 20
0.0
 30
0.0
 11
2104.5000000000032
 21
6899.9999999999982
 31
0.0
  0
LINE
  5
491
  8
MESH
 10
1795.500000000002
 20
6899.9999999999982
 30
0.0
 11
1795.500000000002
 21
0.0
 31
0.0
  0
LINE
  5
492
  8
MESH
 10
1804.500000000002
 20
0.0
 30
0.0
 11
1804.500000000002
 21
6899.9999999999982
 31
0.0
  0
LINE
  5
493
  8
MESH
 10
1495.5000000000009
 20
6899.9999999999982
 30
0.0
 11
1495.5000000000009
 21
0.0
 31
0.0
  0
LINE
  5
494
  8
MESH
 10
1504.5000000000009
 20
0.0
 30
0.0
 11
1504.5000000000009
 21
6899.9999999999982
 31
0.0
  0
LINE
  5
495
  8
MESH
 10
1195.5
 20
6899.9999999999982
 30
0.0
 11
1195.5
 21
0.0
 31
0.0
  0
LINE
  5
496
  8
MESH
 10
1204.5000000000009
 20
0.0
 30
0.0
 11
1204.5000000000009
 21
6899.9999999999982
 31
0.0
  0
LINE
  5
497
  8
MESH
 10
895.5
 20
6899.9999999999982
 30
0.0
 11
895.5
 21
0.0
 31
0.0
  0
LINE
  5
498
  8
MESH
 10
904.50000000000011
 20
0.0
 30
0.0
 11
904.50000000000011
 21
6899.9999999999982
 31
0.0
  0
LINE
  5
499
  8
MESH
 10
595.49999999999955
 20
6899.9999999999982
 30
0.0
 11
595.49999999999955
 21
-0.0000000000010829
 31
0.0
  0
LINE
  5
49A
  8
MESH
 10
604.49999999999955
 20
-0.0000000000010829
 30
0.0
 11
604.49999999999955
 21
6899.9999999999982
 31
0.0
  0
LINE
  5
49B
  8
MESH
 10
295.49999999999869
 20
6899.9999999999982
 30
0.0
 11
295.49999999999869
 21
0.0
 31
0.0
  0
LINE
  5
49C
  8
MESH
 10
304.49999999999869
 20
0.0
 30
0.0
 11
304.49999999999869
 21
6899.9999999999982
 31
0.0
  0
ENDBLK
  5
231
  8
0
  0
BLOCK
  8
0
  2
_ARCHTICK
 70
     0
 10
0.0
 20
0.0
 30
0.0
  3
_ARCHTICK
  1

  0
POLYLINE
  5
29B
  8
0
  6
BYBLOCK
 62
     0
 66
     1
 10
0.0
 20
0.0
 30
0.0
 40
0.15
 41
0.15
  0
VERTEX
  5
684
  8
0
  6
BYBLOCK
 62
     0
 10
-0.5
 20
-0.5
 30
0.0
  0
VERTEX
  5
685
  8
0
  6
BYBLOCK
 62
     0
 10
0.5
 20
0.5
 30
0.0
  0
SEQEND
  5
686
  8
0
  6
BYBLOCK
 62
     0
  0
ENDBLK
  5
29D
  8
0
  0
BLOCK
  8
0
  2
HURRICANE
 70
     0
 10
0.0
 20
0.0
 30
0.0
  3
HURRICANE
  1

  0
TEXT
  5
5E3
  8
HURRICANE_09_274_5329_03_3
 10
-10.79948840381992
 20
-5.0420310661715337
 30
0.0
 40
1.3
  1
Web: www.hurricane.co.nz
  7
ARIAL
 72
     1
 11
0.0
 21
-5.426887821481273
 31
0.0
 73
     1
1001
PE_URL
1000
http://www.hurricane.co.nz
1002
{
1000
http://www.hurricane.co.nz
1002
{
1071
        1
1002
}
1002
}
  0
INSERT
  5
5E4
  8
0
  2
*U4
 10
0.0
 20
0.0
 30
0.0
  0
TEXT
  5
5E5
  8
HURRICANE_09_274_5329_03_3
 10
-12.1256480218281
 20
-2.8693341911033929
 30
0.0
 40
1.3
  1
Email: mesh@hurricane.co.nz
  7
ARIAL
 72
     1
 11
0.0
 21
-3.2541909464131318
 31
0.0
 73
     1
1001
PE_URL
1000
mailto:mesh@hurricane.co.nz
1002
{
1000
mailto:mesh@hurricane.co.nz
1002
{
1071
        1
1002
}
1002
}
  0
ENDBLK
  5
5E8
  8
0
  0
BLOCK
  8
0
  2
*U4
 70
     1
 10
0.0
 20
0.0
 30
0.0
  3
*U4
  1

  0
TEXT
  5
69A
  8
HURRICANE_09_274_5329_03_3
 10
-20.393321115279679
 20
9.7559690298548531
 30
0.0
 40
2.5000300000000002
  1
Hurricane Wire - Auckland
  7
ARIAL
  0
TEXT
  5
69B
  8
HURRICANE_09_274_5329_03_3
 10
-8.9207880594272506
 20
6.6819287924116519
 30
0.0
 40
1.7999965997
  1
Ph 09 274 5329
  7
ARIAL
  0
TEXT
  5
69C
  8
HURRICANE_09_274_5329_03_3
 10
-23.018558126405399
 20
3.1059480396541592
 30
0.0
 40
2.50001527732333
  1
Hurricane Wire - Christchurch
  7
ARIAL
  0
TEXT
  5
69D
  8
HURRICANE_09_274_5329_03_3
 10
-8.9207355249063731
 20
0.0319233533339156
 30
0.0
 40
1.799985999520024
  1
Ph 03 344 3619
  7
ARIAL
  0
ENDBLK
  5
69F
  8
0
  0
ENDSEC
  0
SECTION
  2
ENTITIES
  0
INSERT
  5
232
  8
0
  2
MESH_-_212ST-0-212ST
 10
6899.9999999999973
 20
-0.0000000000181615
 30
0.0
 50
89.999999999999915
1001
REVIT
1002
{
1070
     1
1000
192029
1002
}
1002
{
1070
     5
1000
190995
1002
}
1002
{
1070
     2
1000
-2000151
1002
}
  0
INSERT
  5
5E9
  8
HURRICANE_09_274_5329_03_3
  2
HURRICANE
 10
0.0
 20
0.0
 30
0.0
  0
VIEWPORT
  5
5FE
 67
     1
  8
0
 10
145.34092712402341
 20
101.81166386604311
 30
0.0
 40
427.38845107830838
 41
222.15178063964851
 68
     1
 69
     1
1001
ACAD
1000
MVIEW
1002
{
1070
    16
1010
0.0
1020
0.0
1030
0.0
1010
0.0
1020
0.0
1030
1.0
1040
0.0
1040
222.15178063964851
1040
145.34092712402341
1040
101.81166386604311
1040
50.0
1040
0.0
1040
0.0
1070
     0
1070
   100
1070
     1
1070
     1
1070
     0
1070
     0
1070
     0
1070
     0
1040
0.0
1040
0.0
1040
0.0
1040
10.0
1040
10.0
1040
10.0
1040
10.0
1070
     0
1002
{
1002
}
1002
}
  0
VIEWPORT
  5
602
 67
     1
  8
0
 10
145.3409210443497
 20
101.8116623163223
 30
0.0
 40
232.5454736709595
 41
162.89865970611569
 68
     2
 69
     2
1001
ACAD
1000
MVIEW
1002
{
1070
    16
1010
0.0
1020
0.0
1030
0.0
1010
0.0
1020
0.0
1030
1.0
1040
0.0
1040
4877.8410794092451
1040
3438.490720936798
1040
1197.2865560903831
1040
50.0
1040
0.0
1040
0.0
1070
     0
1070
   100
1070
     1
1070
     3
1070
     0
1070
     0
1070
     0
1070
     0
1040
0.0
1040
0.0
1040
0.0
1040
1.0
1040
1.0
1040
0.0
1040
0.0
1070
     0
1002
{
1002
}
1002
}
  0
ENDSEC
  0
EOF
