  0
SECTION
  2
HEADER
  9
$ACADVER
  1
AC1009
  9
$INSBASE
 10
0.0
 20
0.0
 30
0.0
  9
$EXTMIN
 10
-331.5942587067334
 20
-256.27015346114672
 30
-0.0015258207003583
  9
$EXTMAX
 10
440.96160648533282
 20
429.53755165044748
 30
0.0000000349246037
  9
$LIMMIN
 10
0.0
 20
0.0
  9
$LIMMAX
 10
12.0
 20
9.0
  9
$ORTHOMODE
 70
     0
  9
$REGENMODE
 70
     1
  9
$FILLMODE
 70
     1
  9
$QTEXTMODE
 70
     0
  9
$MIRRTEXT
 70
     0
  9
$DRAGMODE
 70
     2
  9
$LTSCALE
 40
0.5
  9
$OSMODE
 70
     0
  9
$ATTMODE
 70
     1
  9
$TEXTSIZE
 40
1.5
  9
$TRACEWID
 40
0.05
  9
$TEXTSTYLE
  7
TEXT_TITLE
  9
$CLAYER
  8
0
  9
$CELTYPE
  6
CONTINUOUS
  9
$CECOLOR
 62
   256
  9
$DIMSCALE
 40
5.0
  9
$DIMASZ
 40
3.0
  9
$DIMEXO
 40
1.5
  9
$DIMDLI
 40
3.75
  9
$DIMRND
 40
0.0
  9
$DIMDLE
 40
0.0
  9
$DIMEXE
 40
1.0
  9
$DIMTP
 40
0.0
  9
$DIMTM
 40
0.000000001
  9
$DIMTXT
 40
2.0
  9
$DIMCEN
 40
0.0
  9
$DIMTSZ
 40
0.0
  9
$DIMTOL
 70
     0
  9
$DIMLIM
 70
     0
  9
$DIMTIH
 70
     0
  9
$DIMTOH
 70
     0
  9
$DIMSE1
 70
     0
  9
$DIMSE2
 70
     0
  9
$DIMTAD
 70
     1
  9
$DIMZIN
 70
     8
  9
$DIMBLK
  1

  9
$DIMASO
 70
     1
  9
$DIMSHO
 70
     1
  9
$DIMPOST
  1

  9
$DIMAPOST
  1

  9
$DIMALT
 70
     0
  9
$DIMALTD
 70
     3
  9
$DIMALTF
 40
0.03937007874016
  9
$DIMLFAC
 40
1.0
  9
$DIMTOFL
 70
     1
  9
$DIMTVP
 40
0.0
  9
$DIMTIX
 70
     0
  9
$DIMSOXD
 70
     0
  9
$DIMSAH
 70
     0
  9
$DIMBLK1
  1

  9
$DIMBLK2
  1

  9
$DIMSTYLE
  2
DL1DS10
  9
$DIMCLRD
 70
     6
  9
$DIMCLRE
 70
     6
  9
$DIMCLRT
 70
     2
  9
$DIMTFAC
 40
0.8
  9
$DIMGAP
 40
1.0
  9
$LUNITS
 70
     2
  9
$LUPREC
 70
     1
  9
$SKETCHINC
 40
0.1
  9
$FILLETRAD
 40
2.0
  9
$AUNITS
 70
     1
  9
$AUPREC
 70
     4
  9
$MENU
  1
.
  9
$ELEVATION
 40
0.0
  9
$PELEVATION
 40
0.0
  9
$THICKNESS
 40
0.0
  9
$LIMCHECK
 70
     0
  9
$BLIPMODE
 70
     0
  9
$CHAMFERA
 40
0.0
  9
$CHAMFERB
 40
0.0
  9
$SKPOLY
 70
     0
  9
$TDCREATE
 40
2452152.65359294
  9
$TDUPDATE
 40
2455936.4877080331
  9
$TDINDWG
 40
10.0938418403
  9
$TDUSRTIMER
 40
10.0938418403
  9
$USRTIMER
 70
     1
  9
$ANGBASE
 50
0.0
  9
$ANGDIR
 70
     0
  9
$PDMODE
 70
     3
  9
$PDSIZE
 40
0.0
  9
$PLINEWID
 40
0.0
  9
$COORDS
 70
     1
  9
$SPLFRAME
 70
     0
  9
$SPLINETYPE
 70
     6
  9
$SPLINESEGS
 70
     8
  9
$ATTDIA
 70
     0
  9
$ATTREQ
 70
     1
  9
$HANDLING
 70
     1
  9
$HANDSEED
  5
D28
  9
$SURFTAB1
 70
     6
  9
$SURFTAB2
 70
     6
  9
$SURFTYPE
 70
     6
  9
$SURFU
 70
     6
  9
$SURFV
 70
     6
  9
$UCSNAME
  2

  9
$UCSORG
 10
0.0
 20
0.0
 30
0.0
  9
$UCSXDIR
 10
1.0
 20
0.0
 30
0.0
  9
$UCSYDIR
 10
0.0
 20
1.0
 30
0.0
  9
$PUCSNAME
  2

  9
$PUCSORG
 10
0.0
 20
0.0
 30
0.0
  9
$PUCSXDIR
 10
1.0
 20
0.0
 30
0.0
  9
$PUCSYDIR
 10
0.0
 20
1.0
 30
0.0
  9
$USERI1
 70
     0
  9
$USERI2
 70
     0
  9
$USERI3
 70
     0
  9
$USERI4
 70
     0
  9
$USERI5
 70
     0
  9
$USERR1
 40
0.0
  9
$USERR2
 40
0.0
  9
$USERR3
 40
0.0
  9
$USERR4
 40
0.0
  9
$USERR5
 40
0.0
  9
$WORLDVIEW
 70
     1
  9
$SHADEDGE
 70
     3
  9
$SHADEDIF
 70
    70
  9
$TILEMODE
 70
     1
  9
$MAXACTVP
 70
    48
  9
$PLIMCHECK
 70
     0
  9
$PEXTMIN
 10
0.0
 20
0.0
 30
0.0
  9
$PEXTMAX
 10
0.0
 20
0.0
 30
0.0
  9
$PLIMMIN
 10
0.0
 20
0.0
  9
$PLIMMAX
 10
12.0
 20
9.0
  9
$UNITMODE
 70
     0
  9
$VISRETAIN
 70
     1
  9
$PLINEGEN
 70
     1
  9
$PSLTSCALE
 70
     1
  0
ENDSEC
  0
SECTION
  2
TABLES
  0
TABLE
  2
VPORT
 70
     1
  0
VPORT
  2
*ACTIVE
 70
     0
 10
0.0
 20
0.0
 11
1.0
 21
1.0
 12
54.683673889299712
 22
86.63369909465041
 13
0.0
 23
0.0
 14
1.0
 24
1.0
 15
0.5
 25
0.5
 16
0.0
 26
0.0
 36
1.0
 17
0.0
 27
0.0
 37
0.0
 40
689.93079752709468
 41
1.908726178535606
 42
50.0
 43
0.0
 44
0.0
 50
0.0
 51
0.0
 71
     0
 72
 20000
 73
     1
 74
     3
 75
     0
 76
     0
 77
     0
 78
     0
  0
ENDTAB
  0
TABLE
  2
LTYPE
 70
     3
  0
LTYPE
  2
CONTINUOUS
 70
     0
  3
Solid line
 72
    65
 73
     0
 40
0.0
  0
LTYPE
  2
COMM-23_CORNER_EXTERNAL$0$
 70
     0
  3
Hidden __ __ __ __ __ __ __ __ __ __ __ __ __ _
 72
    65
 73
     2
 40
9.5249999999999986
 49
6.3499999999999988
 49
-3.1749999999999989
  0
LTYPE
  2
COMM-23_CORNER_EXTERNAL$00
 70
     0
  3
____ . ____ . ____ . ____ . ____ . ____ . ____
 72
    65
 73
     4
 40
18.0
 49
12.0
 49
-1.5
 49
3.0
 49
-1.5
  0
ENDTAB
  0
TABLE
  2
LAYER
 70
     7
  0
LAYER
  2
0
 70
     0
 62
     7
  6
CONTINUOUS
  0
ENDTAB
  0
TABLE
  2
STYLE
 70
     9
  0
STYLE
  2
STANDARD
 70
     0
 40
0.0
 41
1.0
 50
0.0
 71
     0
 42
1.5
  3
romans.shx
  4

  0
STYLE
  2
TEXT_NOTE
 70
     0
 40
0.0
 41
1.0
 50
0.0
 71
     0
 42
2.5
  3
txt
  4

  0
STYLE
  2
TEXT_TITLE
 70
     0
 40
0.0
 41
1.0
 50
10.0
 71
     0
 42
1.5
  3
txt
  4

  0
STYLE
  2
$0$TEXT_NOTE
 70
     0
 40
0.0
 41
1.0
 50
0.0
 71
     0
 42
2.5
  3
txt
  4

  0
STYLE
  2
$0$ARIAL
 70
     0
 40
0.0
 41
1.0
 50
0.0
 71
     0
 42
1.5
  3
txt
  4

  0
STYLE
  2
COMM-23_CORNER_EXTERNAL$0$
 70
     0
 40
0.0
 41
1.0
 50
0.0
 71
     0
 42
2.5
  3
txt
  4

  0
STYLE
  2
COMM-23_CORNER_EXTERNAL$00
 70
     0
 40
0.0
 41
1.0
 50
0.0
 71
     0
 42
1.5
  3
txt
  4

  0
ENDTAB
  0
TABLE
  2
VIEW
 70
     2
  0
VIEW
  2
COMM-04
 70
     1
 40
477.26027331217421
 10
194.21746115522001
 20
180.60494410563541
 41
755.81685306636155
 11
0.0
 21
0.0
 31
1.0
 12
0.0
 22
0.0
 32
0.0
 42
50.0
 43
0.0
 44
0.0
 50
0.0
 71
     0
  0
ENDTAB
  0
TABLE
  2
UCS
 70
     0
  0
ENDTAB
  0
TABLE
  2
APPID
 70
    28
  0
APPID
  2
ACAD
 70
     0
  0
APPID
  2
RAK
 70
     0
  0
APPID
  2
GENIUS_GENOREF_13
 70
     0
  0
APPID
  2
ACAD_MLEADERVER
 70
     0
  0
APPID
  2
ACAD_EXEMPT_FROM_CAD_STANDARDS
 70
     0
  0
APPID
  2
ACAD_DSTYLE_DIMEXT_ENABLED
 70
     0
  0
APPID
  2
ACAD_DSTYLE_DIMEXT_LENGTH
 70
     0
  0
APPID
  2
ACADANNOTATIVE
 70
     0
  0
APPID
  2
ACDBBLOCKREPETAG
 70
     0
  0
APPID
  2
ACDBDYNAMICBLOCKGUID
 70
     0
  0
APPID
  2
ACAUTHENVIRON
 70
     0
  0
APPID
  2
ACDBDYNAMICBLOCKTRUENAME
 70
     0
  0
APPID
  2
GENIUS_GENODEF_13
 70
     0
  0
APPID
  2
GENIUS_GENSCREG_15
 70
     0
  0
APPID
  2
GENIUS_GENOBJ-N-SDF_13
 70
     0
  0
APPID
  2
GENIUS_GENCFG_13
 70
     0
  0
APPID
  2
GENIUS_GENCFG0_13
 70
     0
  0
APPID
  2
ACAD_PSEXT
 70
     0
  0
APPID
  2
ACAECLAYERSTANDARD
 70
     0
  0
APPID
  2
ACCMTRANSPARENCY
 70
     0
  0
APPID
  2
ACADANNOPO
 70
     0
  0
APPID
  2
ADESKUNDERLAYLAYEROVERRIDEDATA
 70
     0
  0
APPID
  2
URBANX
 70
     0
  0
APPID
  2
GRADIENTCOLOR1ACI
 70
     0
  0
APPID
  2
GRADIENTCOLOR2ACI
 70
     0
  0
APPID
  2
ACAD_NAV_VCDISPLAY
 70
     0
  0
APPID
  2
ACAD_DSTYLE_DIMJOGGED_JOGA
 70
     0
  0
APPID
  2
PE_URL
 70
     0
  0
ENDTAB
  0
TABLE
  2
DIMSTYLE
 70
     4
  0
DIMSTYLE
  2
DL1DS10
 70
     0
  3

  4

  5

  6

  7

 40
10.0
 41
3.0
 42
1.5
 43
3.75
 44
1.0
 45
0.0
 46
0.0
 47
0.0
 48
0.000000001
140
2.0
141
0.0
142
0.0
143
0.03937007874016
144
1.0
145
0.0
146
0.8
147
1.0
 71
     0
 72
     0
 73
     0
 74
     0
 75
     0
 76
     0
 77
     1
 78
     8
170
     0
171
     3
172
     1
173
     0
174
     0
175
     0
176
     6
177
     6
178
     2
  0
DIMSTYLE
  2
$0$1_TO_5_LEADER
 70
     0
  3

  4

  5
$0$_ARCHTICK
  6

  7

 40
5.0
 41
2.0
 42
2.0
 43
6.0
 44
1.5
 45
0.0
 46
1.5
 47
0.0
 48
0.0
140
2.0
141
2.0
142
0.0
143
0.0394
144
1.0
145
0.0
146
1.0
147
1.0
 71
     0
 72
     0
 73
     0
 74
     0
 75
     0
 76
     0
 77
     0
 78
     0
170
     0
171
     2
172
     1
173
     0
174
     1
175
     0
176
     0
177
     0
178
     0
  0
DIMSTYLE
  2
COMM-23_CORNER_EXTERNAL$0$
 70
     0
  3

  4

  5
COMM-23_CORNER_EXTERNAL$0$
  6

  7

 40
5.0
 41
2.0
 42
2.0
 43
6.0
 44
1.5
 45
0.0
 46
1.5
 47
0.0
 48
0.0
140
2.0
141
2.0
142
0.0
143
0.0394
144
1.0
145
0.0
146
1.0
147
1.0
 71
     0
 72
     0
 73
     0
 74
     0
 75
     0
 76
     0
 77
     0
 78
     0
170
     0
171
     2
172
     1
173
     0
174
     1
175
     0
176
     0
177
     0
178
     0
  0
ENDTAB
  0
ENDSEC
  0
SECTION
  2
BLOCKS
  0
BLOCK
  8
0
  2
$MODEL_SPACE
 70
     0
 10
0.0
 20
0.0
 30
0.0
  3
$MODEL_SPACE
  1

  0
ENDBLK
  5
C
  8
0
  0
BLOCK
 67
     1
  8
0
  2
$PAPER_SPACE
 70
     0
 10
0.0
 20
0.0
 30
0.0
  3
$PAPER_SPACE
  1

  0
ENDBLK
  5
A5A
 67
     1
  8
0
  0
BLOCK
  8
0
  2
$0$_ARCHTICK
 70
     0
 10
0.0
 20
0.0
 30
0.0
  3
$0$_ARCHTICK
  1

  0
POLYLINE
  5
238
  8
0
  6
BYBLOCK
 62
     0
 66
     1
 10
0.0
 20
0.0
 30
0.0
 40
0.15
 41
0.15
  0
VERTEX
  5
AE2
  8
0
  6
BYBLOCK
 62
     0
 10
-0.5
 20
-0.5
 30
0.0
  0
VERTEX
  5
AE3
  8
0
  6
BYBLOCK
 62
     0
 10
0.5
 20
0.5
 30
0.0
  0
SEQEND
  5
AE4
  8
0
  6
BYBLOCK
 62
     0
  0
ENDBLK
  5
239
  8
0
  0
BLOCK
  8
0
  2
COMM-23_CORNER_EXTERNAL$0$
 70
     0
 10
0.0
 20
0.0
 30
0.0
  3
COMM-23_CORNER_EXTERNAL$0$
  1

  0
POLYLINE
  5
953
  8
0
  6
BYBLOCK
 62
     0
 66
     1
 10
0.0
 20
0.0
 30
0.0
 40
0.15
 41
0.15
  0
VERTEX
  5
B58
  8
0
  6
BYBLOCK
 62
     0
 10
-0.5
 20
-0.5
 30
0.0
  0
VERTEX
  5
B59
  8
0
  6
BYBLOCK
 62
     0
 10
0.5
 20
0.5
 30
0.0
  0
SEQEND
  5
B5A
  8
0
  6
BYBLOCK
 62
     0
  0
ENDBLK
  5
954
  8
0
  0
BLOCK
  8
0
  2
*U10
 70
     1
 10
0.0
 20
0.0
 30
0.0
  3
*U10
  1

  0
TEXT
  5
AD5
  8
0
  6
CONTINUOUS
 10
318.30501458478471
 20
354.13213433775439
 30
0.0
 40
10.0
  1
0.55mm
  7
$0$TEXT_NOTE
  0
TEXT
  5
AD6
  8
0
  6
CONTINUOUS
 10
318.3391209967902
 20
337.2949356110604
 30
0.0
 40
10.0
  1
corner flashing
  7
$0$TEXT_NOTE
  0
ENDBLK
  5
AD8
  8
0
  0
BLOCK
  8
0
  2
*U11
 70
     1
 10
0.0
 20
0.0
 30
0.0
  3
*U11
  1

  0
SOLID
  5
ADA
  8
0
  6
CONTINUOUS
 10
274.92784002358047
 20
335.72558046879612
 30
0.0
 11
265.04131792799581
 21
333.48182053705358
 31
0.0
 12
273.66572750001092
 22
338.81073574672939
 32
0.0
 13
273.66572750001092
 23
338.81073574672939
 33
0.0
  0
POLYLINE
  5
ADB
  8
0
  6
CONTINUOUS
 66
     1
 10
0.0
 20
0.0
 30
0.0
  0
VERTEX
  5
ADC
  8
0
  6
CONTINUOUS
 10
274.29678376179572
 20
337.2681581077627
 30
0.0
  0
VERTEX
  5
ADD
  8
0
  6
CONTINUOUS
 10
303.61990090853902
 20
349.26401246417549
 30
0.0
  0
VERTEX
  5
ADE
  8
0
  6
CONTINUOUS
 10
313.88482358887751
 20
349.26401246417549
 30
0.0
  0
SEQEND
  5
ADF
  8
0
  6
CONTINUOUS
  0
ENDBLK
  5
AE1
  8
0
  0
BLOCK
  8
0
  2
*U12
 70
     1
 10
0.0
 20
0.0
 30
0.0
  3
*U12
  1

  0
TEXT
  5
AE6
  8
0
  6
CONTINUOUS
 10
318.25726560797699
 20
-102.9021599782801
 30
0.0
 40
10.0
  1
Steel & Tube Hi Rib
  7
$0$TEXT_NOTE
  0
TEXT
  5
AE7
  8
0
  6
CONTINUOUS
 10
318.8438958944709
 20
-119.5688266449468
 30
0.0
 40
10.0
  1
wall cladding
  7
$0$TEXT_NOTE
  0
ENDBLK
  5
AE9
  8
0
  0
BLOCK
  8
0
  2
*U13
 70
     1
 10
0.0
 20
0.0
 30
0.0
  3
*U13
  1

  0
SOLID
  5
AEB
  8
0
  6
CONTINUOUS
 10
220.4778087157124
 20
-64.846773646516112
 30
0.0
 11
212.39999999999529
 21
-58.720862764854303
 31
0.0
 12
222.02795231432069
 22
-61.895813474842363
 32
0.0
 13
222.02795231432069
 23
-61.895813474842363
 33
0.0
  0
POLYLINE
  5
AEC
  8
0
  6
CONTINUOUS
 66
     1
 10
0.0
 20
0.0
 30
0.0
  0
VERTEX
  5
AED
  8
0
  6
CONTINUOUS
 10
221.2528805150165
 20
-63.371293560679241
 30
0.0
  0
VERTEX
  5
AEE
  8
0
  6
CONTINUOUS
 10
305.4881738826968
 20
-107.620213639035
 30
0.0
  0
VERTEX
  5
AEF
  8
0
  6
CONTINUOUS
 10
313.88482358887751
 20
-107.620213639035
 30
0.0
  0
SEQEND
  5
AF0
  8
0
  6
CONTINUOUS
  0
ENDBLK
  5
AF2
  8
0
  0
BLOCK
  8
0
  2
*U14
 70
     1
 10
0.0
 20
0.0
 30
0.0
  3
*U14
  1

  0
TEXT
  5
AF4
  8
0
  6
CONTINUOUS
 10
317.36367761343399
 20
192.48696359107441
 30
0.0
 40
10.0
  1
12gx95 steelfix
  7
$0$TEXT_NOTE
  0
TEXT
  5
AF5
  8
0
  6
CONTINUOUS
 10
318.45508279760872
 20
175.64976486438039
 30
0.0
 40
10.0
  1
self drilling
  7
$0$TEXT_NOTE
  0
TEXT
  5
AF6
  8
0
  6
CONTINUOUS
 10
318.75521922325669
 20
158.8125661376865
 30
0.0
 40
10.0
  1
fasteners
  7
$0$TEXT_NOTE
  0
ENDBLK
  5
AF8
  8
0
  0
BLOCK
  8
0
  2
*U15
 70
     1
 10
0.0
 20
0.0
 30
0.0
  3
*U15
  1

  0
SOLID
  5
AFA
  8
0
  6
CONTINUOUS
 10
274.43909938143958
 20
273.92423960196783
 30
0.0
 11
273.69065762645499
 21
284.03451223514509
 31
0.0
 12
277.67765041084931
 22
274.71347869186428
 32
0.0
 13
277.67765041084931
 23
274.71347869186428
 33
0.0
  0
POLYLINE
  5
AFB
  8
0
  6
CONTINUOUS
 66
     1
 10
0.0
 20
0.0
 30
0.0
  0
VERTEX
  5
AFC
  8
0
  6
CONTINUOUS
 10
276.05837489614441
 20
274.31885914691611
 30
0.0
  0
VERTEX
  5
AFD
  8
0
  6
CONTINUOUS
 10
298.88482358887751
 20
180.65317550558089
 30
0.0
  0
VERTEX
  5
AFE
  8
0
  6
CONTINUOUS
 10
313.88482358887751
 20
180.65317550558089
 30
0.0
  0
SEQEND
  5
AFF
  8
0
  6
CONTINUOUS
  0
ENDBLK
  5
B01
  8
0
  0
BLOCK
  8
0
  2
*U16
 70
     1
 10
0.0
 20
0.0
 30
0.0
  3
*U16
  1

  0
SOLID
  5
B03
  8
0
  6
CONTINUOUS
 10
195.4100317824967
 20
370.66389499098813
 30
0.0
 11
191.8186653126125
 21
361.1833958133725
 31
0.0
 12
192.1411473751682
 22
371.31620307972798
 32
0.0
 13
192.1411473751682
 23
371.31620307972798
 33
0.0
  0
POLYLINE
  5
B04
  8
0
  6
CONTINUOUS
 66
     1
 10
0.0
 20
0.0
 30
0.0
  0
VERTEX
  5
B05
  8
0
  6
CONTINUOUS
 10
193.77558957883249
 20
370.99004903535803
 30
0.0
  0
VERTEX
  5
B06
  8
0
  6
CONTINUOUS
 10
203.91237675021279
 20
421.78810918043268
 30
0.0
  0
VERTEX
  5
B07
  8
0
  6
CONTINUOUS
 10
214.1772994305513
 20
421.78810918043268
 30
0.0
  0
SEQEND
  5
B08
  8
0
  6
CONTINUOUS
  0
ENDBLK
  5
B0A
  8
0
  0
BLOCK
  8
0
  2
*U17
 70
     1
 10
0.0
 20
0.0
 30
0.0
  3
*U17
  1

  0
TEXT
  5
B0C
  8
0
  6
CONTINUOUS
 10
218.9999460881229
 20
416.86996456924572
 30
0.0
 40
10.0
  1
4mm blind rivet
  7
$0$TEXT_NOTE
  0
ENDBLK
  5
B0E
  8
0
  0
BLOCK
  8
0
  2
*U18
 70
     1
 10
0.0
 20
0.0
 30
0.0
  3
*U18
  1

  0
SOLID
  5
B5C
  8
0
  6
CONTINUOUS
 10
266.85384512645533
 20
293.24876223514508
 30
0.0
 11
266.85384512645533
 21
283.30951223514558
 31
0.0
 12
268.8538451264539
 22
283.30951223514558
 32
0.0
 13
268.8538451264539
 23
283.30951223514558
 33
0.0
210
0.0
220
0.0
230
1.0
  0
SOLID
  5
B5D
  8
0
  6
CONTINUOUS
 10
-266.85384512645533
 20
293.24876223514508
 30
0.0
 11
-268.85384512645692
 21
293.24876223514508
 31
0.0
 12
-268.8538451264539
 22
283.30951223514558
 32
0.0
 13
-268.8538451264539
 23
283.30951223514558
 33
0.0
210
0.0
220
0.0
230
-1.0
  0
LINE
  5
B5E
  8
0
  6
CONTINUOUS
 10
266.85384512645533
 20
293.24876223514508
 30
0.0
 11
266.85384512645533
 21
283.30951223514558
 31
0.0
  0
LINE
  5
B5F
  8
0
  6
CONTINUOUS
 10
268.85384512645692
 20
293.24876223514508
 30
0.0
 11
268.8538451264539
 21
283.30951223514558
 31
0.0
  0
ENDBLK
  5
B61
  8
0
  0
BLOCK
  8
0
  2
*U19
 70
     1
 10
0.0
 20
0.0
 30
0.0
  3
*U19
  1

  0
TEXT
  5
CBE
  8
0
  6
CONTINUOUS
 10
-239.32284885410141
 20
61.451740562776578
 30
0.0
 40
10.0
  1
HST purlin
  7
COMM-23_CORNER_EXTERNAL$0$
  0
ENDBLK
  5
CC0
  8
0
  0
BLOCK
  8
0
  2
*U20
 70
     1
 10
0.0
 20
0.0
 30
0.0
  3
*U20
  1

  0
SOLID
  5
CC2
  8
0
  6
CONTINUOUS
 10
-148.3192907281653
 20
90.888799526098822
 30
0.0
 11
-142.3049258737137
 21
99.050000000006776
 31
0.0
 12
-145.3473140958464
 22
89.379340680001434
 32
0.0
 13
-145.3473140958464
 23
89.379340680001434
 33
0.0
  0
POLYLINE
  5
CC3
  8
0
  6
CONTINUOUS
 66
     1
 10
0.0
 20
0.0
 30
0.0
  0
VERTEX
  5
CC4
  8
0
  6
CONTINUOUS
 10
-146.83330241200579
 20
90.134070103050135
 30
0.0
  0
VERTEX
  5
CC5
  8
0
  6
CONTINUOUS
 10
-159.52321471396951
 20
65.148875624168113
 30
0.0
  0
VERTEX
  5
CC6
  8
0
  6
CONTINUOUS
 10
-169.29556372449699
 20
65.148875624168113
 30
0.0
  0
SEQEND
  5
CC7
  8
0
  6
CONTINUOUS
  0
ENDBLK
  5
CC9
  8
0
  0
BLOCK
  8
0
  2
*U21
 70
     1
 10
0.0
 20
0.0
 30
0.0
  3
*U21
  1

  0
SOLID
  5
CCB
  8
0
  6
CONTINUOUS
 10
88.789476775937075
 20
-223.85173161951849
 30
0.0
 11
94.803841630388661
 21
-215.69053114561049
 31
0.0
 12
91.761453408255974
 22
-225.36119046561589
 32
0.0
 13
91.761453408255974
 23
-225.36119046561589
 33
0.0
  0
POLYLINE
  5
CCC
  8
0
  6
CONTINUOUS
 66
     1
 10
0.0
 20
0.0
 30
0.0
  0
VERTEX
  5
CCD
  8
0
  6
CONTINUOUS
 10
90.27546509209651
 20
-224.60646104256719
 30
0.0
  0
VERTEX
  5
CCE
  8
0
  6
CONTINUOUS
 10
77.585552790132851
 20
-249.59165552144921
 30
0.0
  0
VERTEX
  5
CCF
  8
0
  6
CONTINUOUS
 10
66.535007970256174
 20
-249.59165552144921
 30
0.0
  0
SEQEND
  5
CD0
  8
0
  6
CONTINUOUS
  0
ENDBLK
  5
CD2
  8
0
  0
BLOCK
  8
0
  2
*U22
 70
     1
 10
0.0
 20
0.0
 30
0.0
  3
*U22
  1

  0
TEXT
  5
CD4
  8
0
  6
CONTINUOUS
 10
-5.2640813499982704
 20
-253.2887905828407
 30
0.0
 40
10.0
  1
HST purlin
  7
COMM-23_CORNER_EXTERNAL$0$
  0
ENDBLK
  5
CD6
  8
0
  0
BLOCK
  8
0
  2
*U23
 70
     1
 10
0.0
 20
0.0
 30
0.0
  3
*U23
  1

  0
TEXT
  5
D05
  8
0
  6
CONTINUOUS
 10
-256.25066843965692
 20
-44.892096268918287
 30
0.0
 40
10.0
  1
Column
  7
COMM-23_CORNER_EXTERNAL$0$
  0
ENDBLK
  5
D07
  8
0
  0
BLOCK
  8
0
  2
*U24
 70
     1
 10
0.0
 20
0.0
 30
0.0
  3
*U24
  1

  0
SOLID
  5
D09
  8
0
  6
CONTINUOUS
 10
-183.098406357377
 20
-14.15217236698758
 30
0.0
 11
-177.0840415029254
 21
-5.9909718930796307
 31
0.0
 12
-180.1264297250581
 22
-15.661631213084959
 32
0.0
 13
-180.1264297250581
 23
-15.661631213084959
 33
0.0
  0
POLYLINE
  5
D0A
  8
0
  6
CONTINUOUS
 66
     1
 10
0.0
 20
0.0
 30
0.0
  0
VERTEX
  5
D0B
  8
0
  6
CONTINUOUS
 10
-181.6124180412175
 20
-14.906901790036271
 30
0.0
  0
VERTEX
  5
D0C
  8
0
  6
CONTINUOUS
 10
-194.30233034318121
 20
-39.892096268918301
 30
0.0
  0
VERTEX
  5
D0D
  8
0
  6
CONTINUOUS
 10
-204.07467935370869
 20
-39.892096268918301
 30
0.0
  0
SEQEND
  5
D0E
  8
0
  6
CONTINUOUS
  0
ENDBLK
  5
D10
  8
0
  0
ENDSEC
  0
SECTION
  2
ENTITIES
  0
INSERT
  5
231
  8
0
  6
CONTINUOUS
  2
*U10
 10
0.0
 20
0.0
 30
0.0
  0
INSERT
  5
233
  8
0
  6
CONTINUOUS
  2
*U11
 10
0.0
 20
0.0
 30
0.0
1001
ACAD
1000
DSTYLE
1002
{
1070
   176
1070
   256
1002
}
  0
INSERT
  5
23A
  8
0
  6
CONTINUOUS
  2
*U12
 10
0.0
 20
0.0
 30
0.0
  0
INSERT
  5
23B
  8
0
  6
CONTINUOUS
  2
*U13
 10
0.0
 20
0.0
 30
0.0
1001
ACAD
1000
DSTYLE
1002
{
1070
   176
1070
   256
1002
}
  0
INSERT
  5
28C
  8
0
  6
CONTINUOUS
  2
*U14
 10
0.0
 20
0.0
 30
0.0
  0
INSERT
  5
28D
  8
0
  6
CONTINUOUS
  2
*U15
 10
0.0
 20
0.0
 30
0.0
1001
ACAD
1000
DSTYLE
1002
{
1070
   176
1070
   256
1002
}
  0
INSERT
  5
29C
  8
0
  6
CONTINUOUS
  2
*U16
 10
0.0
 20
0.0
 30
0.0
1001
ACAD
1000
DSTYLE
1002
{
1070
   176
1070
   256
1002
}
  0
INSERT
  5
29D
  8
0
  6
CONTINUOUS
  2
*U17
 10
0.0
 20
0.0
 30
0.0
  0
POLYLINE
  5
318
  8
0
  6
CONTINUOUS
 66
     1
 10
0.0
 20
0.0
 30
0.0
 70
   128
 40
0.5
 41
0.5
  0
VERTEX
  5
B0F
  8
0
  6
CONTINUOUS
 10
218.55401150018679
 20
229.0342914644869
 30
0.0
  0
VERTEX
  5
B10
  8
0
  6
CONTINUOUS
 10
265.10628175785479
 20
247.93686012276689
 30
0.0
 42
0.3052553825223649
  0
VERTEX
  5
B11
  8
0
  6
CONTINUOUS
 10
266.35384512645709
 20
249.78992221447629
 30
0.0
  0
VERTEX
  5
B12
  8
0
  6
CONTINUOUS
 10
266.35384512645692
 20
356.55686520112749
 30
0.0
 42
0.4142135623730948
  0
VERTEX
  5
B13
  8
0
  6
CONTINUOUS
 10
264.35384512645692
 20
358.55686520112749
 30
0.0
  0
VERTEX
  5
B14
  8
0
  6
CONTINUOUS
 10
171.31411948646041
 20
358.55686520112749
 30
0.0
 42
0.2813788845896698
  0
VERTEX
  5
B15
  8
0
  6
CONTINUOUS
 10
169.53429974721561
 20
357.46913801985778
 30
0.0
  0
VERTEX
  5
B16
  8
0
  6
CONTINUOUS
 10
143.4289831498254
 20
311.43150208291718
 30
0.0
  0
SEQEND
  5
B17
  8
0
  6
CONTINUOUS
  0
POLYLINE
  5
416
  8
0
  6
CONTINUOUS
 66
     1
 10
0.0
 20
0.0
 30
0.0
  0
VERTEX
  5
B18
  8
0
  6
CONTINUOUS
 10
212.21704662220861
 20
-229.0237406546492
 30
0.0
 42
-0.177697411876853
  0
VERTEX
  5
B19
  8
0
  6
CONTINUOUS
 10
213.02432593296649
 20
-228.3783546153598
 30
0.0
  0
VERTEX
  5
B1A
  8
0
  6
CONTINUOUS
 10
237.9729756126828
 20
-220.0361702000944
 30
0.0
 42
-0.4321616908690431
  0
VERTEX
  5
B1B
  8
0
  6
CONTINUOUS
 10
239.89753841914461
 20
-221.07052174686521
 30
0.0
  0
VERTEX
  5
B1C
  8
0
  6
CONTINUOUS
 10
240.62009053551009
 20
-223.7671229562562
 30
0.0
 42
0.4400105308920712
  0
VERTEX
  5
B1D
  8
0
  6
CONTINUOUS
 10
242.58200948993289
 20
-224.78843331978109
 30
0.0
  0
VERTEX
  5
B1E
  8
0
  6
CONTINUOUS
 10
261.01303021498381
 20
-218.0800903887185
 30
0.0
 42
0.3152987888789969
  0
VERTEX
  5
B1F
  8
0
  6
CONTINUOUS
 10
261.99999999999562
 20
-216.67055145753969
 30
0.0
  0
VERTEX
  5
B20
  8
0
  6
CONTINUOUS
 10
261.99999999999562
 20
-206.7711740721692
 30
0.0
 42
0.3152987888789969
  0
VERTEX
  5
B21
  8
0
  6
CONTINUOUS
 10
261.01303021498381
 20
-205.36163514099039
 30
0.0
  0
VERTEX
  5
B22
  8
0
  6
CONTINUOUS
 10
242.58200948993289
 20
-198.653292209928
 30
0.0
 42
0.4400105308920713
  0
VERTEX
  5
B23
  8
0
  6
CONTINUOUS
 10
240.62009053551009
 20
-199.67460257345289
 30
0.0
  0
VERTEX
  5
B24
  8
0
  6
CONTINUOUS
 10
239.89753841914461
 20
-202.37120378284411
 30
0.0
 42
-0.4321616908690431
  0
VERTEX
  5
B25
  8
0
  6
CONTINUOUS
 10
237.9729756126828
 20
-203.40555532961491
 30
0.0
  0
VERTEX
  5
B26
  8
0
  6
CONTINUOUS
 10
234.57499196608759
 20
-202.26935731553939
 30
0.0
  0
VERTEX
  5
B27
  8
0
  6
CONTINUOUS
 10
234.7018383839615
 20
-201.89000261835949
 30
0.0
  0
VERTEX
  5
B28
  8
0
  6
CONTINUOUS
 10
238.0998220305566
 20
-203.02620063243501
 30
0.0
 42
0.4321616908684384
  0
VERTEX
  5
B29
  8
0
  6
CONTINUOUS
 10
239.51116808862861
 20
-202.26767616480271
 30
0.0
  0
VERTEX
  5
B2A
  8
0
  6
CONTINUOUS
 10
240.233720204994
 20
-199.57107495541189
 30
0.0
 42
-0.4400105308910592
  0
VERTEX
  5
B2B
  8
0
  6
CONTINUOUS
 10
242.71881754726309
 20
-198.2774151616116
 30
0.0
  0
VERTEX
  5
B2C
  8
0
  6
CONTINUOUS
 10
261.14983827231401
 20
-204.98575809267601
 30
0.0
 42
-0.3152987888790299
  0
VERTEX
  5
B2D
  8
0
  6
CONTINUOUS
 10
262.3999999999952
 20
-206.7711740721692
 30
0.0
  0
VERTEX
  5
B2E
  8
0
  6
CONTINUOUS
 10
262.3999999999952
 20
-216.67055145753969
 30
0.0
 42
-0.3152987888790077
  0
VERTEX
  5
B2F
  8
0
  6
CONTINUOUS
 10
261.14983827231401
 20
-218.45596743703311
 30
0.0
  0
VERTEX
  5
B30
  8
0
  6
CONTINUOUS
 10
242.71881754726309
 20
-225.16431036809541
 30
0.0
 42
-0.4400105308931292
  0
VERTEX
  5
B31
  8
0
  6
CONTINUOUS
 10
240.233720204994
 20
-223.87065057429601
 30
0.0
  0
VERTEX
  5
B32
  8
0
  6
CONTINUOUS
 10
239.51116808862861
 20
-221.17404936490621
 30
0.0
 42
0.4321616908695197
  0
VERTEX
  5
B33
  8
0
  6
CONTINUOUS
 10
238.09982203055469
 20
-220.4155248972732
 30
0.0
  0
VERTEX
  5
B34
  8
0
  6
CONTINUOUS
 10
213.15117235084031
 20
-228.7577093125397
 30
0.0
 42
0.1372454496908278
  0
VERTEX
  5
B35
  8
0
  6
CONTINUOUS
 10
212.6604734004282
 20
-229.09016395898681
 30
0.0
 42
0.1372454496908278
  0
SEQEND
  5
B36
  8
0
  6
CONTINUOUS
  0
INSERT
  5
9BB
  8
0
  6
CONTINUOUS
  2
*U18
 10
0.0
 20
0.0
 30
0.0
1001
ACDBBLOCKREPETAG
1070
     1
1071
       38
1005
9BB
1001
ACAD
1002
{
1000
R14_HATCH_DATA
1000
9BB
1011
1.0
1021
0.0
1031
0.0
1021
0.0
1031
0.0
1011
0.0
1021
0.0
1031
0.0
1021
1.0
1031
0.0
1011
0.0
1021
0.0
1031
0.0
1021
0.0
1031
1.0
1040
0.0
1010
0.0
1020
0.0
1030
1.0
1000
SOLID
1070
     1
1070
     0
1071
        1
1071
        1
1071
        4
1070
     1
1040
268.85384512645692
1040
293.24876223514508
1040
268.8538451264539
1040
283.30951223514558
1070
     1
1040
268.8538451264539
1040
283.30951223514558
1040
266.85384512645533
1040
283.30951223514558
1070
     1
1040
266.85384512645533
1040
283.30951223514558
1040
266.85384512645533
1040
293.24876223514508
1070
     1
1040
266.85384512645533
1040
293.24876223514508
1040
268.85384512645692
1040
293.24876223514508
1071
        0
1070
     0
1070
     1
1071
        1
1040
266.85384512645709
1040
288.27913723514541
1040
0.0
1002
}
  0
POLYLINE
  5
9BC
  8
0
 66
     1
 10
0.0
 20
0.0
 30
0.0
 70
     1
1001
ACDBBLOCKREPETAG
1070
     1
1071
       37
1005
9BC
  0
VERTEX
  5
B62
  8
0
 10
268.85384512645692
 20
293.24876223514508
 30
0.0
  0
VERTEX
  5
B63
  8
0
 10
268.8538451264539
 20
283.30951223514558
 30
0.0
  0
VERTEX
  5
B64
  8
0
 10
266.85384512645533
 20
283.30951223514558
 30
0.0
  0
VERTEX
  5
B65
  8
0
 10
266.85384512645533
 20
293.24876223514508
 30
0.0
  0
SEQEND
  5
B66
  8
0
  0
LINE
  5
9BD
  8
0
 10
270.22884512645339
 20
292.52376223514199
 30
0.0
 11
269.87884512645672
 21
293.74876223514462
 31
0.0
1001
ACDBBLOCKREPETAG
1070
     1
1071
        0
1005
9BD
  0
LINE
  5
9BE
  8
0
 10
270.22884512645709
 20
284.03451223514418
 30
0.0
 11
270.22884512645533
 21
292.52376223514108
 31
0.0
1001
ACDBBLOCKREPETAG
1070
     1
1071
        1
1005
9BE
  0
LINE
  5
9BF
  8
0
 10
272.44384512645541
 20
287.52913723514348
 30
0.0
 11
272.44384512645541
 21
289.0291372351445
 31
0.0
1001
ACDBBLOCKREPETAG
1070
     1
1071
        2
1005
9BF
  0
LINE
  5
9C0
  8
0
 10
270.22884512645533
 20
290.40144973514231
 30
0.0
 11
273.69065762645681
 21
290.40144973514231
 31
0.0
1001
ACDBBLOCKREPETAG
1070
     1
1071
        3
1005
9C0
  0
LINE
  5
9C1
  8
0
 10
270.22884512645533
 20
286.15682473514659
 30
0.0
 11
273.69065762645499
 21
286.15682473514568
 31
0.0
1001
ACDBBLOCKREPETAG
1070
     1
1071
        4
1005
9C1
  0
LINE
  5
9C2
  8
0
 10
270.22884512645709
 20
284.03451223514418
 30
0.0
 11
273.69065762645499
 21
284.03451223514509
 31
0.0
1001
ACDBBLOCKREPETAG
1070
     1
1071
        5
1005
9C2
  0
LINE
  5
9C3
  8
0
 10
270.22884512645533
 20
292.52376223514108
 30
0.0
 11
273.69065762645681
 21
292.52376223514381
 31
0.0
1001
ACDBBLOCKREPETAG
1070
     1
1071
        6
1005
9C3
  0
LINE
  5
9C4
  8
0
 10
268.85384512645533
 20
282.80951223514558
 30
0.0
 11
268.85384512645709
 21
293.74876223514508
 31
0.0
1001
ACDBBLOCKREPETAG
1070
     1
1071
        7
1005
9C4
  0
LINE
  5
9C5
  8
0
 10
273.99384512645651
 20
285.09566848514493
 30
0.0
 11
273.99384512645469
 21
287.52913723514439
 31
0.0
1001
ACDBBLOCKREPETAG
1070
     1
1071
        8
1005
9C5
  0
ARC
  5
9C6
  8
0
 10
266.41415762645693
 20
288.27913723514718
 30
0.0
 40
7.5796874999999986
 50
343.73979529167582
 51
354.3213665316735
1001
ACDBBLOCKREPETAG
1070
     1
1071
        9
1005
9C6
  0
ARC
  5
9C7
  8
0
 10
271.98522793895739
 20
291.46260598514488
 30
0.0
 40
2.0086171874996772
 50
328.1092081982037
 51
31.890791801796301
1001
ACDBBLOCKREPETAG
1070
     1
1071
       10
1005
9C7
  0
ARC
  5
9C8
  8
0
 10
271.98522793895739
 20
285.09566848514402
 30
0.0
 40
2.0086171874996772
 50
328.1092081982037
 51
31.890791801796301
1001
ACDBBLOCKREPETAG
1070
     1
1071
       11
1005
9C8
  0
ARC
  5
9C9
  8
0
 10
266.41415762645693
 20
288.27913723514718
 30
0.0
 40
7.5796874999999986
 50
5.6786334682739996
 51
16.26020470835417
1001
ACDBBLOCKREPETAG
1070
     1
1071
       12
1005
9C9
  0
LINE
  5
9CA
  8
0
 10
273.99384512645651
 20
289.0291372351445
 30
0.0
 11
273.99384512645651
 21
291.46260598514488
 31
0.0
1001
ACDBBLOCKREPETAG
1070
     1
1071
       13
1005
9CA
  0
LINE
  5
9CB
  8
0
 10
269.87884512645491
 20
282.80951223514518
 30
0.0
 11
270.22884512645709
 21
284.03451223514418
 31
0.0
1001
ACDBBLOCKREPETAG
1070
     1
1071
       14
1005
9CB
  0
LINE
  5
9CC
  8
0
 10
268.85384512645709
 20
293.74876223514508
 30
0.0
 11
269.87884512645672
 21
293.74876223514462
 31
0.0
1001
ACDBBLOCKREPETAG
1070
     1
1071
       15
1005
9CC
  0
LINE
  5
9CD
  8
0
 10
268.85384512645533
 20
282.80951223514558
 30
0.0
 11
269.87884512645491
 21
282.80951223514518
 31
0.0
1001
ACDBBLOCKREPETAG
1070
     1
1071
       16
1005
9CD
  0
LINE
  5
9CE
  8
0
 10
273.99384512645469
 20
287.52913723514439
 30
0.0
 11
272.44384512645541
 21
287.52913723514348
 31
0.0
1001
ACDBBLOCKREPETAG
1070
     1
1071
       17
1005
9CE
  0
LINE
  5
9CF
  8
0
 10
273.99384512645651
 20
289.0291372351445
 30
0.0
 11
272.44384512645541
 21
289.0291372351445
 31
0.0
1001
ACDBBLOCKREPETAG
1070
     1
1071
       18
1005
9CF
  0
LINE
  5
9D0
  8
0
 10
217.21351958412529
 20
289.7791372351453
 30
0.0
 11
218.017367161419
 21
286.77913723514541
 31
0.0
1001
ACDBBLOCKREPETAG
1070
     1
1071
       19
1005
9D0
  0
LINE
  5
9D1
  8
0
 10
213.99812927495219
 20
289.77913723514632
 30
0.0
 11
214.80197685224601
 21
286.7791372351449
 31
0.0
1001
ACDBBLOCKREPETAG
1070
     1
1071
       20
1005
9D1
  0
LINE
  5
9D2
  8
0
 10
210.7827389657792
 20
289.7791372351453
 30
0.0
 11
211.586586543073
 21
286.77913723514541
 31
0.0
1001
ACDBBLOCKREPETAG
1070
     1
1071
       21
1005
9D2
  0
LINE
  5
9D3
  8
0
 10
207.56734865660439
 20
289.77913723514632
 30
0.0
 11
208.37119623389989
 21
286.77913723514718
 31
0.0
1001
ACDBBLOCKREPETAG
1070
     1
1071
       22
1005
9D3
  0
LINE
  5
9D4
  8
0
 10
204.3519583474332
 20
289.77913723514632
 30
0.0
 11
205.15580592472691
 21
286.77913723514541
 31
0.0
1001
ACDBBLOCKREPETAG
1070
     1
1071
       23
1005
9D4
  0
LINE
  5
9D5
  8
0
 10
201.13656803826021
 20
289.7791372351453
 30
0.0
 11
201.9404156155521
 21
286.77913723514541
 31
0.0
1001
ACDBBLOCKREPETAG
1070
     1
1071
       24
1005
9D5
  0
LINE
  5
9D6
  8
0
 10
197.92117772908711
 20
289.7791372351453
 30
0.0
 11
198.7250253063809
 21
286.77913723514541
 31
0.0
1001
ACDBBLOCKREPETAG
1070
     1
1071
       25
1005
9D6
  0
LINE
  5
9D7
  8
0
 10
194.70578741991409
 20
289.77913723514808
 30
0.0
 11
195.5096349972078
 21
286.77913723514621
 31
0.0
1001
ACDBBLOCKREPETAG
1070
     1
1071
       26
1005
9D7
  0
LINE
  5
9D8
  8
0
 10
191.49039711073931
 20
289.77913723514632
 30
0.0
 11
192.29424468803481
 21
286.77913723514621
 31
0.0
1001
ACDBBLOCKREPETAG
1070
     1
1071
       27
1005
9D8
  0
LINE
  5
9D9
  8
0
 10
188.27500680156629
 20
289.77913723514632
 30
0.0
 11
189.07885437886179
 21
286.77913723514621
 31
0.0
1001
ACDBBLOCKREPETAG
1070
     1
1071
       28
1005
9D9
  0
LINE
  5
9DA
  8
0
 10
185.0596164923933
 20
289.7791372351453
 30
0.0
 11
185.8634640696888
 21
286.77913723514541
 31
0.0
1001
ACDBBLOCKREPETAG
1070
     1
1071
       29
1005
9DA
  0
LINE
  5
9DB
  8
0
 10
181.8442261832239
 20
289.77913723514718
 30
0.0
 11
182.64807376051391
 21
286.77913723514541
 31
0.0
1001
ACDBBLOCKREPETAG
1070
     1
1071
       30
1005
9DB
  0
LINE
  5
9DC
  8
0
 10
266.85384512645533
 20
286.77913723514541
 30
0.0
 11
176.8538451264572
 21
286.77913723514541
 31
0.0
1001
ACDBBLOCKREPETAG
1070
     1
1071
       31
1005
9DC
  0
LINE
  5
9DD
  8
0
 10
266.85384512645533
 20
289.7791372351453
 30
0.0
 11
176.85384512645359
 21
289.77913723514632
 31
0.0
1001
ACDBBLOCKREPETAG
1070
     1
1071
       32
1005
9DD
  0
LINE
  5
9DE
  8
0
 10
173.85384512645541
 20
288.27913723514541
 30
0.0
 11
176.85384512645359
 21
289.77913723514632
 31
0.0
1001
ACDBBLOCKREPETAG
1070
     1
1071
       33
1005
9DE
  0
LINE
  5
9DF
  8
0
 10
173.85384512645541
 20
288.27913723514541
 30
0.0
 11
176.8538451264572
 21
286.77913723514541
 31
0.0
1001
ACDBBLOCKREPETAG
1070
     1
1071
       34
1005
9DF
  0
LINE
  5
9E0
  8
0
 10
178.62883587405079
 20
289.77913723514632
 30
0.0
 11
179.43268345134089
 21
286.77913723514581
 31
0.0
1001
ACDBBLOCKREPETAG
1070
     1
1071
       35
1005
9E0
  0
LINE
  5
9E1
  8
0
 10
175.58362305412231
 20
289.14402619898061
 30
0.0
 11
176.11881820749261
 21
287.14665069462768
 31
0.0
1001
ACDBBLOCKREPETAG
1070
     1
1071
       36
1005
9E1
  0
LINE
  5
9E2
  8
0
 10
194.75536599288469
 20
358.47455227595731
 30
0.0
 11
194.75536599288429
 21
353.98228619141742
 31
0.0
1001
GENIUS_GENOREF_13
1005
0
1001
ACDBBLOCKREPETAG
1070
     1
1071
        0
1005
9E2
  0
LINE
  5
9E3
  8
0
 10
191.16352925819061
 20
358.47455227595731
 30
0.0
 11
191.16352925819029
 21
353.98228619141742
 31
0.0
1001
GENIUS_GENOREF_13
1005
0
1001
ACDBBLOCKREPETAG
1070
     1
1071
        1
1005
9E3
  0
ARC
  5
9E4
  8
0
 10
190.67788299968731
 20
359.61496043922273
 30
0.0
 40
1.568435374149667
 50
90.0
 51
180.0
1001
GENIUS_GENOREF_13
1005
0
1001
ACDBBLOCKREPETAG
1070
     1
1071
        2
1005
9E4
  0
LINE
  5
9E5
  8
0
 10
191.047542863633
 20
359.22285159568543
 30
0.0
 11
189.10944762553771
 21
359.22285159568543
 31
0.0
1001
GENIUS_GENOREF_13
1005
0
1001
ACDBBLOCKREPETAG
1070
     1
1071
        3
1005
9E5
  0
LINE
  5
9E6
  8
0
 10
196.80944762553759
 20
359.61496043922273
 30
0.0
 11
189.10944762553771
 21
359.61496043922273
 31
0.0
1001
GENIUS_GENOREF_13
1005
0
1001
ACDBBLOCKREPETAG
1070
     1
1071
        4
1005
9E6
  0
LINE
  5
9E7
  8
0
 10
189.10944762553771
 20
359.22285159568543
 30
0.0
 11
189.10944762553771
 21
359.61496043922273
 31
0.0
1001
GENIUS_GENOREF_13
1005
0
1001
ACDBBLOCKREPETAG
1070
     1
1071
        5
1005
9E7
  0
LINE
  5
9E8
  8
0
 10
194.8713523874423
 20
359.22285159568543
 30
0.0
 11
191.047542863633
 21
359.22285159568543
 31
0.0
1001
GENIUS_GENOREF_13
1005
0
1001
ACDBBLOCKREPETAG
1070
     1
1071
        6
1005
9E8
  0
LINE
  5
9E9
  8
0
 10
194.75536599288469
 20
358.55686520112749
 30
0.0
 11
191.16352925819061
 21
358.55686520112749
 31
0.0
1001
GENIUS_GENOREF_13
1005
0
1001
ACDBBLOCKREPETAG
1070
     1
1071
        7
1005
9E9
  0
LINE
  5
9EA
  8
0
 10
195.24101225138801
 20
361.1833958133725
 30
0.0
 11
192.95944762553759
 21
361.18339581337239
 31
0.0
1001
GENIUS_GENOREF_13
1005
0
1001
ACDBBLOCKREPETAG
1070
     1
1071
        8
1005
9EA
  0
LINE
  5
9EB
  8
0
 10
190.67788299968731
 20
361.1833958133725
 30
0.0
 11
192.95944762553759
 21
361.18339581337239
 31
0.0
1001
GENIUS_GENOREF_13
1005
0
1001
ACDBBLOCKREPETAG
1070
     1
1071
        9
1005
9EB
  0
LINE
  5
9EC
  8
0
 10
191.16352925819061
 20
358.55686520112749
 30
0.0
 11
191.047542863633
 21
359.22285159568543
 31
0.0
1001
GENIUS_GENOREF_13
1005
0
1001
ACDBBLOCKREPETAG
1070
     1
1071
       10
1005
9EC
  0
ARC
  5
9ED
  8
0
 10
195.24101225138801
 20
359.61496043922273
 30
0.0
 40
1.568435374149667
 50
0.0
 51
90.0
1001
GENIUS_GENOREF_13
1005
0
1001
ACDBBLOCKREPETAG
1070
     1
1071
       11
1005
9ED
  0
LINE
  5
9EE
  8
0
 10
194.8713523874423
 20
359.22285159568543
 30
0.0
 11
196.80944762553759
 21
359.22285159568543
 31
0.0
1001
GENIUS_GENOREF_13
1005
0
1001
ACDBBLOCKREPETAG
1070
     1
1071
       12
1005
9EE
  0
LINE
  5
9EF
  8
0
 10
196.80944762553759
 20
359.22285159568543
 30
0.0
 11
196.80944762553759
 21
359.61496043922273
 31
0.0
1001
GENIUS_GENOREF_13
1005
0
1001
ACDBBLOCKREPETAG
1070
     1
1071
       13
1005
9EF
  0
LINE
  5
9F0
  8
0
 10
194.75536599288469
 20
358.55686520112749
 30
0.0
 11
194.8713523874423
 21
359.22285159568543
 31
0.0
1001
GENIUS_GENOREF_13
1005
0
1001
ACDBBLOCKREPETAG
1070
     1
1071
       14
1005
9F0
  0
ARC
  5
9F1
  8
0
 10
197.57985122693839
 20
351.82767044980568
 30
0.0
 40
7.7000000000000268
 50
163.75052445808609
 51
208.948820377007
1001
GENIUS_GENOREF_13
1005
0
1001
ACDBBLOCKREPETAG
1070
     1
1071
       15
1005
9F1
  0
LINE
  5
9F2
  8
0
 10
191.16352925819061
 20
353.98228619141707
 30
0.0
 11
190.1874476255376
 21
353.98228619141707
 31
0.0
1001
GENIUS_GENOREF_13
1005
0
1001
ACDBBLOCKREPETAG
1070
     1
1071
       16
1005
9F2
  0
ARC
  5
9F3
  8
0
 10
188.33904402413691
 20
351.82767044980568
 30
0.0
 40
7.7000000000000268
 50
331.051179622993
 51
16.249475541913849
1001
GENIUS_GENOREF_13
1005
0
1001
ACDBBLOCKREPETAG
1070
     1
1071
       17
1005
9F3
  0
LINE
  5
9F4
  8
0
 10
194.75536599288469
 20
353.98228619141707
 30
0.0
 11
191.16352925819061
 21
353.98228619141707
 31
0.0
1001
GENIUS_GENOREF_13
1005
0
1001
ACDBBLOCKREPETAG
1070
     1
1071
       18
1005
9F4
  0
LINE
  5
9F5
  8
0
 10
195.0769476255376
 20
348.10065353835591
 30
0.0
 11
190.8419476255377
 21
348.10065353835591
 31
0.0
1001
GENIUS_GENOREF_13
1005
0
1001
ACDBBLOCKREPETAG
1070
     1
1071
       19
1005
9F5
  0
LINE
  5
9F6
  8
0
 10
194.75536599288469
 20
353.98228619141707
 30
0.0
 11
195.7314476255377
 21
353.98228619141707
 31
0.0
1001
GENIUS_GENOREF_13
1005
0
1001
ACDBBLOCKREPETAG
1070
     1
1071
       20
1005
9F6
  0
POLYLINE
  5
9F7
  8
0
 66
     1
 10
0.0
 20
0.0
 30
0.0
 70
     1
  0
VERTEX
  5
B67
  8
0
 10
241.04376767174671
 20
-225.34830755470381
 30
0.0
  0
VERTEX
  5
B68
  8
0
 10
261.0130302149829
 20
-218.0800903887189
 30
0.0
 42
0.3152987888789935
  0
VERTEX
  5
B69
  8
0
 10
261.99999999999471
 20
-216.67055145754011
 30
0.0
  0
VERTEX
  5
B6A
  8
0
 10
261.99999999999471
 20
-206.77117407216929
 30
0.0
 42
0.3297505471401294
  0
VERTEX
  5
B6B
  8
0
 10
260.93855755707972
 20
-205.33671693822501
 30
0.0
  0
VERTEX
  5
B6C
  8
0
 10
249.58232234206861
 20
-201.86476740713459
 30
0.0
 42
-0.1879832548430393
  0
VERTEX
  5
B6D
  8
0
 10
243.8821744060462
 20
-197.36422444015841
 30
0.0
 42
0.6655663796069576
  0
VERTEX
  5
B6E
  8
0
 10
241.13970591912599
 20
-197.73537156140239
 30
0.0
  0
VERTEX
  5
B6F
  8
0
 10
239.89753841914191
 20
-202.37120378284411
 30
0.0
 42
-0.4321616908691595
  0
VERTEX
  5
B70
  8
0
 10
237.97297561268181
 20
-203.405555329615
 30
0.0
  0
VERTEX
  5
B71
  8
0
 10
213.02432593296561
 20
-195.06337091434921
 30
0.0
 42
-0.3225643084660736
  0
VERTEX
  5
B72
  8
0
 10
211.99999999999471
 20
-193.64079079992439
 30
0.0
  0
VERTEX
  5
B73
  8
0
 10
211.99999999999471
 20
-157.2208627648547
 30
0.0
 42
-0.162277660168352
  0
VERTEX
  5
B74
  8
0
 10
212.29999999999399
 20
-156.32086276485461
 30
0.0
  0
VERTEX
  5
B75
  8
0
 10
213.69999999999541
 20
-154.45419609818779
 30
0.0
 42
0.1622776601683521
  0
VERTEX
  5
B76
  8
0
 10
213.99999999999471
 20
-153.5541960981877
 30
0.0
  0
VERTEX
  5
B77
  8
0
 10
213.99999999999471
 20
-131.88752943152139
 30
0.0
 42
0.1622776601683521
  0
VERTEX
  5
B78
  8
0
 10
213.69999999999541
 20
-130.9875294315213
 30
0.0
  0
VERTEX
  5
B79
  8
0
 10
212.29999999999399
 20
-129.12086276485479
 30
0.0
 42
-0.1622776601683522
  0
VERTEX
  5
B7A
  8
0
 10
211.99999999999471
 20
-128.2208627648547
 30
0.0
  0
VERTEX
  5
B7B
  8
0
 10
211.99999999999471
 20
-101.2208627648547
 30
0.0
 42
-0.162277660168352
  0
VERTEX
  5
B7C
  8
0
 10
212.29999999999399
 20
-100.3208627648546
 30
0.0
  0
VERTEX
  5
B7D
  8
0
 10
213.69999999999541
 20
-98.454196098188035
 30
0.0
 42
0.1622776601683521
  0
VERTEX
  5
B7E
  8
0
 10
213.99999999999471
 20
-97.554196098187958
 30
0.0
  0
VERTEX
  5
B7F
  8
0
 10
213.99999999999471
 20
-75.887529431521216
 30
0.0
 42
0.1622776601683521
  0
VERTEX
  5
B80
  8
0
 10
213.69999999999541
 20
-74.987529431521125
 30
0.0
  0
VERTEX
  5
B81
  8
0
 10
212.29999999999399
 20
-73.120862764854905
 30
0.0
 42
-0.1622776601683618
  0
VERTEX
  5
B82
  8
0
 10
211.99999999999471
 20
-72.220862764854701
 30
0.0
  0
VERTEX
  5
B83
  8
0
 10
211.99999999999471
 20
-45.220862764854687
 30
0.0
 42
-0.1622776601683538
  0
VERTEX
  5
B84
  8
0
 10
212.29999999999399
 20
-44.32086276485461
 30
0.0
  0
VERTEX
  5
B85
  8
0
 10
213.69999999999541
 20
-42.454196098188049
 30
0.0
 42
0.162277660168354
  0
VERTEX
  5
B86
  8
0
 10
213.99999999999471
 20
-41.554196098187951
 30
0.0
  0
VERTEX
  5
B87
  8
0
 10
213.99999999999471
 20
-19.88752943152144
 30
0.0
 42
0.162277660168354
  0
VERTEX
  5
B88
  8
0
 10
213.69999999999541
 20
-18.987529431521349
 30
0.0
  0
VERTEX
  5
B89
  8
0
 10
212.29999999999399
 20
-17.120862764854561
 30
0.0
 42
-0.1622776601683538
  0
VERTEX
  5
B8A
  8
0
 10
211.99999999999471
 20
-16.22086276485447
 30
0.0
  0
VERTEX
  5
B8B
  8
0
 10
211.99999999999471
 20
20.199065270215218
 30
0.0
 42
-0.3225643084660389
  0
VERTEX
  5
B8C
  8
0
 10
213.02432593296561
 20
21.621645384639809
 30
0.0
  0
VERTEX
  5
B8D
  8
0
 10
237.97297561268189
 20
29.963829799906541
 30
0.0
 42
-0.432161690869113
  0
VERTEX
  5
B8E
  8
0
 10
239.8975384191437
 20
28.929478253134452
 30
0.0
  0
VERTEX
  5
B8F
  8
0
 10
240.62009053550739
 20
26.232877043743201
 30
0.0
 42
0.4400105308919259
  0
VERTEX
  5
B90
  8
0
 10
242.58200948993201
 20
25.21156668021877
 30
0.0
  0
VERTEX
  5
B91
  8
0
 10
261.01303021498302
 20
31.919909611281359
 30
0.0
 42
0.3152987888789935
  0
VERTEX
  5
B92
  8
0
 10
261.99999999999471
 20
33.329448542460121
 30
0.0
  0
VERTEX
  5
B93
  8
0
 10
261.99999999999471
 20
43.228825927830712
 30
0.0
 42
0.3152987888789935
  0
VERTEX
  5
B94
  8
0
 10
261.01303021498302
 20
44.638364859009471
 30
0.0
  0
VERTEX
  5
B95
  8
0
 10
242.58200948993201
 20
51.34670779007061
 30
0.0
 42
0.4400105308920201
  0
VERTEX
  5
B96
  8
0
 10
240.62009053550921
 20
50.325397426547141
 30
0.0
  0
VERTEX
  5
B97
  8
0
 10
239.89753841914191
 20
47.628796217156058
 30
0.0
 42
-0.4321616908691848
  0
VERTEX
  5
B98
  8
0
 10
237.97297561268189
 20
46.594444670384938
 30
0.0
  0
VERTEX
  5
B99
  8
0
 10
213.02432593296561
 20
54.93662908565053
 30
0.0
 42
-0.3225643084660663
  0
VERTEX
  5
B9A
  8
0
 10
211.99999999999471
 20
56.359209200075348
 30
0.0
  0
VERTEX
  5
B9B
  8
0
 10
211.99999999999471
 20
92.779137235145285
 30
0.0
 42
-0.1622776601683538
  0
VERTEX
  5
B9C
  8
0
 10
212.29999999999399
 20
93.679137235145362
 30
0.0
  0
VERTEX
  5
B9D
  8
0
 10
213.6999999999955
 20
95.545803901812135
 30
0.0
 42
0.162277660168354
  0
VERTEX
  5
B9E
  8
0
 10
213.99999999999471
 20
96.445803901812255
 30
0.0
  0
VERTEX
  5
B9F
  8
0
 10
213.99999999999471
 20
118.1124705684785
 30
0.0
 42
0.162277660168354
  0
VERTEX
  5
BA0
  8
0
 10
213.6999999999955
 20
119.01247056847861
 30
0.0
  0
VERTEX
  5
BA1
  8
0
 10
212.29999999999399
 20
120.87913723514519
 30
0.0
 42
-0.1622776601683538
  0
VERTEX
  5
BA2
  8
0
 10
211.99999999999471
 20
121.7791372351452
 30
0.0
  0
VERTEX
  5
BA3
  8
0
 10
211.99999999999471
 20
148.77913723514521
 30
0.0
 42
-0.1622776601683538
  0
VERTEX
  5
BA4
  8
0
 10
212.29999999999399
 20
149.6791372351453
 30
0.0
  0
VERTEX
  5
BA5
  8
0
 10
213.6999999999955
 20
151.54580390181209
 30
0.0
 42
0.162277660168354
  0
VERTEX
  5
BA6
  8
0
 10
213.99999999999471
 20
152.44580390181221
 30
0.0
  0
VERTEX
  5
BA7
  8
0
 10
213.99999999999471
 20
174.1124705684783
 30
0.0
 42
0.162277660168354
  0
VERTEX
  5
BA8
  8
0
 10
213.6999999999955
 20
175.01247056847839
 30
0.0
  0
VERTEX
  5
BA9
  8
0
 10
212.29999999999399
 20
176.87913723514561
 30
0.0
 42
-0.162277660168323
  0
VERTEX
  5
BAA
  8
0
 10
211.99999999999471
 20
177.7791372351455
 30
0.0
  0
VERTEX
  5
BAB
  8
0
 10
211.99999999999471
 20
204.7791372351453
 30
0.0
 42
-0.1622776601683538
  0
VERTEX
  5
BAC
  8
0
 10
212.29999999999399
 20
205.67913723514539
 30
0.0
  0
VERTEX
  5
BAD
  8
0
 10
213.6999999999955
 20
207.54580390181209
 30
0.0
 42
0.1622776601683578
  0
VERTEX
  5
BAE
  8
0
 10
213.99999999999471
 20
208.4458039018123
 30
0.0
  0
VERTEX
  5
BAF
  8
0
 10
213.9999999999948
 20
230.1124705684785
 30
0.0
 42
0.162277660168354
  0
VERTEX
  5
BB0
  8
0
 10
213.6999999999955
 20
231.01247056847859
 30
0.0
  0
VERTEX
  5
BB1
  8
0
 10
212.29999999999399
 20
232.87913723514541
 30
0.0
 42
-0.1622776601683576
  0
VERTEX
  5
BB2
  8
0
 10
211.9999999999948
 20
233.7791372351455
 30
0.0
  0
VERTEX
  5
BB3
  8
0
 10
211.9999999999948
 20
270.19906527021539
 30
0.0
 42
-0.3225643084660389
  0
VERTEX
  5
BB4
  8
0
 10
213.02432593296561
 20
271.62164538463998
 30
0.0
  0
VERTEX
  5
BB5
  8
0
 10
237.97297561268189
 20
279.96382979990528
 30
0.0
 42
-0.4321616908690431
  0
VERTEX
  5
BB6
  8
0
 10
239.8975384191437
 20
278.92947825313462
 30
0.0
  0
VERTEX
  5
BB7
  8
0
 10
240.62009053550921
 20
276.2328770437436
 30
0.0
 42
0.4400105308920712
  0
VERTEX
  5
BB8
  8
0
 10
242.58200948993201
 20
275.21156668021871
 30
0.0
  0
VERTEX
  5
BB9
  8
0
 10
261.01303021498302
 20
281.9199096112813
 30
0.0
 42
0.3152987888789969
  0
VERTEX
  5
BBA
  8
0
 10
261.99999999999483
 20
283.32944854246
 30
0.0
  0
VERTEX
  5
BBB
  8
0
 10
261.99999999999483
 20
293.22882592783071
 30
0.0
 42
0.3152987888789969
  0
VERTEX
  5
BBC
  8
0
 10
261.01303021498302
 20
294.63836485900941
 30
0.0
  0
VERTEX
  5
BBD
  8
0
 10
242.58200948993201
 20
301.34670779007178
 30
0.0
 42
0.4400105308920713
  0
VERTEX
  5
BBE
  8
0
 10
240.62009053550921
 20
300.32539742654689
 30
0.0
  0
VERTEX
  5
BBF
  8
0
 10
239.8975384191437
 20
297.62879621715558
 30
0.0
 42
-0.4321616908690431
  0
VERTEX
  5
BC0
  8
0
 10
237.97297561268189
 20
296.59444467038492
 30
0.0
  0
VERTEX
  5
BC1
  8
0
 10
234.5749919660868
 20
297.73064268446041
 30
0.0
  0
VERTEX
  5
BC2
  8
0
 10
234.70183838396071
 20
298.10999738164031
 30
0.0
  0
VERTEX
  5
BC3
  8
0
 10
238.09982203055571
 20
296.97379936756482
 30
0.0
 42
0.4321616908684384
  0
VERTEX
  5
BC4
  8
0
 10
239.51116808862781
 20
297.73232383519712
 30
0.0
  0
VERTEX
  5
BC5
  8
0
 10
240.2337202049932
 20
300.42892504458791
 30
0.0
 42
-0.4400105308910592
  0
VERTEX
  5
BC6
  8
0
 10
242.7188175472622
 20
301.72258483838817
 30
0.0
  0
VERTEX
  5
BC7
  8
0
 10
261.14983827231322
 20
295.01424190732371
 30
0.0
 42
-0.3152987888790299
  0
VERTEX
  5
BC8
  8
0
 10
262.39999999999441
 20
293.22882592783071
 30
0.0
  0
VERTEX
  5
BC9
  8
0
 10
262.39999999999441
 20
283.32944854246
 30
0.0
 42
-0.3152987888790077
  0
VERTEX
  5
BCA
  8
0
 10
261.14983827231322
 20
281.54403256296661
 30
0.0
  0
VERTEX
  5
BCB
  8
0
 10
242.7188175472622
 20
274.83568963190442
 30
0.0
 42
-0.4400105308931292
  0
VERTEX
  5
BCC
  8
0
 10
240.2337202049932
 20
276.12934942570382
 30
0.0
  0
VERTEX
  5
BCD
  8
0
 10
239.51116808862781
 20
278.82595063509359
 30
0.0
 42
0.4321616908695197
  0
VERTEX
  5
BCE
  8
0
 10
238.0998220305539
 20
279.58447510272663
 30
0.0
  0
VERTEX
  5
BCF
  8
0
 10
213.15117235083949
 20
271.24229068746013
 30
0.0
 42
0.3225643084662965
  0
VERTEX
  5
BD0
  8
0
 10
212.39999999999441
 20
270.19906527021561
 30
0.0
  0
VERTEX
  5
BD1
  8
0
 10
212.39999999999441
 20
233.7791372351455
 30
0.0
 42
0.1622776601690038
  0
VERTEX
  5
BD2
  8
0
 10
212.61999999999381
 20
233.11913723514539
 30
0.0
  0
VERTEX
  5
BD3
  8
0
 10
214.01999999999521
 20
231.2524705684788
 30
0.0
 42
-0.1622776601690646
  0
VERTEX
  5
BD4
  8
0
 10
214.3999999999962
 20
230.1124705684777
 30
0.0
  0
VERTEX
  5
BD5
  8
0
 10
214.39999999999441
 20
208.4458039018123
 30
0.0
 42
-0.1622776601689901
  0
VERTEX
  5
BD6
  8
0
 10
214.01999999999521
 20
207.30580390181191
 30
0.0
  0
VERTEX
  5
BD7
  8
0
 10
212.61999999999369
 20
205.43913723514521
 30
0.0
 42
0.1622776601688629
  0
VERTEX
  5
BD8
  8
0
 10
212.3999999999962
 20
204.7791372351461
 30
0.0
  0
VERTEX
  5
BD9
  8
0
 10
212.39999999999441
 20
177.7791372351455
 30
0.0
 42
0.1622776601689839
  0
VERTEX
  5
BDA
  8
0
 10
212.61999999999369
 20
177.1191372351455
 30
0.0
  0
VERTEX
  5
BDB
  8
0
 10
214.01999999999521
 20
175.25247056847849
 30
0.0
 42
-0.1622776601690584
  0
VERTEX
  5
BDC
  8
0
 10
214.3999999999962
 20
174.11247056847751
 30
0.0
  0
VERTEX
  5
BDD
  8
0
 10
214.39999999999441
 20
152.44580390181221
 30
0.0
 42
-0.1622776601689863
  0
VERTEX
  5
BDE
  8
0
 10
214.01999999999521
 20
151.30580390181191
 30
0.0
  0
VERTEX
  5
BDF
  8
0
 10
212.61999999999369
 20
149.43913723514521
 30
0.0
 42
0.1622776601688787
  0
VERTEX
  5
BE0
  8
0
 10
212.3999999999962
 20
148.77913723514601
 30
0.0
  0
VERTEX
  5
BE1
  8
0
 10
212.39999999999441
 20
121.7791372351452
 30
0.0
 42
0.1622776601689972
  0
VERTEX
  5
BE2
  8
0
 10
212.61999999999369
 20
121.1191372351452
 30
0.0
  0
VERTEX
  5
BE3
  8
0
 10
214.01999999999521
 20
119.2524705684788
 30
0.0
 42
-0.1622776601690584
  0
VERTEX
  5
BE4
  8
0
 10
214.3999999999962
 20
118.1124705684777
 30
0.0
  0
VERTEX
  5
BE5
  8
0
 10
214.39999999999441
 20
96.445803901812255
 30
0.0
 42
-0.1622776601689863
  0
VERTEX
  5
BE6
  8
0
 10
214.01999999999521
 20
95.305803901811984
 30
0.0
  0
VERTEX
  5
BE7
  8
0
 10
212.61999999999369
 20
93.439137235145225
 30
0.0
 42
0.1622776601688787
  0
VERTEX
  5
BE8
  8
0
 10
212.3999999999962
 20
92.779137235146067
 30
0.0
  0
VERTEX
  5
BE9
  8
0
 10
212.39999999999441
 20
56.359209200075348
 30
0.0
 42
0.322564308466411
  0
VERTEX
  5
BEA
  8
0
 10
213.15117235084119
 20
55.315983782830102
 30
0.0
  0
VERTEX
  5
BEB
  8
0
 10
238.09982203055571
 20
46.973799367564851
 30
0.0
 42
0.432161690869105
  0
VERTEX
  5
BEC
  8
0
 10
239.51116808862591
 20
47.732323835196922
 30
0.0
  0
VERTEX
  5
BED
  8
0
 10
240.2337202049932
 20
50.428925044588453
 30
0.0
 42
-0.440010530891432
  0
VERTEX
  5
BEE
  8
0
 10
242.7188175472622
 20
51.722584838386041
 30
0.0
  0
VERTEX
  5
BEF
  8
0
 10
261.1498382723131
 20
45.014241907323807
 30
0.0
 42
-0.3152987888790217
  0
VERTEX
  5
BF0
  8
0
 10
262.39999999999441
 20
43.228825927830712
 30
0.0
  0
VERTEX
  5
BF1
  8
0
 10
262.39999999999441
 20
33.329448542460121
 30
0.0
 42
-0.3152987888790118
  0
VERTEX
  5
BF2
  8
0
 10
261.1498382723131
 20
31.54403256296666
 30
0.0
  0
VERTEX
  5
BF3
  8
0
 10
242.7188175472622
 20
24.835689631904419
 30
0.0
 42
-0.4400105308916768
  0
VERTEX
  5
BF4
  8
0
 10
240.2337202049932
 20
26.12934942570212
 30
0.0
  0
VERTEX
  5
BF5
  8
0
 10
239.5111680886277
 20
28.825950635093591
 30
0.0
 42
0.4321616908690272
  0
VERTEX
  5
BF6
  8
0
 10
238.09982203055571
 20
29.584475102726859
 30
0.0
  0
VERTEX
  5
BF7
  8
0
 10
213.1511723508394
 20
21.242290687459899
 30
0.0
 42
0.3225643084661139
  0
VERTEX
  5
BF8
  8
0
 10
212.39999999999441
 20
20.199065270215328
 30
0.0
  0
VERTEX
  5
BF9
  8
0
 10
212.39999999999441
 20
-16.22086276485447
 30
0.0
 42
0.1622776601689972
  0
VERTEX
  5
BFA
  8
0
 10
212.61999999999369
 20
-16.880862764854552
 30
0.0
  0
VERTEX
  5
BFB
  8
0
 10
214.01999999999521
 20
-18.74752943152123
 30
0.0
 42
-0.1622776601690584
  0
VERTEX
  5
BFC
  8
0
 10
214.3999999999962
 20
-19.887529431522239
 30
0.0
  0
VERTEX
  5
BFD
  8
0
 10
214.39999999999441
 20
-41.554196098187951
 30
0.0
 42
-0.1622776601689863
  0
VERTEX
  5
BFE
  8
0
 10
214.01999999999521
 20
-42.694196098188279
 30
0.0
  0
VERTEX
  5
BFF
  8
0
 10
212.61999999999369
 20
-44.560862764854853
 30
0.0
 42
0.1622776601688787
  0
VERTEX
  5
C00
  8
0
 10
212.3999999999962
 20
-45.220862764853898
 30
0.0
  0
VERTEX
  5
C01
  8
0
 10
212.39999999999441
 20
-72.220862764854701
 30
0.0
 42
0.1622776601690104
  0
VERTEX
  5
C02
  8
0
 10
212.61999999999369
 20
-72.880862764854896
 30
0.0
  0
VERTEX
  5
C03
  8
0
 10
214.01999999999521
 20
-74.747529431520888
 30
0.0
 42
-0.1622776601690845
  0
VERTEX
  5
C04
  8
0
 10
214.3999999999962
 20
-75.887529431522125
 30
0.0
  0
VERTEX
  5
C05
  8
0
 10
214.39999999999429
 20
-97.554196098187958
 30
0.0
 42
-0.1622776601689863
  0
VERTEX
  5
C06
  8
0
 10
214.01999999999509
 20
-98.694196098188286
 30
0.0
  0
VERTEX
  5
C07
  8
0
 10
212.61999999999369
 20
-100.5608627648548
 30
0.0
 42
0.1622776601688708
  0
VERTEX
  5
C08
  8
0
 10
212.39999999999611
 20
-101.2208627648539
 30
0.0
  0
VERTEX
  5
C09
  8
0
 10
212.39999999999429
 20
-128.2208627648547
 30
0.0
 42
0.1622776601690104
  0
VERTEX
  5
C0A
  8
0
 10
212.61999999999369
 20
-128.8808627648547
 30
0.0
  0
VERTEX
  5
C0B
  8
0
 10
214.01999999999509
 20
-130.74752943152109
 30
0.0
 42
-0.1622776601690845
  0
VERTEX
  5
C0C
  8
0
 10
214.39999999999611
 20
-131.8875294315223
 30
0.0
  0
VERTEX
  5
C0D
  8
0
 10
214.39999999999429
 20
-153.5541960981877
 30
0.0
 42
-0.1622776601689863
  0
VERTEX
  5
C0E
  8
0
 10
214.01999999999509
 20
-154.694196098188
 30
0.0
  0
VERTEX
  5
C0F
  8
0
 10
212.61999999999369
 20
-156.5608627648547
 30
0.0
 42
0.1622776601688708
  0
VERTEX
  5
C10
  8
0
 10
212.39999999999611
 20
-157.2208627648539
 30
0.0
  0
VERTEX
  5
C11
  8
0
 10
212.39999999999429
 20
-193.64079079992439
 30
0.0
 42
0.3225643084664253
  0
VERTEX
  5
C12
  8
0
 10
213.15117235084119
 20
-194.6840162171697
 30
0.0
  0
VERTEX
  5
C13
  8
0
 10
238.0998220305556
 20
-203.02620063243509
 30
0.0
 42
0.4321616908691661
  0
VERTEX
  5
C14
  8
0
 10
239.51116808862579
 20
-202.26767616480319
 30
0.0
  0
VERTEX
  5
C15
  8
0
 10
240.75333558861001
 20
-197.63184394336119
 30
0.0
 42
-0.6655663796070265
  0
VERTEX
  5
C16
  8
0
 10
244.22712900537601
 20
-197.1617242564524
 30
0.0
 42
0.1879832548429003
  0
VERTEX
  5
C17
  8
0
 10
249.69927102395761
 20
-201.4822455047491
 30
0.0
  0
VERTEX
  5
C18
  8
0
 10
261.05550623896858
 20
-204.9541950358398
 30
0.0
 42
-0.3297505471400818
  0
VERTEX
  5
C19
  8
0
 10
262.39999999999611
 20
-206.77117407216889
 30
0.0
  0
VERTEX
  5
C1A
  8
0
 10
262.39999999999429
 20
-216.67055145754011
 30
0.0
 42
-0.3152987888789954
  0
VERTEX
  5
C1B
  8
0
 10
261.1498382723131
 20
-218.45596743703339
 30
0.0
  0
VERTEX
  5
C1C
  8
0
 10
241.18057572907691
 20
-225.7241846030181
 30
0.0
  0
SEQEND
  5
C1D
  8
0
  0
POLYLINE
  5
9F8
  8
0
 66
     1
 10
0.0
 20
0.0
 30
0.0
  0
VERTEX
  5
C1E
  8
0
 10
-296.59141798340681
 20
325.90278941001708
 30
0.0
  0
VERTEX
  5
C1F
  8
0
 10
-290.00370582677698
 20
306.2011723508474
 30
0.0
 42
0.3225643084662965
  0
VERTEX
  5
C20
  8
0
 10
-288.96048040953229
 20
305.45000000000232
 30
0.0
  0
VERTEX
  5
C21
  8
0
 10
-252.54055237446229
 20
305.45000000000232
 30
0.0
 42
0.1622776601690038
  0
VERTEX
  5
C22
  8
0
 10
-251.88055237446221
 20
305.67000000000172
 30
0.0
  0
VERTEX
  5
C23
  8
0
 10
-250.01388570779559
 20
307.07000000000312
 30
0.0
 42
-0.1622776601690646
  0
VERTEX
  5
C24
  8
0
 10
-248.8738857077945
 20
307.45000000000408
 30
0.0
  0
VERTEX
  5
C25
  8
0
 10
-227.20721904112901
 20
307.45000000000232
 30
0.0
 42
-0.1622776601689901
  0
VERTEX
  5
C26
  8
0
 10
-226.06721904112879
 20
307.07000000000312
 30
0.0
  0
VERTEX
  5
C27
  8
0
 10
-224.20055237446201
 20
305.67000000000172
 30
0.0
 42
0.1622776601688629
  0
VERTEX
  5
C28
  8
0
 10
-223.54055237446289
 20
305.45000000000408
 30
0.0
  0
VERTEX
  5
C29
  8
0
 10
-196.54055237446229
 20
305.45000000000232
 30
0.0
 42
0.1622776601689839
  0
VERTEX
  5
C2A
  8
0
 10
-195.8805523744623
 20
305.67000000000172
 30
0.0
  0
VERTEX
  5
C2B
  8
0
 10
-194.01388570779531
 20
307.07000000000312
 30
0.0
 42
-0.1622776601690584
  0
VERTEX
  5
C2C
  8
0
 10
-192.8738857077943
 20
307.45000000000408
 30
0.0
  0
VERTEX
  5
C2D
  8
0
 10
-171.20721904112901
 20
307.45000000000232
 30
0.0
 42
-0.1622776601689863
  0
VERTEX
  5
C2E
  8
0
 10
-170.06721904112871
 20
307.07000000000312
 30
0.0
  0
VERTEX
  5
C2F
  8
0
 10
-168.20055237446201
 20
305.67000000000172
 30
0.0
 42
0.1622776601688787
  0
VERTEX
  5
C30
  8
0
 10
-167.54055237446281
 20
305.45000000000408
 30
0.0
  0
VERTEX
  5
C31
  8
0
 10
-140.5405523744621
 20
305.45000000000232
 30
0.0
 42
0.1622776601689972
  0
VERTEX
  5
C32
  8
0
 10
-139.88055237446201
 20
305.67000000000172
 30
0.0
  0
VERTEX
  5
C33
  8
0
 10
-138.01388570779559
 20
307.07000000000312
 30
0.0
 42
-0.1622776601690584
  0
VERTEX
  5
C34
  8
0
 10
-136.8738857077945
 20
307.45000000000408
 30
0.0
  0
VERTEX
  5
C35
  8
0
 10
-115.20721904112899
 20
307.45000000000232
 30
0.0
 42
-0.1622776601689863
  0
VERTEX
  5
C36
  8
0
 10
-114.06721904112869
 20
307.07000000000312
 30
0.0
  0
VERTEX
  5
C37
  8
0
 10
-112.20055237446201
 20
305.67000000000172
 30
0.0
 42
0.1622776601688787
  0
VERTEX
  5
C38
  8
0
 10
-111.54055237446281
 20
305.45000000000408
 30
0.0
  0
VERTEX
  5
C39
  8
0
 10
-75.120624339392151
 20
305.45000000000232
 30
0.0
 42
0.322564308466411
  0
VERTEX
  5
C3A
  8
0
 10
-74.077398922146884
 20
306.20117235084922
 30
0.0
  0
VERTEX
  5
C3B
  8
0
 10
-65.735214506881647
 20
331.14982203056371
 30
0.0
 42
0.432161690869105
  0
VERTEX
  5
C3C
  8
0
 10
-66.493738974513718
 20
332.56116808863391
 30
0.0
  0
VERTEX
  5
C3D
  8
0
 10
-69.190340183905249
 20
333.28372020500109
 30
0.0
 42
-0.440010530891432
  0
VERTEX
  5
C3E
  8
0
 10
-70.483999977702837
 20
335.7688175472702
 30
0.0
  0
VERTEX
  5
C3F
  8
0
 10
-63.77565704664061
 20
354.19983827232107
 30
0.0
 42
-0.3152987888790217
  0
VERTEX
  5
C40
  8
0
 10
-61.990241067147508
 20
355.45000000000232
 30
0.0
  0
VERTEX
  5
C41
  8
0
 10
-52.090863681776909
 20
355.45000000000232
 30
0.0
 42
-0.3152987888790118
  0
VERTEX
  5
C42
  8
0
 10
-50.305447702283452
 20
354.19983827232107
 30
0.0
  0
VERTEX
  5
C43
  8
0
 10
-43.597104771221211
 20
335.7688175472702
 30
0.0
 42
-0.4400105308916768
  0
VERTEX
  5
C44
  8
0
 10
-44.890764565018912
 20
333.28372020500109
 30
0.0
  0
VERTEX
  5
C45
  8
0
 10
-47.58736577441038
 20
332.56116808863572
 30
0.0
 42
0.4321616908690272
  0
VERTEX
  5
C46
  8
0
 10
-48.345890242043652
 20
331.14982203056371
 30
0.0
  0
VERTEX
  5
C47
  8
0
 10
-40.003705826776688
 20
306.2011723508474
 30
0.0
 42
0.3225643084661139
  0
VERTEX
  5
C48
  8
0
 10
-38.960480409532131
 20
305.45000000000232
 30
0.0
  0
VERTEX
  5
C49
  8
0
 10
-2.540552374462322
 20
305.45000000000232
 30
0.0
 42
0.1622776601689972
  0
VERTEX
  5
C4A
  8
0
 10
-1.8805523744622401
 20
305.67000000000172
 30
0.0
  0
VERTEX
  5
C4B
  8
0
 10
-0.0138857077955663
 20
307.07000000000312
 30
0.0
 42
-0.1622776601690584
  0
VERTEX
  5
C4C
  8
0
 10
1.126114292205443
 20
307.45000000000408
 30
0.0
  0
VERTEX
  5
C4D
  8
0
 10
22.792780958871159
 20
307.45000000000232
 30
0.0
 42
-0.1622776601689863
  0
VERTEX
  5
C4E
  8
0
 10
23.93278095887149
 20
307.07000000000312
 30
0.0
  0
VERTEX
  5
C4F
  8
0
 10
25.79944762553805
 20
305.67000000000172
 30
0.0
 42
0.1622776601688787
  0
VERTEX
  5
C50
  8
0
 10
26.459447625537109
 20
305.45000000000408
 30
0.0
  0
VERTEX
  5
C51
  8
0
 10
53.459447625537912
 20
305.45000000000232
 30
0.0
 42
0.1622776601690104
  0
VERTEX
  5
C52
  8
0
 10
54.119447625538101
 20
305.67000000000172
 30
0.0
  0
VERTEX
  5
C53
  8
0
 10
55.986114292204093
 20
307.07000000000312
 30
0.0
 42
-0.1622776601690845
  0
VERTEX
  5
C54
  8
0
 10
57.12611429220533
 20
307.45000000000408
 30
0.0
  0
VERTEX
  5
C55
  8
0
 10
78.792780958871163
 20
307.45000000000232
 30
0.0
 42
-0.1622776601689863
  0
VERTEX
  5
C56
  8
0
 10
79.932780958871476
 20
307.07000000000312
 30
0.0
  0
VERTEX
  5
C57
  8
0
 10
81.79944762553805
 20
305.67000000000172
 30
0.0
 42
0.1622776601688708
  0
VERTEX
  5
C58
  8
0
 10
82.459447625537095
 20
305.45000000000408
 30
0.0
  0
VERTEX
  5
C59
  8
0
 10
109.4594476255379
 20
305.45000000000232
 30
0.0
 42
0.1622776601690104
  0
VERTEX
  5
C5A
  8
0
 10
110.119447625538
 20
305.67000000000172
 30
0.0
  0
VERTEX
  5
C5B
  8
0
 10
111.98611429220431
 20
307.07000000000312
 30
0.0
 42
-0.1622776601690845
  0
VERTEX
  5
C5C
  8
0
 10
113.1261142922055
 20
307.45000000000408
 30
0.0
  0
VERTEX
  5
C5D
  8
0
 10
134.79278095887091
 20
307.45000000000232
 30
0.0
 42
-0.1622776601689863
  0
VERTEX
  5
C5E
  8
0
 10
135.93278095887121
 20
307.07000000000312
 30
0.0
  0
VERTEX
  5
C5F
  8
0
 10
137.79944762553791
 20
305.67000000000172
 30
0.0
 42
0.1622776601688708
  0
VERTEX
  5
C60
  8
0
 10
138.45944762553711
 20
305.45000000000408
 30
0.0
  0
VERTEX
  5
C61
  8
0
 10
174.87937566060759
 20
305.45000000000232
 30
0.0
 42
0.3225643084664253
  0
VERTEX
  5
C62
  8
0
 10
175.9226010778529
 20
306.20117235084922
 30
0.0
  0
VERTEX
  5
C63
  8
0
 10
184.2647854931183
 20
331.14982203056371
 30
0.0
 42
0.4321616908691661
  0
VERTEX
  5
C64
  8
0
 10
183.5062610254864
 20
332.56116808863391
 30
0.0
  0
VERTEX
  5
C65
  8
0
 10
178.87042880404439
 20
333.80333558861798
 30
0.0
 42
-0.6655663796070265
  0
VERTEX
  5
C66
  8
0
 10
178.40030911713561
 20
337.2771290053841
 30
0.0
 42
0.1879832548429003
  0
VERTEX
  5
C67
  8
0
 10
182.72083036543231
 20
342.74927102396549
 30
0.0
  0
VERTEX
  5
C68
  8
0
 10
186.19277989652301
 20
354.10550623897672
 30
0.0
 42
-0.3297505471400818
  0
VERTEX
  5
C69
  8
0
 10
188.00975893285209
 20
355.45000000000408
 30
0.0
  0
VERTEX
  5
C6A
  8
0
 10
197.90913631822329
 20
355.45000000000232
 30
0.0
 42
-0.3152987888789954
  0
VERTEX
  5
C6B
  8
0
 10
199.6945522977166
 20
354.19983827232107
 30
0.0
  0
VERTEX
  5
C6C
  8
0
 10
206.96276946370131
 20
334.23057572908488
 30
0.0
  0
VERTEX
  5
C6D
  8
0
 10
206.5868924153869
 20
334.09376767175468
 30
0.0
  0
VERTEX
  5
C6E
  8
0
 10
199.31867524940199
 20
354.06303021499087
 30
0.0
 42
0.3152987888789935
  0
VERTEX
  5
C6F
  8
0
 10
197.90913631822329
 20
355.05000000000268
 30
0.0
  0
VERTEX
  5
C70
  8
0
 10
188.00975893285249
 20
355.05000000000268
 30
0.0
 42
0.3297505471401294
  0
VERTEX
  5
C71
  8
0
 10
186.57530179890821
 20
353.98855755708769
 30
0.0
  0
VERTEX
  5
C72
  8
0
 10
183.1033522678178
 20
342.63232234207658
 30
0.0
 42
-0.1879832548430393
  0
VERTEX
  5
C73
  8
0
 10
178.60280930084161
 20
336.93217440605417
 30
0.0
 42
0.6655663796069576
  0
VERTEX
  5
C74
  8
0
 10
178.97395642208559
 20
334.18970591913398
 30
0.0
  0
VERTEX
  5
C75
  8
0
 10
183.60978864352731
 20
332.94753841914991
 30
0.0
 42
-0.4321616908691595
  0
VERTEX
  5
C76
  8
0
 10
184.6441401902982
 20
331.02297561268978
 30
0.0
  0
VERTEX
  5
C77
  8
0
 10
176.30195577503241
 20
306.07432593297358
 30
0.0
 42
-0.3225643084660736
  0
VERTEX
  5
C78
  8
0
 10
174.87937566060759
 20
305.05000000000268
 30
0.0
  0
VERTEX
  5
C79
  8
0
 10
138.4594476255379
 20
305.05000000000268
 30
0.0
 42
-0.162277660168352
  0
VERTEX
  5
C7A
  8
0
 10
137.55944762553781
 20
305.35000000000201
 30
0.0
  0
VERTEX
  5
C7B
  8
0
 10
135.692780958871
 20
306.75000000000341
 30
0.0
 42
0.1622776601683521
  0
VERTEX
  5
C7C
  8
0
 10
134.79278095887091
 20
307.05000000000268
 30
0.0
  0
VERTEX
  5
C7D
  8
0
 10
113.1261142922046
 20
307.05000000000268
 30
0.0
 42
0.1622776601683521
  0
VERTEX
  5
C7E
  8
0
 10
112.2261142922045
 20
306.75000000000341
 30
0.0
  0
VERTEX
  5
C7F
  8
0
 10
110.359447625538
 20
305.35000000000201
 30
0.0
 42
-0.1622776601683522
  0
VERTEX
  5
C80
  8
0
 10
109.4594476255379
 20
305.05000000000268
 30
0.0
  0
VERTEX
  5
C81
  8
0
 10
82.459447625537905
 20
305.05000000000268
 30
0.0
 42
-0.162277660168352
  0
VERTEX
  5
C82
  8
0
 10
81.559447625537814
 20
305.35000000000201
 30
0.0
  0
VERTEX
  5
C83
  8
0
 10
79.692780958871253
 20
306.75000000000341
 30
0.0
 42
0.1622776601683521
  0
VERTEX
  5
C84
  8
0
 10
78.792780958871163
 20
307.05000000000268
 30
0.0
  0
VERTEX
  5
C85
  8
0
 10
57.12611429220442
 20
307.05000000000268
 30
0.0
 42
0.1622776601683521
  0
VERTEX
  5
C86
  8
0
 10
56.226114292204329
 20
306.75000000000341
 30
0.0
  0
VERTEX
  5
C87
  8
0
 10
54.35944762553811
 20
305.35000000000201
 30
0.0
 42
-0.1622776601683618
  0
VERTEX
  5
C88
  8
0
 10
53.459447625537912
 20
305.05000000000268
 30
0.0
  0
VERTEX
  5
C89
  8
0
 10
26.459447625537909
 20
305.05000000000268
 30
0.0
 42
-0.1622776601683538
  0
VERTEX
  5
C8A
  8
0
 10
25.559447625537821
 20
305.35000000000201
 30
0.0
  0
VERTEX
  5
C8B
  8
0
 10
23.69278095887125
 20
306.75000000000341
 30
0.0
 42
0.162277660168354
  0
VERTEX
  5
C8C
  8
0
 10
22.792780958871159
 20
307.05000000000268
 30
0.0
  0
VERTEX
  5
C8D
  8
0
 10
1.126114292204647
 20
307.05000000000268
 30
0.0
 42
0.162277660168354
  0
VERTEX
  5
C8E
  8
0
 10
0.2261142922045565
 20
306.75000000000341
 30
0.0
  0
VERTEX
  5
C8F
  8
0
 10
-1.640552374462231
 20
305.35000000000201
 30
0.0
 42
-0.1622776601683538
  0
VERTEX
  5
C90
  8
0
 10
-2.540552374462322
 20
305.05000000000268
 30
0.0
  0
VERTEX
  5
C91
  8
0
 10
-38.960480409532011
 20
305.05000000000268
 30
0.0
 42
-0.3225643084660389
  0
VERTEX
  5
C92
  8
0
 10
-40.383060523956601
 20
306.07432593297358
 30
0.0
  0
VERTEX
  5
C93
  8
0
 10
-48.72524493922333
 20
331.02297561268978
 30
0.0
 42
-0.432161690869113
  0
VERTEX
  5
C94
  8
0
 10
-47.690893392451237
 20
332.94753841915173
 30
0.0
  0
VERTEX
  5
C95
  8
0
 10
-44.994292183059997
 20
333.67009053551533
 30
0.0
 42
0.4400105308919259
  0
VERTEX
  5
C96
  8
0
 10
-43.972981819535562
 20
335.63200948994
 30
0.0
  0
VERTEX
  5
C97
  8
0
 10
-50.681324750598151
 20
354.06303021499087
 30
0.0
 42
0.3152987888789935
  0
VERTEX
  5
C98
  8
0
 10
-52.090863681776909
 20
355.05000000000268
 30
0.0
  0
VERTEX
  5
C99
  8
0
 10
-61.990241067147508
 20
355.05000000000268
 30
0.0
 42
0.3152987888789935
  0
VERTEX
  5
C9A
  8
0
 10
-63.39977999832626
 20
354.06303021499087
 30
0.0
  0
VERTEX
  5
C9B
  8
0
 10
-70.108122929387406
 20
335.63200948994
 30
0.0
 42
0.4400105308920201
  0
VERTEX
  5
C9C
  8
0
 10
-69.086812565863937
 20
333.6700905355172
 30
0.0
  0
VERTEX
  5
C9D
  8
0
 10
-66.390211356472861
 20
332.94753841914991
 30
0.0
 42
-0.4321616908691848
  0
VERTEX
  5
C9E
  8
0
 10
-65.355859809701741
 20
331.02297561268978
 30
0.0
  0
VERTEX
  5
C9F
  8
0
 10
-73.698044224967333
 20
306.07432593297358
 30
0.0
 42
-0.3225643084660663
  0
VERTEX
  5
CA0
  8
0
 10
-75.120624339392151
 20
305.05000000000268
 30
0.0
  0
VERTEX
  5
CA1
  8
0
 10
-111.540552374462
 20
305.05000000000268
 30
0.0
 42
-0.1622776601683538
  0
VERTEX
  5
CA2
  8
0
 10
-112.4405523744621
 20
305.35000000000201
 30
0.0
  0
VERTEX
  5
CA3
  8
0
 10
-114.3072190411289
 20
306.75000000000341
 30
0.0
 42
0.162277660168354
  0
VERTEX
  5
CA4
  8
0
 10
-115.20721904112899
 20
307.05000000000268
 30
0.0
  0
VERTEX
  5
CA5
  8
0
 10
-136.8738857077953
 20
307.05000000000268
 30
0.0
 42
0.162277660168354
  0
VERTEX
  5
CA6
  8
0
 10
-137.77388570779539
 20
306.75000000000341
 30
0.0
  0
VERTEX
  5
CA7
  8
0
 10
-139.640552374462
 20
305.35000000000201
 30
0.0
 42
-0.1622776601683538
  0
VERTEX
  5
CA8
  8
0
 10
-140.5405523744621
 20
305.05000000000268
 30
0.0
  0
VERTEX
  5
CA9
  8
0
 10
-167.54055237446201
 20
305.05000000000268
 30
0.0
 42
-0.1622776601683538
  0
VERTEX
  5
CAA
  8
0
 10
-168.4405523744621
 20
305.35000000000201
 30
0.0
  0
VERTEX
  5
CAB
  8
0
 10
-170.30721904112889
 20
306.75000000000341
 30
0.0
 42
0.162277660168354
  0
VERTEX
  5
CAC
  8
0
 10
-171.20721904112901
 20
307.05000000000268
 30
0.0
  0
VERTEX
  5
CAD
  8
0
 10
-192.8738857077951
 20
307.05000000000268
 30
0.0
 42
0.162277660168354
  0
VERTEX
  5
CAE
  8
0
 10
-193.77388570779519
 20
306.75000000000341
 30
0.0
  0
VERTEX
  5
CAF
  8
0
 10
-195.6405523744624
 20
305.35000000000201
 30
0.0
 42
-0.162277660168323
  0
VERTEX
  5
CB0
  8
0
 10
-196.54055237446229
 20
305.05000000000268
 30
0.0
  0
VERTEX
  5
CB1
  8
0
 10
-223.5405523744621
 20
305.05000000000268
 30
0.0
 42
-0.1622776601683538
  0
VERTEX
  5
CB2
  8
0
 10
-224.4405523744621
 20
305.35000000000201
 30
0.0
  0
VERTEX
  5
CB3
  8
0
 10
-226.30721904112889
 20
306.75000000000341
 30
0.0
 42
0.1622776601683578
  0
VERTEX
  5
CB4
  8
0
 10
-227.20721904112901
 20
307.05000000000268
 30
0.0
  0
VERTEX
  5
CB5
  8
0
 10
-248.8738857077953
 20
307.05000000000268
 30
0.0
 42
0.162277660168354
  0
VERTEX
  5
CB6
  8
0
 10
-249.77388570779539
 20
306.75000000000341
 30
0.0
  0
VERTEX
  5
CB7
  8
0
 10
-251.6405523744622
 20
305.35000000000201
 30
0.0
 42
-0.1622776601683576
  0
VERTEX
  5
CB8
  8
0
 10
-252.54055237446229
 20
305.05000000000268
 30
0.0
  0
VERTEX
  5
CB9
  8
0
 10
-288.96048040953229
 20
305.05000000000268
 30
0.0
 42
-0.3225643084660389
  0
VERTEX
  5
CBA
  8
0
 10
-290.38306052395677
 20
306.07432593297358
 30
0.0
  0
VERTEX
  5
CBB
  8
0
 10
-296.72190747731401
 20
325.03167141232461
 30
0.0
  0
SEQEND
  5
CBC
  8
0
  0
INSERT
  5
9F9
  8
0
  6
CONTINUOUS
  2
*U19
 10
0.0
 20
0.0
 30
0.0
  0
INSERT
  5
9FA
  8
0
  6
CONTINUOUS
  2
*U20
 10
0.0
 20
0.0
 30
0.0
1001
ACAD
1000
DSTYLE
1002
{
1070
   176
1070
   256
1002
}
  0
LINE
  5
9FB
  8
0
  6
CONTINUOUS
 10
208.9999999999911
 20
302.05000000000268
 30
0.0
 11
5.9999999999988631
 21
302.05000000000268
 31
0.0
  0
LINE
  5
9FC
  8
0
  6
CONTINUOUS
 10
5.9999999999988631
 20
302.05000000000268
 30
0.0
 11
5.9999999999986349
 21
-198.1333697519506
 31
0.0
  0
LINE
  5
9FD
  8
0
  6
CONTINUOUS
 10
208.9999999999948
 20
302.05000000000268
 30
0.0
 11
208.9999999999946
 21
-228.5418417767473
 31
0.0
  0
LINE
  5
9FE
  8
0
  6
CONTINUOUS
 10
150.5000000000025
 20
302.05000000000268
 30
0.0
 11
150.5000000000025
 21
35.000000000001137
 31
0.0
  0
LINE
  5
9FF
  8
0
  6
CONTINUOUS
 10
136.49999999999881
 20
302.05000000000268
 30
0.0
 11
136.49999999999881
 21
35.00000000000103
 31
0.0
  0
LINE
  5
A00
  8
0
  6
CONTINUOUS
 10
126.5000000000025
 20
302.05000000000268
 30
0.0
 11
126.5000000000025
 21
35.000000000000909
 31
0.0
  0
LINE
  5
A01
  8
0
  6
CONTINUOUS
 10
112.5000000000025
 20
302.05000000000268
 30
0.0
 11
112.5000000000025
 21
35.000000000000803
 31
0.0
  0
LINE
  5
A02
  8
0
  6
CONTINUOUS
 10
102.49999999999881
 20
302.05000000000268
 30
0.0
 11
102.49999999999881
 21
35.000000000000803
 31
0.0
  0
LINE
  5
A03
  8
0
  6
CONTINUOUS
 10
88.500000000002501
 20
302.05000000000268
 30
0.0
 11
88.500000000002501
 21
35.000000000000682
 31
0.0
  0
LINE
  5
A04
  8
0
  6
CONTINUOUS
 10
78.499999999998863
 20
302.05000000000268
 30
0.0
 11
78.499999999999091
 21
35.000000000000568
 31
0.0
  0
LINE
  5
A05
  8
0
  6
CONTINUOUS
 10
64.499999999998863
 20
302.05000000000268
 30
0.0
 11
64.499999999998863
 21
35.000000000000462
 31
0.0
  0
LINE
  5
A06
  8
0
  6
COMM-23_CORNER_EXTERNAL$0$
 10
30.99999999999886
 20
302.05000000000268
 30
0.0
 11
30.999999999999091
 21
35.000000000000227
 31
0.0
  0
LINE
  5
A07
  8
0
  6
COMM-23_CORNER_EXTERNAL$0$
 10
184.0000000000025
 20
302.05000000000268
 30
0.0
 11
184.0000000000025
 21
35.000000000001371
 31
0.0
  0
LINE
  5
A08
  8
0
  6
COMM-23_CORNER_EXTERNAL$0$
 10
207.24999999999841
 20
302.05000000000268
 30
0.0
 11
207.24999999999821
 21
-228.27969977653399
 31
0.0
  0
LINE
  5
A09
  8
0
  6
CONTINUOUS
 10
6.0000000000025011
 20
302.05000000000268
 30
0.0
 11
6.0000000000025011
 21
-198.13336975195119
 31
0.0
  0
LINE
  5
A0A
  8
0
  6
COMM-23_CORNER_EXTERNAL$0$
 10
0.0000000000020464
 20
100.8000000000031
 30
0.0
 11
-10.199999999999591
 21
100.8000000000031
 31
0.0
  0
LINE
  5
A0B
  8
0
  6
COMM-23_CORNER_EXTERNAL$0$
 10
0.0000000000020464
 20
124.0499999999988
 30
0.0
 11
-10.19999999999936
 21
124.0499999999988
 31
0.0
  0
LINE
  5
A0C
  8
0
  6
CONTINUOUS
 10
0.0000000000025011
 20
99.050000000006776
 30
0.0
 11
-10.199999999999591
 21
99.050000000006776
 31
0.0
  0
LINE
  5
A0D
  8
0
  6
CONTINUOUS
 10
0.0000000000020464
 20
302.04999999999882
 30
0.0
 11
-300.16445679861818
 21
302.04999999999882
 31
0.0
  0
LINE
  5
A0E
  8
0
  6
COMM-23_CORNER_EXTERNAL$0$
 10
0.0000000000020464
 20
277.05000000000251
 30
0.0
 11
-10.19999999999845
 21
277.05000000000251
 31
0.0
  0
LINE
  5
A0F
  8
0
  6
CONTINUOUS
 10
0.0000000000020464
 20
243.55000000000251
 30
0.0
 11
-10.199999999998679
 21
243.55000000000251
 31
0.0
  0
LINE
  5
A10
  8
0
  6
CONTINUOUS
 10
0.0000000000020464
 20
229.5500000000024
 30
0.0
 11
-10.199999999998679
 21
229.5500000000024
 31
0.0
  0
LINE
  5
A11
  8
0
  6
CONTINUOUS
 10
0.0000000000020464
 20
219.54999999999879
 30
0.0
 11
-10.19999999999891
 21
219.54999999999879
 31
0.0
  0
LINE
  5
A12
  8
0
  6
CONTINUOUS
 10
0.0000000000020464
 20
205.55000000000251
 30
0.0
 11
-10.19999999999891
 21
205.55000000000251
 31
0.0
  0
LINE
  5
A13
  8
0
  6
CONTINUOUS
 10
0.0000000000020464
 20
195.54999999999879
 30
0.0
 11
-10.19999999999891
 21
195.54999999999879
 31
0.0
  0
LINE
  5
A14
  8
0
  6
CONTINUOUS
 10
0.0000000000020464
 20
181.54999999999879
 30
0.0
 11
-10.19999999999891
 21
181.54999999999879
 31
0.0
  0
LINE
  5
A15
  8
0
  6
CONTINUOUS
 10
0.0000000000020464
 20
171.5500000000024
 30
0.0
 11
-10.199999999999131
 21
171.5500000000024
 31
0.0
  0
LINE
  5
A16
  8
0
  6
CONTINUOUS
 10
0.0000000000020464
 20
157.54999999999879
 30
0.0
 11
-10.199999999999131
 21
157.54999999999879
 31
0.0
  0
LINE
  5
A17
  8
0
  6
CONTINUOUS
 10
0.0000000000020464
 20
302.05000000000268
 30
0.0
 11
-300.16445679861749
 21
302.05000000000268
 31
0.0
  0
LINE
  5
A18
  8
0
  6
COMM-23_CORNER_EXTERNAL$0$
 10
7.7499999999988631
 20
302.05000000000268
 30
0.0
 11
7.749999999999317
 21
35.0
 31
0.0
  0
LINE
  5
A19
  8
0
  6
COMM-23_CORNER_EXTERNAL$0$
 10
0.0000000000020464
 20
300.30000000000632
 30
0.0
 11
-300.42659879883098
 21
300.30000000000632
 31
0.0
  0
LINE
  5
A1A
  8
0
  6
CONTINUOUS
 10
0.0000000000025011
 20
302.05000000000268
 30
0.0
 11
0.0000000000025011
 21
99.050000000006776
 31
0.0
  0
INSERT
  5
A1B
  8
0
  6
CONTINUOUS
  2
*U21
 10
0.0
 20
0.0
 30
0.0
1001
ACAD
1000
DSTYLE
1002
{
1070
   176
1070
   256
1002
}
  0
INSERT
  5
A1C
  8
0
  6
CONTINUOUS
  2
*U22
 10
0.0
 20
0.0
 30
0.0
  0
POLYLINE
  5
A1D
  8
0
  6
CONTINUOUS
 66
     1
 10
0.0
 20
0.0
 30
0.0
 70
   128
  0
VERTEX
  5
CD7
  8
0
  6
CONTINUOUS
 10
-331.5706854102807
 20
92.389205371173375
 30
0.0
  0
VERTEX
  5
CD8
  8
0
  6
CONTINUOUS
 10
-316.8501186889257
 20
190.66033987600349
 30
0.0
  0
VERTEX
  5
CD9
  8
0
  6
CONTINUOUS
 10
-302.52359681157958
 20
193.57007786393061
 30
0.0
  0
VERTEX
  5
CDA
  8
0
  6
CONTINUOUS
 10
-328.2137888104433
 20
207.5299221360834
 30
0.0
  0
VERTEX
  5
CDB
  8
0
  6
CONTINUOUS
 10
-313.88726693310628
 20
210.439660124006
 30
0.0
  0
VERTEX
  5
CDC
  8
0
  6
CONTINUOUS
 10
-290.68333118000282
 20
365.34382479361119
 30
0.0
  0
SEQEND
  5
CDD
  8
0
  6
CONTINUOUS
  0
POLYLINE
  5
A1E
  8
0
  6
CONTINUOUS
 66
     1
 10
0.0
 20
0.0
 30
0.0
 70
   128
  0
VERTEX
  5
CDE
  8
0
  6
CONTINUOUS
 10
3.5275849689983261
 20
-197.76301328247331
 30
0.0
  0
VERTEX
  5
CDF
  8
0
  6
CONTINUOUS
 10
97.610339875995351
 20
-211.85617988644029
 30
0.0
  0
VERTEX
  5
CE0
  8
0
  6
CONTINUOUS
 10
100.5200778639207
 20
-226.1827017637851
 30
0.0
  0
VERTEX
  5
CE1
  8
0
  6
CONTINUOUS
 10
114.47992213607699
 20
-200.4925097649128
 30
0.0
  0
VERTEX
  5
CE2
  8
0
  6
CONTINUOUS
 10
117.3896601239978
 20
-214.8190316422579
 30
0.0
  0
VERTEX
  5
CE3
  8
0
  6
CONTINUOUS
 10
276.04074512101528
 20
-238.5842389320878
 30
0.0
  0
SEQEND
  5
CE4
  8
0
  6
CONTINUOUS
  0
POLYLINE
  5
A1F
  8
0
  6
CONTINUOUS
 66
     1
 10
0.0
 20
0.0
 30
0.0
 70
   129
1001
GENIUS_GENOREF_13
1005
0
  0
VERTEX
  5
CE5
  8
0
  6
CONTINUOUS
 10
0.0000000000002274
 20
82.5
 30
0.0
  0
VERTEX
  5
CE6
  8
0
  6
CONTINUOUS
 10
-0.0000000000002274
 20
-82.5
 30
0.0
  0
VERTEX
  5
CE7
  8
0
  6
CONTINUOUS
 10
-10.200000000000729
 20
-82.5
 30
0.0
  0
VERTEX
  5
CE8
  8
0
  6
CONTINUOUS
 10
-10.20000000000004
 20
-11.94999999999982
 30
0.0
 42
0.4142135623730951
  0
VERTEX
  5
CE9
  8
0
  6
CONTINUOUS
 10
-19.100000000000129
 20
-3.050000000000181
 30
0.0
  0
VERTEX
  5
CEA
  8
0
  6
CONTINUOUS
 10
-284.89999999999992
 20
-3.0499999999997272
 30
0.0
 42
0.4142135623730951
  0
VERTEX
  5
CEB
  8
0
  6
CONTINUOUS
 10
-293.80000000000001
 20
-11.94999999999982
 30
0.0
  0
VERTEX
  5
CEC
  8
0
  6
CONTINUOUS
 10
-293.80000000000001
 20
-82.5
 30
0.0
  0
VERTEX
  5
CED
  8
0
  6
CONTINUOUS
 10
-303.99999999999977
 20
-82.5
 30
0.0
  0
VERTEX
  5
CEE
  8
0
  6
CONTINUOUS
 10
-303.99999999999977
 20
82.5
 30
0.0
  0
VERTEX
  5
CEF
  8
0
  6
CONTINUOUS
 10
-293.80000000000001
 20
82.5
 30
0.0
  0
VERTEX
  5
CF0
  8
0
  6
CONTINUOUS
 10
-293.80000000000001
 20
11.94999999999982
 30
0.0
 42
0.4142135623730951
  0
VERTEX
  5
CF1
  8
0
  6
CONTINUOUS
 10
-284.89999999999992
 20
3.0499999999997272
 30
0.0
  0
VERTEX
  5
CF2
  8
0
  6
CONTINUOUS
 10
-19.100000000000129
 20
3.050000000000181
 30
0.0
 42
0.4142135623730951
  0
VERTEX
  5
CF3
  8
0
  6
CONTINUOUS
 10
-10.20000000000004
 20
11.94999999999982
 30
0.0
  0
VERTEX
  5
CF4
  8
0
  6
CONTINUOUS
 10
-10.2000000000005
 20
82.5
 30
0.0
  0
SEQEND
  5
CF5
  8
0
  6
CONTINUOUS
  0
LINE
  5
A20
  8
0
  6
COMM-23_CORNER_EXTERNAL$00
 10
-45.199999999999811
 20
288.94489334737619
 30
0.0
 11
-45.200000000000038
 21
107.3317572098174
 31
0.0
  0
LINE
  5
A21
  8
0
  6
COMM-23_CORNER_EXTERNAL$00
 10
-25.814948664729851
 20
260.55000000000092
 30
0.0
 11
-65.814948664729854
 21
260.55000000000109
 31
0.0
  0
POLYLINE
  5
A22
  8
0
 66
     1
 10
0.0
 20
0.0
 30
0.0
 70
     1
  0
VERTEX
  5
CF6
  8
0
 10
-50.107477288099737
 20
269.05000000000081
 30
0.0
  0
VERTEX
  5
CF7
  8
0
 10
-55.01495457622832
 20
260.55000000000092
 30
0.0
  0
VERTEX
  5
CF8
  8
0
 10
-50.107477288099737
 20
252.05000000000089
 30
0.0
  0
VERTEX
  5
CF9
  8
0
 10
-40.292522711900801
 20
252.05000000000089
 30
0.0
  0
VERTEX
  5
CFA
  8
0
 10
-35.385045423772233
 20
260.55000000000092
 30
0.0
  0
VERTEX
  5
CFB
  8
0
 10
-40.292522711900801
 20
269.05000000000081
 30
0.0
  0
SEQEND
  5
CFC
  8
0
  0
CIRCLE
  5
A23
  8
0
 10
-45.200000000000273
 20
260.55000000000092
 30
0.0
 40
8.5
  0
CIRCLE
  5
A24
  8
0
  6
CONTINUOUS
 10
-45.200000000000273
 20
260.55000000000092
 30
0.0
 40
4.9999999999955662
  0
CIRCLE
  5
A25
  8
0
  6
CONTINUOUS
 10
-45.200000000000273
 20
260.55000000000092
 30
0.0
 40
3.9999999999960201
  0
CIRCLE
  5
A26
  8
0
  6
CONTINUOUS
 10
-45.200000000000273
 20
260.55000000000092
 30
0.0
 40
10.50000000000079
  0
LINE
  5
A27
  8
0
  6
COMM-23_CORNER_EXTERNAL$00
 10
-25.814948664729851
 20
140.55000000000041
 30
0.0
 11
-65.814948664729854
 21
140.55000000000041
 31
0.0
  0
POLYLINE
  5
A28
  8
0
 66
     1
 10
0.0
 20
0.0
 30
0.0
 70
     1
  0
VERTEX
  5
CFD
  8
0
 10
-50.107477288099737
 20
149.05000000000041
 30
0.0
  0
VERTEX
  5
CFE
  8
0
 10
-55.01495457622832
 20
140.55000000000041
 30
0.0
  0
VERTEX
  5
CFF
  8
0
 10
-50.107477288099737
 20
132.05000000000041
 30
0.0
  0
VERTEX
  5
D00
  8
0
 10
-40.292522711900801
 20
132.05000000000041
 30
0.0
  0
VERTEX
  5
D01
  8
0
 10
-35.385045423772233
 20
140.55000000000041
 30
0.0
  0
VERTEX
  5
D02
  8
0
 10
-40.292522711900801
 20
149.05000000000041
 30
0.0
  0
SEQEND
  5
D03
  8
0
  0
CIRCLE
  5
A29
  8
0
 10
-45.200000000000273
 20
140.55000000000041
 30
0.0
 40
8.5
  0
CIRCLE
  5
A2A
  8
0
  6
CONTINUOUS
 10
-45.200000000000273
 20
140.55000000000041
 30
0.0
 40
4.9999999999955662
  0
CIRCLE
  5
A2B
  8
0
  6
CONTINUOUS
 10
-45.200000000000273
 20
140.55000000000041
 30
0.0
 40
3.9999999999960201
  0
CIRCLE
  5
A2C
  8
0
  6
CONTINUOUS
 10
-45.200000000000273
 20
140.55000000000041
 30
0.0
 40
10.50000000000079
  0
INSERT
  5
A2D
  8
0
  6
CONTINUOUS
  2
*U23
 10
0.0
 20
0.0
 30
0.0
  0
INSERT
  5
A2E
  8
0
  6
CONTINUOUS
  2
*U24
 10
0.0
 20
0.0
 30
0.0
1001
ACAD
1000
DSTYLE
1002
{
1070
   176
1070
   256
1002
}
  0
LINE
  5
A2F
  8
0
  6
CONTINUOUS
 10
-80.200000000000514
 20
99.050000000006776
 30
0.0
 11
-330.57292882341432
 21
99.050000000006776
 31
0.0
  0
LINE
  5
A30
  8
0
  6
COMM-23_CORNER_EXTERNAL$0$
 10
-80.200000000000514
 20
100.8000000000031
 30
0.0
 11
-330.310786823201
 21
100.8000000000031
 31
0.0
  0
LINE
  5
A31
  8
0
  6
COMM-23_CORNER_EXTERNAL$0$
 10
-80.200000000000713
 20
124.0499999999988
 30
0.0
 11
-326.82804310607571
 21
124.0499999999988
 31
0.0
  0
LINE
  5
A32
  8
0
  6
CONTINUOUS
 10
-80.200000000000955
 20
171.5500000000024
 30
0.0
 11
-319.71276024313011
 21
171.5500000000024
 31
0.0
  0
LINE
  5
A33
  8
0
  6
CONTINUOUS
 10
-80.200000000001182
 20
181.54999999999879
 30
0.0
 11
-318.21480595619482
 21
181.54999999999879
 31
0.0
  0
LINE
  5
A34
  8
0
  6
COMM-23_CORNER_EXTERNAL$0$
 10
-80.200000000001637
 20
277.05000000000251
 30
0.0
 11
-303.90934251595718
 21
277.05000000000251
 31
0.0
  0
LINE
  5
A35
  8
0
  6
CONTINUOUS
 10
-80.20000000000141
 20
243.55000000000251
 30
0.0
 11
-308.92748937719222
 21
243.55000000000251
 31
0.0
  0
LINE
  5
A36
  8
0
  6
CONTINUOUS
 10
-80.20000000000141
 20
229.5500000000024
 30
0.0
 11
-311.02462537890227
 21
229.5500000000024
 31
0.0
  0
LINE
  5
A37
  8
0
  6
CONTINUOUS
 10
-80.200000000001182
 20
219.54999999999879
 30
0.0
 11
-312.5225796658388
 21
219.54999999999879
 31
0.0
  0
LINE
  5
A38
  8
0
  6
CONTINUOUS
 10
-80.200000000001182
 20
205.55000000000251
 30
0.0
 11
-324.5701536217482
 21
205.55000000000251
 31
0.0
  0
LINE
  5
A39
  8
0
  6
CONTINUOUS
 10
-80.200000000001182
 20
195.54999999999879
 30
0.0
 11
-306.16723200025132
 21
195.54999999999879
 31
0.0
  0
LINE
  5
A3A
  8
0
  6
CONTINUOUS
 10
-80.200000000000955
 20
157.54999999999879
 30
0.0
 11
-321.80989624484101
 21
157.54999999999879
 31
0.0
  0
LINE
  5
A3B
  8
0
  6
COMM-23_CORNER_EXTERNAL$0$
 10
184.0000000000025
 20
-35.000000000001819
 30
0.0
 11
184.0000000000025
 21
-224.79695605940881
 31
0.0
  0
LINE
  5
A3C
  8
0
  6
CONTINUOUS
 10
150.5000000000025
 20
-35.000000000001478
 30
0.0
 11
150.5000000000025
 21
-219.778809198174
 31
0.0
  0
LINE
  5
A3D
  8
0
  6
CONTINUOUS
 10
136.49999999999881
 20
-35.000000000001371
 30
0.0
 11
136.49999999999881
 21
-217.68167319646321
 31
0.0
  0
LINE
  5
A3E
  8
0
  6
CONTINUOUS
 10
126.5000000000025
 20
-35.000000000001251
 30
0.0
 11
126.5000000000025
 21
-216.1837189095279
 31
0.0
  0
LINE
  5
A3F
  8
0
  6
CONTINUOUS
 10
112.5000000000025
 20
-35.000000000001137
 30
0.0
 11
112.5000000000025
 21
-204.13614495359641
 31
0.0
  0
LINE
  5
A40
  8
0
  6
CONTINUOUS
 10
102.49999999999881
 20
-35.00000000000103
 30
0.0
 11
102.49999999999881
 21
-222.53906657509489
 31
0.0
  0
LINE
  5
A41
  8
0
  6
CONTINUOUS
 10
88.500000000002501
 20
-35.000000000000909
 30
0.0
 11
88.500000000002501
 21
-210.49149261917179
 31
0.0
  0
LINE
  5
A42
  8
0
  6
CONTINUOUS
 10
78.499999999999091
 20
-35.000000000000803
 30
0.0
 11
78.499999999999091
 21
-208.9935383322354
 31
0.0
  0
LINE
  5
A43
  8
0
  6
CONTINUOUS
 10
64.499999999998863
 20
-35.000000000000682
 30
0.0
 11
64.499999999998863
 21
-206.89640233052521
 31
0.0
  0
LINE
  5
A44
  8
0
  6
COMM-23_CORNER_EXTERNAL$0$
 10
30.999999999999091
 20
-35.000000000000227
 30
0.0
 11
30.999999999999091
 21
-201.87825546929031
 31
0.0
  0
LINE
  5
A45
  8
0
  6
COMM-23_CORNER_EXTERNAL$0$
 10
7.749999999999317
 20
-35.0
 30
0.0
 11
7.7499999999995453
 21
-198.3955117521644
 31
0.0
  0
LINE
  5
A46
  8
0
  6
CONTINUOUS
 10
-10.19999999999845
 20
280.55000000000092
 30
0.0
 11
-80.200000000001637
 21
280.55000000000149
 31
0.0
  0
LINE
  5
A47
  8
0
  6
CONTINUOUS
 10
-80.200000000001637
 20
280.55000000000149
 30
0.0
 11
-80.200000000000045
 21
3.0499999999999541
 31
0.0
  0
LINE
  5
A48
  8
0
  6
CONTINUOUS
 10
-10.199999999999591
 20
82.5
 30
0.0
 11
-10.19999999999845
 21
280.55000000000092
 31
0.0
  0
POLYLINE
  5
A49
  8
0
  6
CONTINUOUS
 66
     1
 10
0.0
 20
0.0
 30
0.0
 70
   129
  0
VERTEX
  5
D11
  8
0
  6
CONTINUOUS
 10
187.50000000000071
 20
-35.000000000001819
 30
0.0
  0
VERTEX
  5
D12
  8
0
  6
CONTINUOUS
 10
187.50000000000139
 20
35.000000000001371
 30
0.0
  0
VERTEX
  5
D13
  8
0
  6
CONTINUOUS
 10
-0.0000000000002274
 20
35.0
 30
0.0
  0
VERTEX
  5
D14
  8
0
  6
CONTINUOUS
 10
-0.0000000000002274
 20
-35.0
 30
0.0
  0
SEQEND
  5
D15
  8
0
  6
CONTINUOUS
  0
LINE
  5
A4A
  8
0
  6
COMM-23_CORNER_EXTERNAL$00
 10
195.8948933473759
 20
-0.0000000000004547
 30
0.0
 11
-0.0000000000002274
 21
0.0
 31
0.0
  0
LINE
  5
A4B
  8
0
  6
COMM-23_CORNER_EXTERNAL$00
 10
167.50000000000071
 20
-19.385051335270418
 30
0.0
 11
167.50000000000091
 21
20.614948664729582
 31
0.0
  0
POLYLINE
  5
A4C
  8
0
 66
     1
 10
0.0
 20
0.0
 30
0.0
 70
     1
  0
VERTEX
  5
D16
  8
0
 10
176.00000000000071
 20
4.9074772880994706
 30
0.0
  0
VERTEX
  5
D17
  8
0
 10
167.50000000000071
 20
9.8149545762280468
 30
0.0
  0
VERTEX
  5
D18
  8
0
 10
159.00000000000071
 20
4.9074772880994706
 30
0.0
  0
VERTEX
  5
D19
  8
0
 10
159.00000000000071
 20
-4.9074772880994706
 30
0.0
  0
VERTEX
  5
D1A
  8
0
 10
167.50000000000071
 20
-9.8149545762280468
 30
0.0
  0
VERTEX
  5
D1B
  8
0
 10
176.00000000000071
 20
-4.9074772880994706
 30
0.0
  0
SEQEND
  5
D1C
  8
0
  0
CIRCLE
  5
A4D
  8
0
 10
167.50000000000071
 20
0.0
 30
0.0
 40
8.5
  0
CIRCLE
  5
A4E
  8
0
  6
CONTINUOUS
 10
167.50000000000071
 20
0.0
 30
0.0
 40
4.9999999999955662
  0
CIRCLE
  5
A4F
  8
0
  6
CONTINUOUS
 10
167.50000000000071
 20
0.0
 30
0.0
 40
3.9999999999960201
  0
CIRCLE
  5
A50
  8
0
  6
CONTINUOUS
 10
167.50000000000071
 20
0.0
 30
0.0
 40
10.50000000000079
  0
LINE
  5
A51
  8
0
  6
COMM-23_CORNER_EXTERNAL$00
 10
47.500000000000227
 20
-19.385051335270418
 30
0.0
 11
47.500000000000227
 21
20.614948664729582
 31
0.0
  0
POLYLINE
  5
A52
  8
0
 66
     1
 10
0.0
 20
0.0
 30
0.0
 70
     1
  0
VERTEX
  5
D1D
  8
0
 10
56.00000000000022
 20
4.9074772880994706
 30
0.0
  0
VERTEX
  5
D1E
  8
0
 10
47.500000000000227
 20
9.8149545762280468
 30
0.0
  0
VERTEX
  5
D1F
  8
0
 10
39.000000000000227
 20
4.9074772880994706
 30
0.0
  0
VERTEX
  5
D20
  8
0
 10
39.000000000000227
 20
-4.9074772880994706
 30
0.0
  0
VERTEX
  5
D21
  8
0
 10
47.500000000000227
 20
-9.8149545762280468
 30
0.0
  0
VERTEX
  5
D22
  8
0
 10
56.00000000000022
 20
-4.9074772880994706
 30
0.0
  0
SEQEND
  5
D23
  8
0
  0
CIRCLE
  5
A53
  8
0
 10
47.500000000000227
 20
0.0
 30
0.0
 40
8.5
  0
CIRCLE
  5
A54
  8
0
  6
CONTINUOUS
 10
47.500000000000227
 20
0.0
 30
0.0
 40
4.9999999999955662
  0
CIRCLE
  5
A55
  8
0
  6
CONTINUOUS
 10
47.500000000000227
 20
0.0
 30
0.0
 40
3.9999999999960201
  0
CIRCLE
  5
A56
  8
0
  6
CONTINUOUS
 10
47.500000000000227
 20
0.0
 30
0.0
 40
10.50000000000079
  0
ENDSEC
  0
EOF
