  0
SECTION
  2
HEADER
  9
$ACADVER
  1
AC1009
  9
$INSBASE
 10
0.0
 20
0.0
 30
0.0
  9
$EXTMIN
 10
-767.05571566392291
 20
-775.50514440147515
 30
-0.0000000000559994
  9
$EXTMAX
 10
756.55400099869837
 20
1146.237543639367
 30
0.0000000000344515
  9
$LIMMIN
 10
0.0
 20
0.0
  9
$LIMMAX
 10
12.0
 20
9.0
  9
$ORTHOMODE
 70
     0
  9
$REGENMODE
 70
     1
  9
$FILLMODE
 70
     1
  9
$QTEXTMODE
 70
     0
  9
$MIRRTEXT
 70
     0
  9
$DRAGMODE
 70
     2
  9
$LTSCALE
 40
0.5
  9
$OSMODE
 70
     0
  9
$ATTMODE
 70
     1
  9
$TEXTSIZE
 40
1.5
  9
$TRACEWID
 40
0.05
  9
$TEXTSTYLE
  7
ARIAL
  9
$CLAYER
  8
0
  9
$CELTYPE
  6
CONTINUOUS
  9
$CECOLOR
 62
   256
  9
$DIMSCALE
 40
10.0
  9
$DIMASZ
 40
3.0
  9
$DIMEXO
 40
1.5
  9
$DIMDLI
 40
3.75
  9
$DIMRND
 40
0.0
  9
$DIMDLE
 40
0.0
  9
$DIMEXE
 40
1.0
  9
$DIMTP
 40
0.0
  9
$DIMTM
 40
0.000000001
  9
$DIMTXT
 40
2.0
  9
$DIMCEN
 40
0.0
  9
$DIMTSZ
 40
0.0
  9
$DIMTOL
 70
     0
  9
$DIMLIM
 70
     0
  9
$DIMTIH
 70
     0
  9
$DIMTOH
 70
     0
  9
$DIMSE1
 70
     0
  9
$DIMSE2
 70
     0
  9
$DIMTAD
 70
     1
  9
$DIMZIN
 70
     8
  9
$DIMBLK
  1

  9
$DIMASO
 70
     1
  9
$DIMSHO
 70
     1
  9
$DIMPOST
  1

  9
$DIMAPOST
  1

  9
$DIMALT
 70
     0
  9
$DIMALTD
 70
     3
  9
$DIMALTF
 40
0.03937007874016
  9
$DIMLFAC
 40
1.0
  9
$DIMTOFL
 70
     1
  9
$DIMTVP
 40
0.0
  9
$DIMTIX
 70
     0
  9
$DIMSOXD
 70
     0
  9
$DIMSAH
 70
     0
  9
$DIMBLK1
  1

  9
$DIMBLK2
  1

  9
$DIMSTYLE
  2
DL1DS10
  9
$DIMCLRD
 70
     6
  9
$DIMCLRE
 70
     6
  9
$DIMCLRT
 70
     2
  9
$DIMTFAC
 40
0.8
  9
$DIMGAP
 40
1.0
  9
$LUNITS
 70
     2
  9
$LUPREC
 70
     1
  9
$SKETCHINC
 40
0.1
  9
$FILLETRAD
 40
3.0
  9
$AUNITS
 70
     1
  9
$AUPREC
 70
     4
  9
$MENU
  1
.
  9
$ELEVATION
 40
0.0
  9
$PELEVATION
 40
0.0
  9
$THICKNESS
 40
0.0
  9
$LIMCHECK
 70
     0
  9
$BLIPMODE
 70
     0
  9
$CHAMFERA
 40
0.0
  9
$CHAMFERB
 40
0.0
  9
$SKPOLY
 70
     0
  9
$TDCREATE
 40
2452152.65359294
  9
$TDUPDATE
 40
2455936.4919436919
  9
$TDINDWG
 40
10.1003199306
  9
$TDUSRTIMER
 40
10.1003199306
  9
$USRTIMER
 70
     1
  9
$ANGBASE
 50
0.0
  9
$ANGDIR
 70
     0
  9
$PDMODE
 70
     3
  9
$PDSIZE
 40
0.0
  9
$PLINEWID
 40
0.0
  9
$COORDS
 70
     1
  9
$SPLFRAME
 70
     0
  9
$SPLINETYPE
 70
     6
  9
$SPLINESEGS
 70
     8
  9
$ATTDIA
 70
     0
  9
$ATTREQ
 70
     1
  9
$HANDLING
 70
     1
  9
$HANDSEED
  5
15EE
  9
$SURFTAB1
 70
     6
  9
$SURFTAB2
 70
     6
  9
$SURFTYPE
 70
     6
  9
$SURFU
 70
     6
  9
$SURFV
 70
     6
  9
$UCSNAME
  2

  9
$UCSORG
 10
0.0
 20
0.0
 30
0.0
  9
$UCSXDIR
 10
1.0
 20
0.0
 30
0.0
  9
$UCSYDIR
 10
0.0
 20
1.0
 30
0.0
  9
$PUCSNAME
  2

  9
$PUCSORG
 10
0.0
 20
0.0
 30
0.0
  9
$PUCSXDIR
 10
1.0
 20
0.0
 30
0.0
  9
$PUCSYDIR
 10
0.0
 20
1.0
 30
0.0
  9
$USERI1
 70
     0
  9
$USERI2
 70
     0
  9
$USERI3
 70
     0
  9
$USERI4
 70
     0
  9
$USERI5
 70
     0
  9
$USERR1
 40
0.0
  9
$USERR2
 40
0.0
  9
$USERR3
 40
0.0
  9
$USERR4
 40
0.0
  9
$USERR5
 40
0.0
  9
$WORLDVIEW
 70
     1
  9
$SHADEDGE
 70
     3
  9
$SHADEDIF
 70
    70
  9
$TILEMODE
 70
     1
  9
$MAXACTVP
 70
    48
  9
$PLIMCHECK
 70
     0
  9
$PEXTMIN
 10
0.0
 20
0.0
 30
0.0
  9
$PEXTMAX
 10
0.0
 20
0.0
 30
0.0
  9
$PLIMMIN
 10
0.0
 20
0.0
  9
$PLIMMAX
 10
12.0
 20
9.0
  9
$UNITMODE
 70
     0
  9
$VISRETAIN
 70
     1
  9
$PLINEGEN
 70
     1
  9
$PSLTSCALE
 70
     1
  0
ENDSEC
  0
SECTION
  2
TABLES
  0
TABLE
  2
VPORT
 70
     1
  0
VPORT
  2
*ACTIVE
 70
     0
 10
0.0
 20
0.0
 11
1.0
 21
1.0
 12
-5.2508573326124397
 22
185.36619961894559
 13
0.0
 23
0.0
 14
1.0
 24
1.0
 15
0.5
 25
0.5
 16
0.0
 26
0.0
 36
1.0
 17
0.0
 27
0.0
 37
0.0
 40
1933.296251295596
 41
1.908726178535606
 42
50.0
 43
0.0
 44
0.0
 50
0.0
 51
0.0
 71
     0
 72
 20000
 73
     1
 74
     3
 75
     0
 76
     0
 77
     0
 78
     0
  0
ENDTAB
  0
TABLE
  2
LTYPE
 70
     3
  0
LTYPE
  2
CONTINUOUS
 70
     0
  3
Solid line
 72
    65
 73
     0
 40
0.0
  0
LTYPE
  2
COMM-10_TRANSSHT_MIDSPAN$0
 70
     0
  3
Hidden __ __ __ __ __ __ __ __ __ __ __ __ __ _
 72
    65
 73
     2
 40
9.5249999999999986
 49
6.3499999999999988
 49
-3.1749999999999989
  0
LTYPE
  2
COMM-10_TRANSSHT_MIDSPAN$1
 70
     0
  3
____ . ____ . ____ . ____ . ____ . ____ . ____
 72
    65
 73
     4
 40
18.0
 49
12.0
 49
-1.5
 49
3.0
 49
-1.5
  0
ENDTAB
  0
TABLE
  2
LAYER
 70
     8
  0
LAYER
  2
0
 70
     0
 62
     7
  6
CONTINUOUS
  0
ENDTAB
  0
TABLE
  2
STYLE
 70
     8
  0
STYLE
  2
STANDARD
 70
     0
 40
0.0
 41
1.0
 50
0.0
 71
     0
 42
1.5
  3
romans.shx
  4

  0
STYLE
  2
TEXT_NOTE
 70
     0
 40
0.0
 41
1.0
 50
0.0
 71
     0
 42
2.5
  3
txt
  4

  0
STYLE
  2
$0$TEXT_NOTE
 70
     0
 40
0.0
 41
1.0
 50
0.0
 71
     0
 42
2.5
  3
txt
  4

  0
STYLE
  2
$0$ARIAL
 70
     0
 40
0.0
 41
1.0
 50
0.0
 71
     0
 42
1.5
  3
txt
  4

  0
STYLE
  2
ARIAL
 70
     0
 40
0.0
 41
1.0
 50
0.0
 71
     0
 42
1.5
  3
txt
  4

  0
STYLE
  2
COMM-10_TRANSSHT_MIDSPAN$0
 70
     0
 40
0.0
 41
1.0
 50
0.0
 71
     0
 42
2.5
  3
txt
  4

  0
STYLE
  2
COMM-10_TRANSSHT_MIDSPAN$1
 70
     0
 40
0.0
 41
1.0
 50
0.0
 71
     0
 42
1.5
  3
txt
  4

  0
ENDTAB
  0
TABLE
  2
VIEW
 70
     2
  0
VIEW
  2
COMM-04
 70
     1
 40
477.26027331217421
 10
194.21746115522001
 20
180.60494410563541
 41
755.81685306636155
 11
0.0
 21
0.0
 31
1.0
 12
0.0
 22
0.0
 32
0.0
 42
50.0
 43
0.0
 44
0.0
 50
0.0
 71
     0
  0
ENDTAB
  0
TABLE
  2
UCS
 70
     0
  0
ENDTAB
  0
TABLE
  2
APPID
 70
    29
  0
APPID
  2
ACAD
 70
     0
  0
APPID
  2
RAK
 70
     0
  0
APPID
  2
GENIUS_GENODEF_13
 70
     0
  0
APPID
  2
GENIUS_GENREC_14
 70
     0
  0
APPID
  2
GENIUS_GENOBJ-N-REC_13
 70
     0
  0
APPID
  2
ACAD_MLEADERVER
 70
     0
  0
APPID
  2
ACAD_DSTYLE_DIMEXT_ENABLED
 70
     0
  0
APPID
  2
ACAD_DSTYLE_DIMEXT_LENGTH
 70
     0
  0
APPID
  2
ACADANNOTATIVE
 70
     0
  0
APPID
  2
ACAD_PSEXT
 70
     0
  0
APPID
  2
ACAUTHENVIRON
 70
     0
  0
APPID
  2
ACDBDYNAMICBLOCKTRUENAME
 70
     0
  0
APPID
  2
ACDBDYNAMICBLOCKGUID
 70
     0
  0
APPID
  2
ACDBBLOCKREPETAG
 70
     0
  0
APPID
  2
ACAD_EXEMPT_FROM_CAD_STANDARDS
 70
     0
  0
APPID
  2
GENIUS_GENSCREG_15
 70
     0
  0
APPID
  2
GENIUS_GENOBJ-N-SDF_13
 70
     0
  0
APPID
  2
GENIUS_GENCFG_13
 70
     0
  0
APPID
  2
GENIUS_GENCFG0_13
 70
     0
  0
APPID
  2
ACAECLAYERSTANDARD
 70
     0
  0
APPID
  2
ACCMTRANSPARENCY
 70
     0
  0
APPID
  2
ACADANNOPO
 70
     0
  0
APPID
  2
ADESKUNDERLAYLAYEROVERRIDEDATA
 70
     0
  0
APPID
  2
URBANX
 70
     0
  0
APPID
  2
GRADIENTCOLOR1ACI
 70
     0
  0
APPID
  2
GRADIENTCOLOR2ACI
 70
     0
  0
APPID
  2
ACAD_NAV_VCDISPLAY
 70
     0
  0
APPID
  2
ACAD_DSTYLE_DIMJOGGED_JOGA
 70
     0
  0
APPID
  2
PE_URL
 70
     0
  0
ENDTAB
  0
TABLE
  2
DIMSTYLE
 70
     4
  0
DIMSTYLE
  2
DL1DS10
 70
     0
  3

  4

  5

  6

  7

 40
10.0
 41
3.0
 42
1.5
 43
3.75
 44
1.0
 45
0.0
 46
0.0
 47
0.0
 48
0.000000001
140
2.0
141
0.0
142
0.0
143
0.03937007874016
144
1.0
145
0.0
146
0.8
147
1.0
 71
     0
 72
     0
 73
     0
 74
     0
 75
     0
 76
     0
 77
     1
 78
     8
170
     0
171
     3
172
     1
173
     0
174
     0
175
     0
176
     6
177
     6
178
     2
  0
DIMSTYLE
  2
$0$1_TO_10_LEADER
 70
     0
  3

  4

  5
$0$_ARCHTICK
  6

  7

 40
10.0
 41
2.0
 42
2.0
 43
6.0
 44
1.5
 45
0.0
 46
1.5
 47
0.0
 48
0.0
140
2.0
141
2.0
142
0.0
143
0.0394
144
1.0
145
0.0
146
1.0
147
1.0
 71
     0
 72
     0
 73
     0
 74
     0
 75
     0
 76
     0
 77
     0
 78
     0
170
     0
171
     2
172
     1
173
     0
174
     1
175
     0
176
     0
177
     0
178
     0
  0
DIMSTYLE
  2
COMM-10_TRANSSHT_MIDSPAN$0
 70
     0
  3

  4

  5
COMM-10_TRANSSHT_MIDSPAN$0
  6

  7

 40
10.0
 41
2.0
 42
2.0
 43
6.0
 44
1.5
 45
0.0
 46
1.5
 47
0.0
 48
0.0
140
2.0
141
2.0
142
0.0
143
0.0394
144
1.0
145
0.0
146
1.0
147
1.0
 71
     0
 72
     0
 73
     0
 74
     0
 75
     0
 76
     0
 77
     0
 78
     0
170
     0
171
     2
172
     1
173
     0
174
     1
175
     0
176
     0
177
     0
178
     0
  0
ENDTAB
  0
ENDSEC
  0
SECTION
  2
BLOCKS
  0
BLOCK
  8
0
  2
$MODEL_SPACE
 70
     0
 10
0.0
 20
0.0
 30
0.0
  3
$MODEL_SPACE
  1

  0
ENDBLK
  5
C
  8
0
  0
BLOCK
 67
     1
  8
0
  2
$PAPER_SPACE
 70
     0
 10
0.0
 20
0.0
 30
0.0
  3
$PAPER_SPACE
  1

  0
ENDBLK
  5
11D5
 67
     1
  8
0
  0
BLOCK
  8
0
  2
$0$_ARCHTICK
 70
     0
 10
0.0
 20
0.0
 30
0.0
  3
$0$_ARCHTICK
  1

  0
POLYLINE
  5
64D
  8
0
  6
BYBLOCK
 62
     0
 66
     1
 10
0.0
 20
0.0
 30
0.0
 40
0.15
 41
0.15
  0
VERTEX
  5
125D
  8
0
  6
BYBLOCK
 62
     0
 10
-0.5
 20
-0.5
 30
0.0
  0
VERTEX
  5
125E
  8
0
  6
BYBLOCK
 62
     0
 10
0.5
 20
0.5
 30
0.0
  0
SEQEND
  5
125F
  8
0
  6
BYBLOCK
 62
     0
  0
ENDBLK
  5
64E
  8
0
  0
BLOCK
  8
0
  2
COMM-10_TRANSSHT_MIDSPAN$0
 70
     0
 10
0.0
 20
0.0
 30
0.0
  3
COMM-10_TRANSSHT_MIDSPAN$0
  1

  0
POLYLINE
  5
FB0
  8
0
  6
BYBLOCK
 62
     0
 66
     1
 10
0.0
 20
0.0
 30
0.0
 40
0.15
 41
0.15
  0
VERTEX
  5
12DE
  8
0
  6
BYBLOCK
 62
     0
 10
-0.5
 20
-0.5
 30
0.0
  0
VERTEX
  5
12DF
  8
0
  6
BYBLOCK
 62
     0
 10
0.5
 20
0.5
 30
0.0
  0
SEQEND
  5
12E0
  8
0
  6
BYBLOCK
 62
     0
  0
ENDBLK
  5
FB1
  8
0
  0
BLOCK
  8
0
  2
*U12
 70
     1
 10
0.0
 20
0.0
 30
0.0
  3
*U12
  1

  0
SOLID
  5
1250
  8
0
  6
CONTINUOUS
 10
-605.43986654930711
 20
-296.5048702314329
 30
0.0
 11
-620.46200677902073
 21
-310.12274135837242
 31
0.0
 12
-610.66848098127195
 22
-292.3689258935226
 32
0.0
 13
-610.66848098127195
 23
-292.3689258935226
 33
0.0
  0
POLYLINE
  5
1251
  8
0
  6
CONTINUOUS
 66
     1
 10
0.0
 20
0.0
 30
0.0
  0
VERTEX
  5
1252
  8
0
  6
CONTINUOUS
 10
-608.05417376528965
 20
-294.43689806247772
 30
0.0
  0
VERTEX
  5
1253
  8
0
  6
CONTINUOUS
 10
-481.52395457051892
 20
-134.47881446415931
 30
0.0
  0
VERTEX
  5
1254
  8
0
  6
CONTINUOUS
 10
-461.52395457051898
 20
-134.47881446415931
 30
0.0
  0
SEQEND
  5
1255
  8
0
  6
CONTINUOUS
  0
ENDBLK
  5
1257
  8
0
  0
BLOCK
  8
0
  2
*U13
 70
     1
 10
0.0
 20
0.0
 30
0.0
  3
*U13
  1

  0
TEXT
  5
1259
  8
0
  6
CONTINUOUS
 10
-452.77907053231968
 20
-124.87217508262221
 30
0.0
 40
20.0
  1
Steel & Tube Multispan
  7
$0$TEXT_NOTE
  0
TEXT
  5
125A
  8
0
  6
CONTINUOUS
 10
-453.36570081881359
 20
-158.5465725360101
 30
0.0
 40
20.0
  1
profile roofing
  7
$0$TEXT_NOTE
  0
ENDBLK
  5
125C
  8
0
  0
BLOCK
  8
0
  2
*U14
 70
     1
 10
0.0
 20
0.0
 30
0.0
  3
*U14
  1

  0
SOLID
  5
1261
  8
0
  6
CONTINUOUS
 10
-89.920384837923663
 20
-303.64123824965111
 30
0.0
 11
-102.22442603578379
 21
-319.75712113928739
 31
0.0
 12
-95.812240974987333
 22
-300.52186720654169
 32
0.0
 13
-95.812240974987333
 23
-300.52186720654169
 33
0.0
  0
POLYLINE
  5
1262
  8
0
  6
CONTINUOUS
 66
     1
 10
0.0
 20
0.0
 30
0.0
  0
VERTEX
  5
1263
  8
0
  6
CONTINUOUS
 10
-92.866312906455505
 20
-302.08155272809643
 30
0.0
  0
VERTEX
  5
1264
  8
0
  6
CONTINUOUS
 10
-37.97976364658826
 20
-198.41204768048871
 30
0.0
  0
VERTEX
  5
1265
  8
0
  6
CONTINUOUS
 10
-17.97976364658825
 20
-198.41204768048871
 30
0.0
  0
SEQEND
  5
1266
  8
0
  6
CONTINUOUS
  0
ENDBLK
  5
1268
  8
0
  0
BLOCK
  8
0
  2
*U15
 70
     1
 10
0.0
 20
0.0
 30
0.0
  3
*U15
  1

  0
TEXT
  5
126A
  8
0
  6
CONTINUOUS
 10
-9.4668032100261801
 20
-208.41204768048871
 30
0.0
 40
20.0
  1
GRP sheet
  7
$0$TEXT_NOTE
  0
ENDBLK
  5
126C
  8
0
  0
BLOCK
  8
0
  2
*U16
 70
     1
 10
0.0
 20
0.0
 30
0.0
  3
*U16
  1

  0
SOLID
  5
126E
  8
0
  6
CONTINUOUS
 10
628.16672248914324
 20
-314.81618867825318
 30
0.0
 11
628.98487717112232
 21
-335.07555031744278
 31
0.0
 12
621.64034329167509
 22
-316.17663677182429
 32
0.0
 13
621.64034329167509
 23
-316.17663677182429
 33
0.0
  0
POLYLINE
  5
126F
  8
0
  6
CONTINUOUS
 66
     1
 10
0.0
 20
0.0
 30
0.0
  0
VERTEX
  5
1270
  8
0
  6
CONTINUOUS
 10
624.90353289040922
 20
-315.49641272503868
 30
0.0
  0
VERTEX
  5
1271
  8
0
  6
CONTINUOUS
 10
590.0
 20
-148.0562200042923
 30
0.0
  0
VERTEX
  5
1272
  8
0
  6
CONTINUOUS
 10
570.0
 20
-148.0562200042923
 30
0.0
  0
SEQEND
  5
1273
  8
0
  6
CONTINUOUS
  0
ENDBLK
  5
1275
  8
0
  0
BLOCK
  8
0
  2
*U17
 70
     1
 10
0.0
 20
0.0
 30
0.0
  3
*U17
  1

  0
TEXT
  5
1277
  8
0
  6
CONTINUOUS
 10
273.05593451568888
 20
-138.44958062275521
 30
0.0
 40
20.0
  1
Steel & Tube Multispan
  7
$0$TEXT_NOTE
  0
TEXT
  5
1278
  8
0
  6
CONTINUOUS
 10
392.57844474761259
 20
-172.12397807614309
 30
0.0
 40
20.0
  1
profile roofing
  7
$0$TEXT_NOTE
  0
ENDBLK
  5
127A
  8
0
  0
BLOCK
  8
0
  2
*U18
 70
     1
 10
0.0
 20
0.0
 30
0.0
  3
*U18
  1

  0
SOLID
  5
127C
  8
0
  6
CONTINUOUS
 10
-144.2628283797261
 20
-392.85930900208967
 30
0.0
 11
-150.0
 21
-373.41204768048868
 31
0.0
 12
-138.26572587651901
 22
-389.94740137813051
 32
0.0
 13
-138.26572587651901
 23
-389.94740137813051
 33
0.0
  0
POLYLINE
  5
127D
  8
0
  6
CONTINUOUS
 66
     1
 10
0.0
 20
0.0
 30
0.0
  0
VERTEX
  5
127E
  8
0
  6
CONTINUOUS
 10
-141.26427712812259
 20
-391.40335519011012
 30
0.0
  0
VERTEX
  5
127F
  8
0
  6
CONTINUOUS
 10
-120.0
 20
-435.19734389520772
 30
0.0
  0
VERTEX
  5
1280
  8
0
  6
CONTINUOUS
 10
-100.0
 20
-435.19734389520772
 30
0.0
  0
SEQEND
  5
1281
  8
0
  6
CONTINUOUS
  0
ENDBLK
  5
1283
  8
0
  0
BLOCK
  8
0
  2
*U19
 70
     1
 10
0.0
 20
0.0
 30
0.0
  3
*U19
  1

  0
TEXT
  5
1285
  8
0
  6
CONTINUOUS
 10
-92.073669849931775
 20
-442.42108195796339
 30
0.0
 40
20.0
  1
Mid span support
  7
$0$TEXT_NOTE
  0
ENDBLK
  5
1287
  8
0
  0
BLOCK
  8
0
  2
*U20
 70
     1
 10
0.0
 20
0.0
 30
0.0
  3
*U20
  1

  0
SOLID
  5
1289
  8
0
  6
CONTINUOUS
 10
-402.80943440776099
 20
-239.47297781214689
 30
0.0
 11
-420.75541238919681
 21
-248.9097667469982
 31
0.0
 12
-406.84006746670929
 22
-234.1627573281597
 32
0.0
 13
-406.84006746670929
 23
-234.1627573281597
 33
0.0
  0
POLYLINE
  5
128A
  8
0
  6
CONTINUOUS
 66
     1
 10
0.0
 20
0.0
 30
0.0
  0
VERTEX
  5
128B
  8
0
  6
CONTINUOUS
 10
-404.82475093723519
 20
-236.81786757015331
 30
0.0
  0
VERTEX
  5
128C
  8
0
  6
CONTINUOUS
 10
-362.44752337684622
 20
-204.6521496180381
 30
0.0
  0
VERTEX
  5
128D
  8
0
  6
CONTINUOUS
 10
-342.44752337684622
 20
-204.6521496180381
 30
0.0
  0
SEQEND
  5
128E
  8
0
  6
CONTINUOUS
  0
ENDBLK
  5
1290
  8
0
  0
BLOCK
  8
0
  2
*U21
 70
     1
 10
0.0
 20
0.0
 30
0.0
  3
*U21
  1

  0
TEXT
  5
1292
  8
0
  6
CONTINUOUS
 10
-333.70263933864697
 20
-214.65214961803801
 30
0.0
 40
20.0
  1
Stitch screw
  7
$0$TEXT_NOTE
  0
ENDBLK
  5
1294
  8
0
  0
BLOCK
  8
0
  2
*U22
 70
     1
 10
0.0
 20
0.0
 30
0.0
  3
*U22
  1

  0
SOLID
  5
1296
  8
0
  6
CONTINUOUS
 10
200.83539503704461
 20
-256.46057008758987
 30
0.0
 11
187.5429240831599
 21
-271.7713939403825
 31
0.0
 12
195.15121049268561
 22
-252.97711052702141
 32
0.0
 13
195.15121049268561
 23
-252.97711052702141
 33
0.0
  0
POLYLINE
  5
1297
  8
0
  6
CONTINUOUS
 66
     1
 10
0.0
 20
0.0
 30
0.0
  0
VERTEX
  5
1298
  8
0
  6
CONTINUOUS
 10
197.99330276486509
 20
-254.7188403073057
 30
0.0
  0
VERTEX
  5
1299
  8
0
  6
CONTINUOUS
 10
232.5
 20
-198.41204768048871
 30
0.0
  0
VERTEX
  5
129A
  8
0
  6
CONTINUOUS
 10
252.5
 20
-198.41204768048871
 30
0.0
  0
SEQEND
  5
129B
  8
0
  6
CONTINUOUS
  0
ENDBLK
  5
129D
  8
0
  0
BLOCK
  8
0
  2
*U23
 70
     1
 10
0.0
 20
0.0
 30
0.0
  3
*U23
  1

  0
TEXT
  5
129F
  8
0
  6
CONTINUOUS
 10
260.34447476125513
 20
-191.7522022962232
 30
0.0
 40
20.0
  1
Profiled
  7
$0$TEXT_NOTE
  0
TEXT
  5
12A0
  8
0
  6
CONTINUOUS
 10
262.4181446111869
 20
-225.08553562955649
 30
0.0
 40
20.0
  1
washer
  7
$0$TEXT_NOTE
  0
ENDBLK
  5
12A2
  8
0
  0
BLOCK
  8
0
  2
*U24
 70
     1
 10
0.0
 20
0.0
 30
0.0
  3
*U24
  1

  0
SOLID
  5
12A4
  8
0
  6
CONTINUOUS
 10
183.9013715732043
 20
-300.80904270383002
 30
0.0
 11
180.0
 21
-280.91204768048777
 31
0.0
 12
190.14356609033129
 22
-298.46821975990741
 32
0.0
 13
190.14356609033129
 23
-298.46821975990741
 33
0.0
  0
POLYLINE
  5
12A5
  8
0
  6
CONTINUOUS
 66
     1
 10
0.0
 20
0.0
 30
0.0
  0
VERTEX
  5
12A6
  8
0
  6
CONTINUOUS
 10
187.02246883176781
 20
-299.63863123186871
 30
0.0
  0
VERTEX
  5
12A7
  8
0
  6
CONTINUOUS
 10
232.5
 20
-420.91204768048777
 30
0.0
  0
VERTEX
  5
12A8
  8
0
  6
CONTINUOUS
 10
252.5
 20
-420.91204768048777
 30
0.0
  0
SEQEND
  5
12A9
  8
0
  6
CONTINUOUS
  0
ENDBLK
  5
12AB
  8
0
  0
BLOCK
  8
0
  2
*U25
 70
     1
 10
0.0
 20
0.0
 30
0.0
  3
*U25
  1

  0
TEXT
  5
12AD
  8
0
  6
CONTINUOUS
 10
260.2899045020464
 20
-414.0816702361949
 30
0.0
 40
20.0
  1
EPDM
  7
$0$TEXT_NOTE
  0
TEXT
  5
12AE
  8
0
  6
CONTINUOUS
 10
262.4181446111869
 20
-447.41500356952832
 30
0.0
 40
20.0
  1
washer
  7
$0$TEXT_NOTE
  0
ENDBLK
  5
12B0
  8
0
  0
BLOCK
  8
0
  2
*U26
 70
     1
 10
0.0
 20
0.0
 30
0.0
  3
*U26
  1

  0
TEXT
  5
12CF
  8
0
  6
CONTINUOUS
 62
     6
 10
97.919849931788363
 20
131.92643997791609
 30
0.0
 40
3.0
  1
Cross Section
  7
TEXT_NOTE
  0
ENDBLK
  5
12D1
  8
0
  0
BLOCK
  8
0
  2
*U27
 70
     1
 10
0.0
 20
0.0
 30
0.0
  3
*U27
  1

  0
TEXT
  5
12D3
  8
0
  6
CONTINUOUS
 62
     6
 10
102.3581173260591
 20
89.583449954204269
 30
0.0
 40
3.0
  1
Elevation
  7
TEXT_NOTE
  0
ENDBLK
  5
12D5
  8
0
  0
BLOCK
  8
0
  2
*U28
 70
     1
 10
0.0
 20
0.0
 30
0.0
  3
*U28
  1

  0
TEXT
  5
12D7
  8
0
  6
CONTINUOUS
 62
     6
 10
97.120736698500494
 20
210.16800620577209
 30
0.0
 40
3.0
  1
Isometric View
  7
TEXT_NOTE
  0
ENDBLK
  5
12D9
  8
0
  0
BLOCK
  8
0
  2
*U29
 70
     1
 10
0.0
 20
0.0
 30
0.0
  3
*U29
  1

  0
SOLID
  5
1358
  8
0
  6
CONTINUOUS
 10
460.94532591233622
 20
-261.10268811065322
 30
0.0
 11
460.94532591233622
 21
-266.10268811065322
 31
0.0
 12
490.9453259123361
 22
-266.10268811065322
 32
0.0
 13
490.9453259123361
 23
-266.10268811065322
 33
0.0
210
0.0
220
0.0
230
1.0
  0
SOLID
  5
1359
  8
0
  6
CONTINUOUS
 10
-460.94532591233622
 20
-261.10268811065322
 30
0.0
 11
-490.9453259123361
 21
-261.10268811065322
 31
0.0
 12
-490.9453259123361
 22
-266.10268811065322
 32
0.0
 13
-490.9453259123361
 23
-266.10268811065322
 33
0.0
210
0.0
220
0.0
230
-1.0
  0
LINE
  5
135A
  8
0
  6
CONTINUOUS
 10
460.94532591233622
 20
-261.10268811065322
 30
0.0
 11
460.94532591233622
 21
-266.10268811065322
 31
0.0
  0
LINE
  5
135B
  8
0
  6
CONTINUOUS
 10
490.9453259123361
 20
-261.10268811065322
 30
0.0
 11
490.9453259123361
 21
-266.10268811065322
 31
0.0
  0
ENDBLK
  5
135D
  8
0
  0
BLOCK
  8
0
  2
*U30
 70
     1
 10
0.0
 20
0.0
 30
0.0
  3
*U30
  1

  0
SOLID
  5
136D
  8
0
  6
CONTINUOUS
 10
234.6681847264023
 20
-261.27063730308521
 30
0.0
 11
234.6681847264023
 21
-266.27063730308521
 31
0.0
 12
264.66818472640227
 22
-266.27063730308521
 32
0.0
 13
264.66818472640227
 23
-266.27063730308521
 33
0.0
210
0.0
220
0.0
230
1.0
  0
SOLID
  5
136E
  8
0
  6
CONTINUOUS
 10
-234.6681847264023
 20
-261.27063730308521
 30
0.0
 11
-264.66818472640227
 21
-261.27063730308521
 31
0.0
 12
-264.66818472640227
 22
-266.27063730308521
 32
0.0
 13
-264.66818472640227
 23
-266.27063730308521
 33
0.0
210
0.0
220
0.0
230
-1.0
  0
LINE
  5
136F
  8
0
  6
CONTINUOUS
 10
234.6681847264023
 20
-261.27063730308521
 30
0.0
 11
234.6681847264023
 21
-266.27063730308521
 31
0.0
  0
LINE
  5
1370
  8
0
  6
CONTINUOUS
 10
264.66818472640227
 20
-261.27063730308521
 30
0.0
 11
264.66818472640227
 21
-266.27063730308521
 31
0.0
  0
ENDBLK
  5
1372
  8
0
  0
BLOCK
  8
0
  2
*U31
 70
     1
 10
0.0
 20
0.0
 30
0.0
  3
*U31
  1

  0
SOLID
  5
1382
  8
0
  6
CONTINUOUS
 10
-444.24466238920178
 20
-260.8706373030841
 30
0.0
 11
-444.24466238920178
 21
-265.8706373030841
 31
0.0
 12
-414.24466238920178
 22
-265.8706373030841
 32
0.0
 13
-414.24466238920178
 23
-265.8706373030841
 33
0.0
210
0.0
220
0.0
230
1.0
  0
SOLID
  5
1383
  8
0
  6
CONTINUOUS
 10
444.24466238920178
 20
-260.8706373030841
 30
0.0
 11
414.24466238920178
 21
-260.8706373030841
 31
0.0
 12
414.24466238920178
 22
-265.8706373030841
 32
0.0
 13
414.24466238920178
 23
-265.8706373030841
 33
0.0
210
0.0
220
0.0
230
-1.0
  0
LINE
  5
1384
  8
0
  6
CONTINUOUS
 10
-444.24466238920178
 20
-260.8706373030841
 30
0.0
 11
-444.24466238920178
 21
-265.8706373030841
 31
0.0
  0
LINE
  5
1385
  8
0
  6
CONTINUOUS
 10
-414.24466238920178
 20
-260.8706373030841
 30
0.0
 11
-414.24466238920178
 21
-265.8706373030841
 31
0.0
  0
ENDBLK
  5
1387
  8
0
  0
BLOCK
  8
0
  2
*U32
 70
     1
 10
0.0
 20
0.0
 30
0.0
  3
*U32
  1

  0
SOLID
  5
1397
  8
0
  6
CONTINUOUS
 10
-217.94038001733571
 20
-260.8706373030841
 30
0.0
 11
-217.94038001733571
 21
-265.8706373030841
 31
0.0
 12
-187.94038001733571
 22
-265.8706373030841
 32
0.0
 13
-187.94038001733571
 23
-265.8706373030841
 33
0.0
210
0.0
220
0.0
230
1.0
  0
SOLID
  5
1398
  8
0
  6
CONTINUOUS
 10
217.94038001733571
 20
-260.8706373030841
 30
0.0
 11
187.94038001733571
 21
-260.8706373030841
 31
0.0
 12
187.94038001733571
 22
-265.8706373030841
 32
0.0
 13
187.94038001733571
 23
-265.8706373030841
 33
0.0
210
0.0
220
0.0
230
-1.0
  0
LINE
  5
1399
  8
0
  6
CONTINUOUS
 10
-217.94038001733571
 20
-260.8706373030841
 30
0.0
 11
-217.94038001733571
 21
-265.8706373030841
 31
0.0
  0
LINE
  5
139A
  8
0
  6
CONTINUOUS
 10
-187.94038001733571
 20
-260.8706373030841
 30
0.0
 11
-187.94038001733571
 21
-265.8706373030841
 31
0.0
  0
ENDBLK
  5
139C
  8
0
  0
BLOCK
  8
0
  2
*U33
 70
     1
 10
0.0
 20
0.0
 30
0.0
  3
*U33
  1

  0
TEXT
  5
1471
  8
0
  6
CONTINUOUS
 10
-129.8972840987941
 20
133.9483294467459
 30
0.0
 40
20.0
  1
UB rafter
 50
0.0000000000003729
  7
COMM-10_TRANSSHT_MIDSPAN$0
  0
ENDBLK
  5
1473
  8
0
  0
BLOCK
  8
0
  2
*U34
 70
     1
 10
0.0
 20
0.0
 30
0.0
  3
*U34
  1

  0
TEXT
  5
1515
  8
0
  6
CONTINUOUS
 10
-41.29754974862049
 20
-554.54699907194617
 30
0.0
 40
25.0
  1
Sheet
  7
COMM-10_TRANSSHT_MIDSPAN$0
  0
TEXT
  5
1516
  8
0
  6
CONTINUOUS
 10
-49.440455614923358
 20
-596.21366573861292
 30
0.0
 40
25.0
  1
Weight
  7
COMM-10_TRANSSHT_MIDSPAN$0
  0
TEXT
  5
1517
  8
0
  6
CONTINUOUS
 10
-29.36883214971191
 20
-638.30666255534766
 30
0.0
 40
25.0
  1
gr/m
  7
COMM-10_TRANSSHT_MIDSPAN$0
  0
ENDBLK
  5
1519
  8
0
  0
BLOCK
  8
0
  2
*U35
 70
     1
 10
0.0
 20
0.0
 30
0.0
  3
*U35
  1

  0
TEXT
  5
151B
  8
0
  6
CONTINUOUS
 10
-222.61937244201181
 20
-596.13848825421599
 30
0.0
 40
25.0
  1
Profile
  7
COMM-10_TRANSSHT_MIDSPAN$0
  0
ENDBLK
  5
151D
  8
0
  0
BLOCK
  8
0
  2
*U36
 70
     1
 10
0.0
 20
0.0
 30
0.0
  3
*U36
  1

  0
TEXT
  5
151F
  8
0
  6
CONTINUOUS
 10
126.6558663028722
 20
-571.61313582129185
 30
0.0
 40
25.0
  1
Maximum
  7
COMM-10_TRANSSHT_MIDSPAN$0
  0
TEXT
  5
1520
  8
0
  6
CONTINUOUS
 10
162.1350613915489
 20
-613.70613263802682
 30
0.0
 40
25.0
  1
Span
  7
COMM-10_TRANSSHT_MIDSPAN$0
  0
ENDBLK
  5
1522
  8
0
  0
BLOCK
  8
0
  2
*U37
 70
     1
 10
0.0
 20
0.0
 30
0.0
  3
*U37
  1

  0
TEXT
  5
1524
  8
0
  6
CONTINUOUS
 10
377.80354706684858
 20
-648.07780484283523
 30
0.0
 40
20.0
  1
Use mid span support when
  7
COMM-10_TRANSSHT_MIDSPAN$0
  0
TEXT
  5
1525
  8
0
  6
CONTINUOUS
 10
379.14051841746249
 20
-681.41113817616849
 30
0.0
 40
20.0
  1
spans exceed maximum span,
  7
COMM-10_TRANSSHT_MIDSPAN$0
  0
TEXT
  5
1526
  8
0
  6
CONTINUOUS
 10
379.07230559345157
 20
-715.0855356295566
 30
0.0
 40
20.0
  1
or specify heavier weight GRP
  7
COMM-10_TRANSSHT_MIDSPAN$0
  0
TEXT
  5
1527
  8
0
  6
CONTINUOUS
 10
379.14051841746249
 20
-748.41886896288975
 30
0.0
 40
20.0
  1
sheet.
  7
COMM-10_TRANSSHT_MIDSPAN$0
  0
ENDBLK
  5
1529
  8
0
  0
BLOCK
  8
0
  2
*U38
 70
     1
 10
0.0
 20
0.0
 30
0.0
  3
*U38
  1

  0
SOLID
  5
152B
  8
0
  6
CONTINUOUS
 10
-554.75491715307544
 20
581.71287105087913
 30
0.0
 11
-554.75491715307544
 21
576.71287105087913
 31
0.0
 12
-524.75491715307544
 22
576.71287105087913
 32
0.0
 13
-524.75491715307544
 23
576.71287105087913
 33
0.0
210
0.0
220
0.0
230
1.0
  0
SOLID
  5
152C
  8
0
  6
CONTINUOUS
 10
554.75491715307544
 20
581.71287105087913
 30
0.0
 11
524.75491715307544
 21
581.71287105087913
 31
0.0
 12
524.75491715307544
 22
576.71287105087913
 32
0.0
 13
524.75491715307544
 23
576.71287105087913
 33
0.0
210
0.0
220
0.0
230
-1.0
  0
LINE
  5
152D
  8
0
  6
CONTINUOUS
 10
-554.75491715307544
 20
581.71287105087913
 30
0.0
 11
-554.75491715307544
 21
576.71287105087913
 31
0.0
  0
LINE
  5
152E
  8
0
  6
CONTINUOUS
 10
-524.75491715307544
 20
581.71287105087913
 30
0.0
 11
-524.75491715307544
 21
576.71287105087913
 31
0.0
  0
ENDBLK
  5
1530
  8
0
  0
BLOCK
  8
0
  2
*U39
 70
     1
 10
0.0
 20
0.0
 30
0.0
  3
*U39
  1

  0
SOLID
  5
1537
  8
0
  6
CONTINUOUS
 10
-15.00000000000364
 20
581.71287105087913
 30
0.0
 11
-15.00000000000364
 21
576.71287105087913
 31
0.0
 12
14.99999999999636
 22
576.71287105087913
 32
0.0
 13
14.99999999999636
 23
576.71287105087913
 33
0.0
210
0.0
220
0.0
230
1.0
  0
SOLID
  5
1538
  8
0
  6
CONTINUOUS
 10
15.00000000000364
 20
581.71287105087913
 30
0.0
 11
-14.99999999999636
 21
581.71287105087913
 31
0.0
 12
-14.99999999999636
 22
576.71287105087913
 32
0.0
 13
-14.99999999999636
 23
576.71287105087913
 33
0.0
210
0.0
220
0.0
230
-1.0
  0
LINE
  5
1539
  8
0
  6
CONTINUOUS
 10
-15.00000000000364
 20
581.71287105087913
 30
0.0
 11
-15.00000000000364
 21
576.71287105087913
 31
0.0
  0
LINE
  5
153A
  8
0
  6
CONTINUOUS
 10
14.99999999999636
 20
581.71287105087913
 30
0.0
 11
14.99999999999636
 21
576.71287105087913
 31
0.0
  0
ENDBLK
  5
153C
  8
0
  0
BLOCK
  8
0
  2
*U40
 70
     1
 10
0.0
 20
0.0
 30
0.0
  3
*U40
  1

  0
SOLID
  5
1543
  8
0
  6
CONTINUOUS
 10
451.2450828469191
 20
581.71287105087913
 30
0.0
 11
451.2450828469191
 21
576.71287105087913
 31
0.0
 12
481.2450828469191
 22
576.71287105087913
 32
0.0
 13
481.2450828469191
 23
576.71287105087913
 33
0.0
210
0.0
220
0.0
230
1.0
  0
SOLID
  5
1544
  8
0
  6
CONTINUOUS
 10
-451.2450828469191
 20
581.71287105087913
 30
0.0
 11
-481.2450828469191
 21
581.71287105087913
 31
0.0
 12
-481.2450828469191
 22
576.71287105087913
 32
0.0
 13
-481.2450828469191
 23
576.71287105087913
 33
0.0
210
0.0
220
0.0
230
-1.0
  0
LINE
  5
1545
  8
0
  6
CONTINUOUS
 10
451.2450828469191
 20
581.71287105087913
 30
0.0
 11
451.2450828469191
 21
576.71287105087913
 31
0.0
  0
LINE
  5
1546
  8
0
  6
CONTINUOUS
 10
481.2450828469191
 20
581.71287105087913
 30
0.0
 11
481.2450828469191
 21
576.71287105087913
 31
0.0
  0
ENDBLK
  5
1548
  8
0
  0
BLOCK
  8
0
  2
*U41
 70
     1
 10
0.0
 20
0.0
 30
0.0
  3
*U41
  1

  0
SOLID
  5
154F
  8
0
  6
CONTINUOUS
 10
505.75115053245582
 20
601.11216433380309
 30
0.0
 11
492.5429240831599
 21
585.72860605961841
 31
0.0
 12
500.0479302030285
 22
604.56436976199711
 32
0.0
 13
500.0479302030285
 23
604.56436976199711
 33
0.0
  0
POLYLINE
  5
1550
  8
0
  6
CONTINUOUS
 66
     1
 10
0.0
 20
0.0
 30
0.0
  0
VERTEX
  5
1551
  8
0
  6
CONTINUOUS
 10
502.89954036774208
 20
602.83826704789999
 30
0.0
  0
VERTEX
  5
1552
  8
0
  6
CONTINUOUS
 10
537.5
 20
660.0
 30
0.0
  0
VERTEX
  5
1553
  8
0
  6
CONTINUOUS
 10
557.5
 20
660.0
 30
0.0
  0
SEQEND
  5
1554
  8
0
  6
CONTINUOUS
  0
ENDBLK
  5
1556
  8
0
  0
BLOCK
  8
0
  2
*U42
 70
     1
 10
0.0
 20
0.0
 30
0.0
  3
*U42
  1

  0
TEXT
  5
1558
  8
0
  6
CONTINUOUS
 10
565.34447476125513
 20
666.65984538426551
 30
0.0
 40
20.0
  1
Profiled
  7
COMM-10_TRANSSHT_MIDSPAN$0
  0
TEXT
  5
1559
  8
0
  6
CONTINUOUS
 10
567.4181446111869
 20
633.32651205093225
 30
0.0
 40
20.0
  1
washer
  7
COMM-10_TRANSSHT_MIDSPAN$0
  0
ENDBLK
  5
155B
  8
0
  0
BLOCK
  8
0
  2
*U43
 70
     1
 10
0.0
 20
0.0
 30
0.0
  3
*U43
  1

  0
SOLID
  5
155D
  8
0
  6
CONTINUOUS
 10
437.79734022098938
 20
562.03780437988485
 30
0.0
 11
452.5
 21
575.99999999997908
 31
0.0
 12
443.12035824799352
 22
558.02408745804871
 32
0.0
 13
443.12035824799352
 23
558.02408745804871
 33
0.0
  0
POLYLINE
  5
155E
  8
0
  6
CONTINUOUS
 66
     1
 10
0.0
 20
0.0
 30
0.0
  0
VERTEX
  5
155F
  8
0
  6
CONTINUOUS
 10
440.45884923449142
 20
560.03094591896684
 30
0.0
  0
VERTEX
  5
1560
  8
0
  6
CONTINUOUS
 10
370.0
 20
466.58795231951223
 30
0.0
  0
VERTEX
  5
1561
  8
0
  6
CONTINUOUS
 10
350.0
 20
466.58795231951223
 30
0.0
  0
SEQEND
  5
1562
  8
0
  6
CONTINUOUS
  0
ENDBLK
  5
1564
  8
0
  0
BLOCK
  8
0
  2
*U44
 70
     1
 10
0.0
 20
0.0
 30
0.0
  3
*U44
  1

  0
TEXT
  5
1566
  8
0
  6
CONTINUOUS
 10
161.0641200545702
 20
456.75166309713831
 30
0.0
 40
20.0
  1
EPDM washer
  7
COMM-10_TRANSSHT_MIDSPAN$0
  0
ENDBLK
  5
1568
  8
0
  0
BLOCK
  8
0
  2
*X45
 70
     1
 10
0.0
 20
0.0
 30
0.0
  3
*X45
  1

  0
LINE
  5
156A
  8
0
  6
CONTINUOUS
 62
     0
 10
-506.63325984529729
 20
520.9999999999427
 30
0.0
 11
-505.2549171530348
 21
522.37834269220525
 31
0.0
  0
LINE
  5
156B
  8
0
  6
CONTINUOUS
 62
     0
 10
-508.0474734076704
 20
520.9999999999427
 30
0.0
 11
-505.2549171530348
 21
523.79255625457824
 31
0.0
  0
LINE
  5
156C
  8
0
  6
CONTINUOUS
 62
     0
 10
-509.4616869700435
 20
520.9999999999427
 30
0.0
 11
-506.46168697010449
 21
523.99999999988177
 31
0.0
  0
LINE
  5
156D
  8
0
  6
CONTINUOUS
 62
     0
 10
-510.87590053241661
 20
520.9999999999427
 30
0.0
 11
-507.87590053247749
 21
523.99999999988177
 31
0.0
  0
LINE
  5
156E
  8
0
  6
CONTINUOUS
 62
     0
 10
-512.29011409478971
 20
520.9999999999427
 30
0.0
 11
-509.29011409485071
 21
523.99999999988177
 31
0.0
  0
LINE
  5
156F
  8
0
  6
CONTINUOUS
 62
     0
 10
-513.70432765716282
 20
520.9999999999427
 30
0.0
 11
-510.7043276572237
 21
523.99999999988177
 31
0.0
  0
LINE
  5
1570
  8
0
  6
CONTINUOUS
 62
     0
 10
-515.11854121953593
 20
520.9999999999427
 30
0.0
 11
-512.11854121959686
 21
523.99999999988165
 31
0.0
  0
LINE
  5
1571
  8
0
  6
CONTINUOUS
 62
     0
 10
-516.53275478190903
 20
520.9999999999427
 30
0.0
 11
-513.53275478196997
 21
523.99999999988165
 31
0.0
  0
LINE
  5
1572
  8
0
  6
CONTINUOUS
 62
     0
 10
-517.94696834428214
 20
520.9999999999427
 30
0.0
 11
-514.94696834434296
 21
523.99999999988177
 31
0.0
  0
LINE
  5
1573
  8
0
  6
CONTINUOUS
 62
     0
 10
-519.36118190665525
 20
520.9999999999427
 30
0.0
 11
-516.36118190671618
 21
523.99999999988177
 31
0.0
  0
LINE
  5
1574
  8
0
  6
CONTINUOUS
 62
     0
 10
-520.77539546902835
 20
520.9999999999427
 30
0.0
 11
-517.77539546908918
 21
523.99999999988177
 31
0.0
  0
LINE
  5
1575
  8
0
  6
CONTINUOUS
 62
     0
 10
-522.18960903140146
 20
520.9999999999427
 30
0.0
 11
-519.1896090314624
 21
523.99999999988177
 31
0.0
  0
LINE
  5
1576
  8
0
  6
CONTINUOUS
 62
     0
 10
-523.60382259377445
 20
520.9999999999427
 30
0.0
 11
-520.60382259383528
 21
523.99999999988177
 31
0.0
  0
LINE
  5
1577
  8
0
  6
CONTINUOUS
 62
     0
 10
-525.01803615614745
 20
520.9999999999427
 30
0.0
 11
-522.0180361562085
 21
523.99999999988177
 31
0.0
  0
LINE
  5
1578
  8
0
  6
CONTINUOUS
 62
     0
 10
-526.43224971852055
 20
520.9999999999427
 30
0.0
 11
-523.43224971858149
 21
523.99999999988177
 31
0.0
  0
LINE
  5
1579
  8
0
  6
CONTINUOUS
 62
     0
 10
-527.84646328089377
 20
520.9999999999427
 30
0.0
 11
-524.84646328095471
 21
523.99999999988177
 31
0.0
  0
LINE
  5
157A
  8
0
  6
CONTINUOUS
 62
     0
 10
-529.26067684326676
 20
520.9999999999427
 30
0.0
 11
-526.26067684332781
 21
523.99999999988177
 31
0.0
  0
LINE
  5
157B
  8
0
  6
CONTINUOUS
 62
     0
 10
-530.67489040563999
 20
520.9999999999427
 30
0.0
 11
-527.67489040570092
 21
523.99999999988177
 31
0.0
  0
LINE
  5
157C
  8
0
  6
CONTINUOUS
 62
     0
 10
-532.08910396801298
 20
520.9999999999427
 30
0.0
 11
-529.08910396807403
 21
523.99999999988177
 31
0.0
  0
LINE
  5
157D
  8
0
  6
CONTINUOUS
 62
     0
 10
-533.50331753038608
 20
520.9999999999427
 30
0.0
 11
-530.50331753044713
 21
523.99999999988177
 31
0.0
  0
LINE
  5
157E
  8
0
  6
CONTINUOUS
 62
     0
 10
-534.91753109275908
 20
520.9999999999427
 30
0.0
 11
-531.91753109282001
 21
523.99999999988177
 31
0.0
  0
LINE
  5
157F
  8
0
  6
CONTINUOUS
 62
     0
 10
-536.3317446551323
 20
520.9999999999427
 30
0.0
 11
-533.33174465519323
 21
523.99999999988177
 31
0.0
  0
LINE
  5
1580
  8
0
  6
CONTINUOUS
 62
     0
 10
-537.74595821750529
 20
520.9999999999427
 30
0.0
 11
-534.74595821756634
 21
523.99999999988177
 31
0.0
  0
LINE
  5
1581
  8
0
  6
CONTINUOUS
 62
     0
 10
-539.16017177987851
 20
520.9999999999427
 30
0.0
 11
-536.16017177993945
 21
523.99999999988177
 31
0.0
  0
LINE
  5
1582
  8
0
  6
CONTINUOUS
 62
     0
 10
-540.5743853422515
 20
520.9999999999427
 30
0.0
 11
-537.57438534231255
 21
523.99999999988177
 31
0.0
  0
LINE
  5
1583
  8
0
  6
CONTINUOUS
 62
     0
 10
-541.98859890462472
 20
520.9999999999427
 30
0.0
 11
-538.98859890468577
 21
523.99999999988177
 31
0.0
  0
LINE
  5
1584
  8
0
  6
CONTINUOUS
 62
     0
 10
-543.40281246699772
 20
520.9999999999427
 30
0.0
 11
-540.40281246705865
 21
523.99999999988177
 31
0.0
  0
LINE
  5
1585
  8
0
  6
CONTINUOUS
 62
     0
 10
-544.81702602937094
 20
520.9999999999427
 30
0.0
 11
-541.81702602943176
 21
523.99999999988177
 31
0.0
  0
LINE
  5
1586
  8
0
  6
CONTINUOUS
 62
     0
 10
-546.23123959174404
 20
520.9999999999427
 30
0.0
 11
-543.23123959180487
 21
523.99999999988177
 31
0.0
  0
LINE
  5
1587
  8
0
  6
CONTINUOUS
 62
     0
 10
-547.64545315411715
 20
520.9999999999427
 30
0.0
 11
-544.64545315417809
 21
523.99999999988177
 31
0.0
  0
LINE
  5
1588
  8
0
  6
CONTINUOUS
 62
     0
 10
-549.05966671649026
 20
520.9999999999427
 30
0.0
 11
-546.05966671655108
 21
523.99999999988177
 31
0.0
  0
LINE
  5
1589
  8
0
  6
CONTINUOUS
 62
     0
 10
-550.47388027886325
 20
520.9999999999427
 30
0.0
 11
-547.4738802789243
 21
523.99999999988177
 31
0.0
  0
LINE
  5
158A
  8
0
  6
CONTINUOUS
 62
     0
 10
-551.88809384123635
 20
520.9999999999427
 30
0.0
 11
-548.88809384129729
 21
523.99999999988177
 31
0.0
  0
LINE
  5
158B
  8
0
  6
CONTINUOUS
 62
     0
 10
-553.30230740360935
 20
520.9999999999427
 30
0.0
 11
-550.30230740367028
 21
523.99999999988177
 31
0.0
  0
LINE
  5
158C
  8
0
  6
CONTINUOUS
 62
     0
 10
-554.71652096598257
 20
520.9999999999427
 30
0.0
 11
-551.7165209660435
 21
523.99999999988177
 31
0.0
  0
LINE
  5
158D
  8
0
  6
CONTINUOUS
 62
     0
 10
-556.13073452835556
 20
520.9999999999427
 30
0.0
 11
-553.13073452841661
 21
523.99999999988177
 31
0.0
  0
LINE
  5
158E
  8
0
  6
CONTINUOUS
 62
     0
 10
-557.54494809072878
 20
520.9999999999427
 30
0.0
 11
-554.54494809078972
 21
523.99999999988177
 31
0.0
  0
LINE
  5
158F
  8
0
  6
CONTINUOUS
 62
     0
 10
-558.95916165310177
 20
520.9999999999427
 30
0.0
 11
-555.95916165316282
 21
523.99999999988177
 31
0.0
  0
LINE
  5
1590
  8
0
  6
CONTINUOUS
 62
     0
 10
-560.37337521547488
 20
520.9999999999427
 30
0.0
 11
-557.37337521553593
 21
523.99999999988177
 31
0.0
  0
LINE
  5
1591
  8
0
  6
CONTINUOUS
 62
     0
 10
-561.78758877784787
 20
520.9999999999427
 30
0.0
 11
-558.78758877790904
 21
523.99999999988177
 31
0.0
  0
LINE
  5
1592
  8
0
  6
CONTINUOUS
 62
     0
 10
-563.20180234022109
 20
520.9999999999427
 30
0.0
 11
-560.20180234028203
 21
523.99999999988177
 31
0.0
  0
LINE
  5
1593
  8
0
  6
CONTINUOUS
 62
     0
 10
-564.61601590259409
 20
520.9999999999427
 30
0.0
 11
-561.61601590265514
 21
523.99999999988177
 31
0.0
  0
LINE
  5
1594
  8
0
  6
CONTINUOUS
 62
     0
 10
-566.03022946496731
 20
520.9999999999427
 30
0.0
 11
-563.03022946502824
 21
523.99999999988177
 31
0.0
  0
LINE
  5
1595
  8
0
  6
CONTINUOUS
 62
     0
 10
-567.4444430273403
 20
520.9999999999427
 30
0.0
 11
-564.44444302740135
 21
523.99999999988177
 31
0.0
  0
LINE
  5
1596
  8
0
  6
CONTINUOUS
 62
     0
 10
-568.85865658971352
 20
520.9999999999427
 30
0.0
 11
-565.85865658977457
 21
523.99999999988177
 31
0.0
  0
LINE
  5
1597
  8
0
  6
CONTINUOUS
 62
     0
 10
-570.27287015208663
 20
520.9999999999427
 30
0.0
 11
-567.27287015214756
 21
523.99999999988177
 31
0.0
  0
LINE
  5
1598
  8
0
  6
CONTINUOUS
 62
     0
 10
-571.68708371445973
 20
520.9999999999427
 30
0.0
 11
-568.68708371452078
 21
523.99999999988177
 31
0.0
  0
LINE
  5
1599
  8
0
  6
CONTINUOUS
 62
     0
 10
-573.10129727683284
 20
520.9999999999427
 30
0.0
 11
-570.10129727689366
 21
523.99999999988177
 31
0.0
  0
LINE
  5
159A
  8
0
  6
CONTINUOUS
 62
     0
 10
-574.25491715303178
 20
521.26059368611686
 30
0.0
 11
-571.51551083926688
 21
523.99999999988177
 31
0.0
  0
LINE
  5
159B
  8
0
  6
CONTINUOUS
 62
     0
 10
-574.25491715303178
 20
522.67480724848986
 30
0.0
 11
-572.92972440163987
 21
523.99999999988177
 31
0.0
  0
ENDBLK
  5
159D
  8
0
  0
BLOCK
  8
0
  2
*X46
 70
     1
 10
0.0
 20
0.0
 30
0.0
  3
*X46
  1

  0
LINE
  5
15A4
  8
0
  6
CONTINUOUS
 62
     0
 10
499.3667401546972
 20
520.9999999999427
 30
0.0
 11
500.74508284695952
 21
522.37834269220514
 31
0.0
  0
LINE
  5
15A5
  8
0
  6
CONTINUOUS
 62
     0
 10
497.9525265923242
 20
520.9999999999427
 30
0.0
 11
500.74508284695958
 21
523.79255625457824
 31
0.0
  0
LINE
  5
15A6
  8
0
  6
CONTINUOUS
 62
     0
 10
496.5383130299511
 20
520.99999999994293
 30
0.0
 11
499.53831302988999
 21
523.99999999988177
 31
0.0
  0
LINE
  5
15A7
  8
0
  6
CONTINUOUS
 62
     0
 10
495.12409946757799
 20
520.99999999994293
 30
0.0
 11
498.124099467517
 21
523.99999999988177
 31
0.0
  0
LINE
  5
15A8
  8
0
  6
CONTINUOUS
 62
     0
 10
493.70988590520489
 20
520.99999999994293
 30
0.0
 11
496.70988590514389
 21
523.99999999988177
 31
0.0
  0
LINE
  5
15A9
  8
0
  6
CONTINUOUS
 62
     0
 10
492.29567234283178
 20
520.99999999994293
 30
0.0
 11
495.29567234277079
 21
523.99999999988177
 31
0.0
  0
LINE
  5
15AA
  8
0
  6
CONTINUOUS
 62
     0
 10
490.88145878045862
 20
520.9999999999427
 30
0.0
 11
493.88145878039762
 21
523.99999999988177
 31
0.0
  0
LINE
  5
15AB
  8
0
  6
CONTINUOUS
 62
     0
 10
489.46724521808551
 20
520.9999999999427
 30
0.0
 11
492.46724521802452
 21
523.99999999988177
 31
0.0
  0
LINE
  5
15AC
  8
0
  6
CONTINUOUS
 62
     0
 10
488.0530316557124
 20
520.9999999999427
 30
0.0
 11
491.05303165565141
 21
523.99999999988177
 31
0.0
  0
LINE
  5
15AD
  8
0
  6
CONTINUOUS
 62
     0
 10
486.63881809333941
 20
520.9999999999427
 30
0.0
 11
489.63881809327842
 21
523.99999999988177
 31
0.0
  0
LINE
  5
15AE
  8
0
  6
CONTINUOUS
 62
     0
 10
485.22460453096619
 20
520.9999999999427
 30
0.0
 11
488.2246045309052
 21
523.99999999988177
 31
0.0
  0
LINE
  5
15AF
  8
0
  6
CONTINUOUS
 62
     0
 10
483.8103909685932
 20
520.9999999999427
 30
0.0
 11
486.8103909685322
 21
523.99999999988177
 31
0.0
  0
LINE
  5
15B0
  8
0
  6
CONTINUOUS
 62
     0
 10
482.3961774062202
 20
520.9999999999427
 30
0.0
 11
485.39617740615921
 21
523.99999999988177
 31
0.0
  0
LINE
  5
15B1
  8
0
  6
CONTINUOUS
 62
     0
 10
480.9819638438471
 20
520.9999999999427
 30
0.0
 11
483.9819638437861
 21
523.99999999988177
 31
0.0
  0
LINE
  5
15B2
  8
0
  6
CONTINUOUS
 62
     0
 10
479.56775028147399
 20
520.9999999999427
 30
0.0
 11
482.56775028141288
 21
523.99999999988177
 31
0.0
  0
LINE
  5
15B3
  8
0
  6
CONTINUOUS
 62
     0
 10
478.15353671910088
 20
520.9999999999427
 30
0.0
 11
481.15353671903989
 21
523.99999999988177
 31
0.0
  0
LINE
  5
15B4
  8
0
  6
CONTINUOUS
 62
     0
 10
476.73932315672772
 20
520.9999999999427
 30
0.0
 11
479.73932315666679
 21
523.99999999988177
 31
0.0
  0
LINE
  5
15B5
  8
0
  6
CONTINUOUS
 62
     0
 10
475.32510959435461
 20
520.9999999999427
 30
0.0
 11
478.32510959429368
 21
523.99999999988177
 31
0.0
  0
LINE
  5
15B6
  8
0
  6
CONTINUOUS
 62
     0
 10
473.91089603198151
 20
520.9999999999427
 30
0.0
 11
476.91089603192057
 21
523.99999999988177
 31
0.0
  0
LINE
  5
15B7
  8
0
  6
CONTINUOUS
 62
     0
 10
472.4966824696084
 20
520.9999999999427
 30
0.0
 11
475.49668246954752
 21
523.99999999988177
 31
0.0
  0
LINE
  5
15B8
  8
0
  6
CONTINUOUS
 62
     0
 10
471.08246890723541
 20
520.9999999999427
 30
0.0
 11
474.08246890717442
 21
523.99999999988177
 31
0.0
  0
LINE
  5
15B9
  8
0
  6
CONTINUOUS
 62
     0
 10
469.66825534486219
 20
520.9999999999427
 30
0.0
 11
472.66825534480131
 21
523.99999999988177
 31
0.0
  0
LINE
  5
15BA
  8
0
  6
CONTINUOUS
 62
     0
 10
468.25404178248908
 20
520.9999999999427
 30
0.0
 11
471.2540417824282
 21
523.99999999988177
 31
0.0
  0
LINE
  5
15BB
  8
0
  6
CONTINUOUS
 62
     0
 10
466.83982822011598
 20
520.9999999999427
 30
0.0
 11
469.8398282200551
 21
523.99999999988177
 31
0.0
  0
LINE
  5
15BC
  8
0
  6
CONTINUOUS
 62
     0
 10
465.42561465774293
 20
520.9999999999427
 30
0.0
 11
468.42561465768199
 21
523.99999999988177
 31
0.0
  0
LINE
  5
15BD
  8
0
  6
CONTINUOUS
 62
     0
 10
464.01140109536982
 20
520.9999999999427
 30
0.0
 11
467.01140109530883
 21
523.99999999988177
 31
0.0
  0
LINE
  5
15BE
  8
0
  6
CONTINUOUS
 62
     0
 10
462.59718753299671
 20
520.9999999999427
 30
0.0
 11
465.59718753293572
 21
523.99999999988177
 31
0.0
  0
LINE
  5
15BF
  8
0
  6
CONTINUOUS
 62
     0
 10
461.18297397062361
 20
520.9999999999427
 30
0.0
 11
464.18297397056261
 21
523.99999999988177
 31
0.0
  0
LINE
  5
15C0
  8
0
  6
CONTINUOUS
 62
     0
 10
459.7687604082505
 20
520.9999999999427
 30
0.0
 11
462.76876040818951
 21
523.99999999988177
 31
0.0
  0
LINE
  5
15C1
  8
0
  6
CONTINUOUS
 62
     0
 10
458.35454684587739
 20
520.9999999999427
 30
0.0
 11
461.3545468458164
 21
523.99999999988177
 31
0.0
  0
LINE
  5
15C2
  8
0
  6
CONTINUOUS
 62
     0
 10
456.9403332835044
 20
520.9999999999427
 30
0.0
 11
459.94033328344329
 21
523.99999999988177
 31
0.0
  0
LINE
  5
15C3
  8
0
  6
CONTINUOUS
 62
     0
 10
455.52611972113118
 20
520.9999999999427
 30
0.0
 11
458.52611972107019
 21
523.99999999988177
 31
0.0
  0
LINE
  5
15C4
  8
0
  6
CONTINUOUS
 62
     0
 10
454.11190615875842
 20
520.9999999999427
 30
0.0
 11
457.1119061586972
 21
523.99999999988177
 31
0.0
  0
LINE
  5
15C5
  8
0
  6
CONTINUOUS
 62
     0
 10
452.6976925963852
 20
520.9999999999427
 30
0.0
 11
455.69769259632409
 21
523.99999999988177
 31
0.0
  0
LINE
  5
15C6
  8
0
  6
CONTINUOUS
 62
     0
 10
451.28347903401209
 20
520.9999999999427
 30
0.0
 11
454.28347903395098
 21
523.99999999988177
 31
0.0
  0
LINE
  5
15C7
  8
0
  6
CONTINUOUS
 62
     0
 10
449.86926547163893
 20
520.9999999999427
 30
0.0
 11
452.86926547157788
 21
523.99999999988177
 31
0.0
  0
LINE
  5
15C8
  8
0
  6
CONTINUOUS
 62
     0
 10
448.45505190926588
 20
520.9999999999427
 30
0.0
 11
451.45505190920488
 21
523.99999999988177
 31
0.0
  0
LINE
  5
15C9
  8
0
  6
CONTINUOUS
 62
     0
 10
447.04083834689271
 20
520.9999999999427
 30
0.0
 11
450.04083834683172
 21
523.99999999988177
 31
0.0
  0
LINE
  5
15CA
  8
0
  6
CONTINUOUS
 62
     0
 10
445.62662478451972
 20
520.9999999999427
 30
0.0
 11
448.62662478445873
 21
523.99999999988177
 31
0.0
  0
LINE
  5
15CB
  8
0
  6
CONTINUOUS
 62
     0
 10
444.21241122214661
 20
520.9999999999427
 30
0.0
 11
447.21241122208551
 21
523.99999999988177
 31
0.0
  0
LINE
  5
15CC
  8
0
  6
CONTINUOUS
 62
     0
 10
442.79819765977351
 20
520.9999999999427
 30
0.0
 11
445.7981976597124
 21
523.99999999988177
 31
0.0
  0
LINE
  5
15CD
  8
0
  6
CONTINUOUS
 62
     0
 10
441.3839840974004
 20
520.9999999999427
 30
0.0
 11
444.38398409733929
 21
523.99999999988177
 31
0.0
  0
LINE
  5
15CE
  8
0
  6
CONTINUOUS
 62
     0
 10
439.96977053502718
 20
520.9999999999427
 30
0.0
 11
442.9697705349663
 21
523.99999999988177
 31
0.0
  0
LINE
  5
15CF
  8
0
  6
CONTINUOUS
 62
     0
 10
438.55555697265407
 20
520.9999999999427
 30
0.0
 11
441.55555697259308
 21
523.99999999988177
 31
0.0
  0
LINE
  5
15D0
  8
0
  6
CONTINUOUS
 62
     0
 10
437.14134341028102
 20
520.9999999999427
 30
0.0
 11
440.14134341022009
 21
523.99999999988177
 31
0.0
  0
LINE
  5
15D1
  8
0
  6
CONTINUOUS
 62
     0
 10
435.72712984790792
 20
520.9999999999427
 30
0.0
 11
438.72712984784692
 21
523.99999999988177
 31
0.0
  0
LINE
  5
15D2
  8
0
  6
CONTINUOUS
 62
     0
 10
434.31291628553493
 20
520.99999999994293
 30
0.0
 11
437.31291628547388
 21
523.99999999988177
 31
0.0
  0
LINE
  5
15D3
  8
0
  6
CONTINUOUS
 62
     0
 10
432.8987027231617
 20
520.9999999999427
 30
0.0
 11
435.89870272310071
 21
523.99999999988177
 31
0.0
  0
LINE
  5
15D4
  8
0
  6
CONTINUOUS
 62
     0
 10
431.7450828469627
 20
521.26059368611686
 30
0.0
 11
434.48448916072772
 21
523.99999999988177
 31
0.0
  0
LINE
  5
15D5
  8
0
  6
CONTINUOUS
 62
     0
 10
431.74508284696282
 20
522.67480724848986
 30
0.0
 11
433.0702755983545
 21
523.99999999988177
 31
0.0
  0
ENDBLK
  5
15D7
  8
0
  0
BLOCK
  8
0
  2
*U47
 70
     1
 10
0.0
 20
0.0
 30
0.0
  3
*U47
  1

  0
SOLID
  5
15DE
  8
0
 10
-567.02804811639885
 20
544.26669875670643
 30
0.0
 11
-566.41810335559239
 21
523.99999999988177
 31
0.0
 12
-573.56806150992008
 22
542.97338160418406
 32
0.0
 13
-573.56806150992008
 23
542.97338160418406
 33
0.0
  0
POLYLINE
  5
15DF
  8
0
 66
     1
 10
0.0
 20
0.0
 30
0.0
  0
VERTEX
  5
15E0
  8
0
 10
-570.29805481315952
 20
543.62004018044524
 30
0.0
  0
VERTEX
  5
15E1
  8
0
 10
-595.2902620052181
 20
670.0
 30
0.0
  0
VERTEX
  5
15E2
  8
0
 10
-615.29026200521821
 20
670.0
 30
0.0
  0
SEQEND
  5
15E3
  8
0
  0
ENDBLK
  5
15E5
  8
0
  0
BLOCK
  8
0
  2
*U48
 70
     1
 10
0.0
 20
0.0
 30
0.0
  3
*U48
  1

  0
TEXT
  5
15E7
  8
0
  6
CONTINUOUS
 10
-767.00922517029323
 20
665.55252387448843
 30
0.0
 40
20.0
  1
Purlin Tape
  7
COMM-10_TRANSSHT_MIDSPAN$0
  0
ENDBLK
  5
15E9
  8
0
  0
ENDSEC
  0
SECTION
  2
ENTITIES
  0
INSERT
  5
647
  8
0
  6
CONTINUOUS
  2
*U12
 10
0.0
 20
0.0
 30
0.0
1001
ACAD
1000
DSTYLE
1002
{
1070
   176
1070
   256
1070
    77
1070
     0
1002
}
  0
INSERT
  5
648
  8
0
  6
CONTINUOUS
  2
*U13
 10
0.0
 20
0.0
 30
0.0
  0
INSERT
  5
64F
  8
0
  6
CONTINUOUS
  2
*U14
 10
0.0
 20
0.0
 30
0.0
1001
ACAD
1000
DSTYLE
1002
{
1070
   176
1070
   256
1070
    77
1070
     0
1002
}
  0
INSERT
  5
650
  8
0
  6
CONTINUOUS
  2
*U15
 10
0.0
 20
0.0
 30
0.0
  0
INSERT
  5
651
  8
0
  6
CONTINUOUS
  2
*U16
 10
0.0
 20
0.0
 30
0.0
1001
ACAD
1000
DSTYLE
1002
{
1070
   176
1070
   256
1070
    77
1070
     0
1002
}
  0
INSERT
  5
652
  8
0
  6
CONTINUOUS
  2
*U17
 10
0.0
 20
0.0
 30
0.0
  0
INSERT
  5
653
  8
0
  6
CONTINUOUS
  2
*U18
 10
0.0
 20
0.0
 30
0.0
1001
ACAD
1000
DSTYLE
1002
{
1070
   176
1070
   256
1070
    77
1070
     0
1002
}
  0
INSERT
  5
654
  8
0
  6
CONTINUOUS
  2
*U19
 10
0.0
 20
0.0
 30
0.0
  0
INSERT
  5
775
  8
0
  6
CONTINUOUS
  2
*U20
 10
0.0
 20
0.0
 30
0.0
1001
ACAD
1000
DSTYLE
1002
{
1070
   176
1070
   256
1070
    77
1070
     0
1002
}
  0
INSERT
  5
776
  8
0
  6
CONTINUOUS
  2
*U21
 10
0.0
 20
0.0
 30
0.0
  0
INSERT
  5
7AB
  8
0
  6
CONTINUOUS
  2
*U22
 10
0.0
 20
0.0
 30
0.0
1001
ACAD
1000
DSTYLE
1002
{
1070
   176
1070
   256
1070
    77
1070
     0
1002
}
  0
INSERT
  5
7AC
  8
0
  6
CONTINUOUS
  2
*U23
 10
0.0
 20
0.0
 30
0.0
  0
INSERT
  5
7AD
  8
0
  6
CONTINUOUS
  2
*U24
 10
0.0
 20
0.0
 30
0.0
1001
ACAD
1000
DSTYLE
1002
{
1070
   176
1070
   256
1070
    77
1070
     0
1002
}
  0
INSERT
  5
7AE
  8
0
  6
CONTINUOUS
  2
*U25
 10
0.0
 20
0.0
 30
0.0
  0
POLYLINE
  5
FC2
  8
0
 66
     1
 10
0.0
 20
0.0
 30
0.0
 70
   128
  0
VERTEX
  5
12E1
  8
0
 10
-704.99999999999977
 20
-331.53014585642973
 30
0.0
  0
VERTEX
  5
12E2
  8
0
 10
-674.22119429716508
 20
-285.83198513037809
 30
0.0
 42
-0.2224824033527424
  0
VERTEX
  5
12E3
  8
0
 10
-672.83951262123185
 20
-285.00333659181388
 30
0.0
  0
VERTEX
  5
12E4
  8
0
 10
-665.85189371723152
 20
-284.28533593171102
 30
0.0
 42
0.0897571267653338
  0
VERTEX
  5
12E5
  8
0
 10
-665.47553117851919
 20
-284.17652896627988
 30
0.0
 42
-0.2343875128359291
  0
VERTEX
  5
12E6
  8
0
 10
-645.56807597173975
 20
-284.17652896627902
 30
0.0
 42
0.0897571267652803
  0
VERTEX
  5
12E7
  8
0
 10
-645.19171343302753
 20
-284.2853359317096
 30
0.0
  0
VERTEX
  5
12E8
  8
0
 10
-638.20409452902516
 20
-285.00333659181479
 30
0.0
 42
-0.2224824033526123
  0
VERTEX
  5
12E9
  8
0
 10
-636.8224128530926
 20
-285.83198513037809
 30
0.0
  0
VERTEX
  5
12EA
  8
0
 10
-604.10160070494874
 20
-334.4134975863667
 30
0.0
 42
0.2495077831462619
  0
VERTEX
  5
12EB
  8
0
 10
-602.85747676638687
 20
-335.07555031744278
 30
0.0
  0
VERTEX
  5
12EC
  8
0
 10
-561.65666815770464
 20
-335.07555031744278
 30
0.0
 42
0.1989123673795837
  0
VERTEX
  5
12ED
  8
0
 10
-560.59600798592533
 20
-334.63621048922278
 30
0.0
  0
VERTEX
  5
12EE
  8
0
 10
-559.59184492988993
 20
-333.6320474331892
 30
0.0
 42
-0.1989123673795654
  0
VERTEX
  5
12EF
  8
0
 10
-558.24834204563592
 20
-333.07555031744459
 30
0.0
  0
VERTEX
  5
12F0
  8
0
 10
-526.49098273275445
 20
-333.07555031744278
 30
0.0
 42
-0.1989123673796428
  0
VERTEX
  5
12F1
  8
0
 10
-525.14747984849976
 20
-333.63204743318738
 30
0.0
  0
VERTEX
  5
12F2
  8
0
 10
-524.14331679246425
 20
-334.63621048922369
 30
0.0
 42
0.1989123673796432
  0
VERTEX
  5
12F3
  8
0
 10
-523.08265662068436
 20
-335.07555031744369
 30
0.0
  0
VERTEX
  5
12F4
  8
0
 10
-481.91546312901107
 20
-335.07555031744101
 30
0.0
 42
0.2567915720424152
  0
VERTEX
  5
12F5
  8
0
 10
-480.648865049861
 20
-334.37912315539279
 30
0.0
  0
VERTEX
  5
12F6
  8
0
 10
-448.0253623492473
 20
-282.95769138937112
 30
0.0
 42
-0.2567915720425269
  0
VERTEX
  5
12F7
  8
0
 10
-446.42100478232402
 20
-282.07555031744317
 30
0.0
  0
VERTEX
  5
12F8
  8
0
 10
-412.06831999606698
 20
-282.07555031744232
 30
0.0
 42
-0.2567915720425695
  0
VERTEX
  5
12F9
  8
0
 10
-410.46396242914358
 20
-282.95769138937072
 30
0.0
  0
VERTEX
  5
12FA
  8
0
 10
-377.84045972852942
 20
-334.3791231553937
 30
0.0
 42
0.2567915720425983
  0
VERTEX
  5
12FB
  8
0
 10
-376.57386164937941
 20
-335.07555031744278
 30
0.0
  0
VERTEX
  5
12FC
  8
0
 10
-372.61966238919558
 20
-335.07555031744278
 30
0.0
  0
VERTEX
  5
12FD
  8
0
 10
-372.61966238919558
 20
-335.47555031744241
 30
0.0
  0
VERTEX
  5
12FE
  8
0
 10
-376.57386164937941
 20
-335.47555031744241
 30
0.0
 42
-0.256791572042562
  0
VERTEX
  5
12FF
  8
0
 10
-378.17821921630269
 20
-334.59340924551412
 30
0.0
  0
VERTEX
  5
1300
  8
0
 10
-410.80172191691702
 20
-283.17197747949098
 30
0.0
 42
0.2567915720425635
  0
VERTEX
  5
1301
  8
0
 10
-412.06831999606698
 20
-282.47555031744241
 30
0.0
  0
VERTEX
  5
1302
  8
0
 10
-446.42100478232402
 20
-282.47555031744292
 30
0.0
 42
0.2567915720425741
  0
VERTEX
  5
1303
  8
0
 10
-447.68760286147409
 20
-283.17197747949149
 30
0.0
  0
VERTEX
  5
1304
  8
0
 10
-480.31110556208762
 20
-334.59340924551321
 30
0.0
 42
-0.2567915720424875
  0
VERTEX
  5
1305
  8
0
 10
-481.91546312901107
 20
-335.4755503174415
 30
0.0
  0
VERTEX
  5
1306
  8
0
 10
-523.08265662068436
 20
-335.47555031744332
 30
0.0
 42
-0.1989123673796276
  0
VERTEX
  5
1307
  8
0
 10
-524.42615950493882
 20
-334.91905320169872
 30
0.0
  0
VERTEX
  5
1308
  8
0
 10
-525.43032256097445
 20
-333.91489014566241
 30
0.0
 42
0.1989123673796625
  0
VERTEX
  5
1309
  8
0
 10
-526.49098273275411
 20
-333.47555031744241
 30
0.0
  0
VERTEX
  5
130A
  8
0
 10
-558.24834204563592
 20
-333.47555031744417
 30
0.0
 42
0.1989123673796235
  0
VERTEX
  5
130B
  8
0
 10
-559.30900221741547
 20
-333.91489014566417
 30
0.0
  0
VERTEX
  5
130C
  8
0
 10
-560.31316527345098
 20
-334.91905320169781
 30
0.0
 42
-0.1989123673795495
  0
VERTEX
  5
130D
  8
0
 10
-561.65666815770464
 20
-335.47555031744241
 30
0.0
  0
VERTEX
  5
130E
  8
0
 10
-602.85747676638687
 20
-335.47555031744241
 30
0.0
 42
-0.2495077831461783
  0
VERTEX
  5
130F
  8
0
 10
-604.43336708856509
 20
-334.63695019141369
 30
0.0
  0
VERTEX
  5
1310
  8
0
 10
-637.15417923670907
 20
-286.05543773542507
 30
0.0
 42
0.2224824033525889
  0
VERTEX
  5
1311
  8
0
 10
-638.24498055981383
 20
-285.40124152076942
 30
0.0
  0
VERTEX
  5
1312
  8
0
 10
-645.2325994638162
 20
-284.68324086066423
 30
0.0
 42
-0.0897571267652558
  0
VERTEX
  5
1313
  8
0
 10
-645.7458211075143
 20
-284.53486772598632
 30
0.0
 42
0.2343875128359301
  0
VERTEX
  5
1314
  8
0
 10
-665.29778604274429
 20
-284.53486772598723
 30
0.0
 42
-0.0897571267652951
  0
VERTEX
  5
1315
  8
0
 10
-665.81100768644262
 20
-284.68324086066559
 30
0.0
  0
VERTEX
  5
1316
  8
0
 10
-672.7986265904434
 20
-285.40124152076851
 30
0.0
 42
0.2224824033526973
  0
VERTEX
  5
1317
  8
0
 10
-673.8894279135485
 20
-286.05543773542422
 30
0.0
  0
VERTEX
  5
1318
  8
0
 10
-705.0
 20
-332.24618136636047
 30
0.0
  0
SEQEND
  5
1319
  8
0
  0
POLYLINE
  5
FC3
  8
0
 66
     1
 10
0.0
 20
0.0
 30
0.0
 70
   128
  0
VERTEX
  5
131A
  8
0
 10
705.0
 20
-282.4161005487133
 30
0.0
 42
0.1475082771284841
  0
VERTEX
  5
131B
  8
0
 10
692.47362581658729
 20
-284.53486772598632
 30
0.0
 42
-0.0897571267653096
  0
VERTEX
  5
131C
  8
0
 10
691.96040417288907
 20
-284.68324086066423
 30
0.0
  0
VERTEX
  5
131D
  8
0
 10
684.97278526888942
 20
-285.40124152076709
 30
0.0
 42
0.2224824033526181
  0
VERTEX
  5
131E
  8
0
 10
683.88198394578444
 20
-286.05543773542291
 30
0.0
  0
VERTEX
  5
131F
  8
0
 10
651.16117179764115
 20
-334.63695019141278
 30
0.0
 42
-0.2495077831461954
  0
VERTEX
  5
1320
  8
0
 10
649.58528147546269
 20
-335.47555031744241
 30
0.0
  0
VERTEX
  5
1321
  8
0
 10
608.38447286678183
 20
-335.47555031744241
 30
0.0
 42
-0.1989123673795965
  0
VERTEX
  5
1322
  8
0
 10
607.0409699825276
 20
-334.91905320169781
 30
0.0
  0
VERTEX
  5
1323
  8
0
 10
606.03680692649095
 20
-333.91489014566241
 30
0.0
 42
0.1989123673796005
  0
VERTEX
  5
1324
  8
0
 10
604.97614675471141
 20
-333.47555031744241
 30
0.0
  0
VERTEX
  5
1325
  8
0
 10
573.2187874418297
 20
-333.47555031744059
 30
0.0
 42
0.1989123673798094
  0
VERTEX
  5
1326
  8
0
 10
572.15812727004936
 20
-333.9148901456615
 30
0.0
  0
VERTEX
  5
1327
  8
0
 10
571.15396421401658
 20
-334.9190532016969
 30
0.0
 42
-0.1989123673798397
  0
VERTEX
  5
1328
  8
0
 10
569.81046132976087
 20
-335.47555031744241
 30
0.0
  0
VERTEX
  5
1329
  8
0
 10
528.60965272107819
 20
-335.47555031744059
 30
0.0
 42
-0.2495077831461862
  0
VERTEX
  5
132A
  8
0
 10
527.03376239889985
 20
-334.63695019141193
 30
0.0
  0
VERTEX
  5
132B
  8
0
 10
494.31295025075508
 20
-286.05543773542382
 30
0.0
 42
0.2224824033525753
  0
VERTEX
  5
132C
  8
0
 10
493.22214892765072
 20
-285.40124152076811
 30
0.0
  0
VERTEX
  5
132D
  8
0
 10
486.23453002364857
 20
-284.68324086066332
 30
0.0
 42
-0.0897571267652497
  0
VERTEX
  5
132E
  8
0
 10
485.72130837995041
 20
-284.53486772598529
 30
0.0
 42
0.2343875128359212
  0
VERTEX
  5
132F
  8
0
 10
466.16934344472043
 20
-284.53486772598632
 30
0.0
 42
-0.08975712676531
  0
VERTEX
  5
1330
  8
0
 10
465.65612180102192
 20
-284.68324086066423
 30
0.0
  0
VERTEX
  5
1331
  8
0
 10
458.67672565957838
 20
-285.40039660506318
 30
0.0
 42
0.2319032102171757
  0
VERTEX
  5
1332
  8
0
 10
457.5567029116043
 20
-286.09970240952538
 30
0.0
  0
VERTEX
  5
1333
  8
0
 10
448.5170469918998
 20
-300.61793767450717
 30
0.0
 42
-0.2896898633028739
  0
VERTEX
  5
1334
  8
0
 10
447.07308596113552
 20
-301.31536517114228
 30
0.0
 42
0.6324555320336828
  0
VERTEX
  5
1335
  8
0
 10
445.16285900432553
 20
-304.38330543510938
 30
0.0
 42
-0.2896898633027783
  0
VERTEX
  5
1336
  8
0
 10
445.17414981748271
 20
-305.98683313645
 30
0.0
  0
VERTEX
  5
1337
  8
0
 10
444.202806140966
 20
-307.546869950249
 30
0.0
  0
VERTEX
  5
1338
  8
0
 10
443.86324737738448
 20
-307.33544656915092
 30
0.0
  0
VERTEX
  5
1339
  8
0
 10
444.83459105390108
 20
-305.77540975535197
 30
0.0
 42
0.2896898633027747
  0
VERTEX
  5
133A
  8
0
 10
444.82631112425241
 20
-304.59948944103547
 30
0.0
 42
-0.6324555320337227
  0
VERTEX
  5
133B
  8
0
 10
447.1185834724244
 20
-300.91796112427483
 30
0.0
 42
0.2896898633028729
  0
VERTEX
  5
133C
  8
0
 10
448.17748822831823
 20
-300.40651429340909
 30
0.0
  0
VERTEX
  5
133D
  8
0
 10
457.21714414802261
 20
-285.88827902842741
 30
0.0
 42
-0.2319032102171751
  0
VERTEX
  5
133E
  8
0
 10
458.63583962878988
 20
-285.0024916761086
 30
0.0
  0
VERTEX
  5
133F
  8
0
 10
465.61523577023348
 20
-284.2853359317096
 30
0.0
 42
0.0897571267653188
  0
VERTEX
  5
1340
  8
0
 10
465.99159830894541
 20
-284.17652896627902
 30
0.0
 42
-0.2343875128359212
  0
VERTEX
  5
1341
  8
0
 10
485.89905351572509
 20
-284.17652896627811
 30
0.0
 42
0.0897571267652569
  0
VERTEX
  5
1342
  8
0
 10
486.2754160544373
 20
-284.28533593170869
 30
0.0
  0
VERTEX
  5
1343
  8
0
 10
493.26303495843928
 20
-285.00333659181342
 30
0.0
 42
-0.2224824033526117
  0
VERTEX
  5
1344
  8
0
 10
494.64471663437172
 20
-285.83198513037678
 30
0.0
  0
VERTEX
  5
1345
  8
0
 10
527.36552878251632
 20
-334.41349758636488
 30
0.0
 42
0.2495077831462594
  0
VERTEX
  5
1346
  8
0
 10
528.60965272107819
 20
-335.07555031744101
 30
0.0
  0
VERTEX
  5
1347
  8
0
 10
569.81046132976098
 20
-335.07555031744278
 30
0.0
 42
0.1989123673798921
  0
VERTEX
  5
1348
  8
0
 10
570.87112150154167
 20
-334.63621048922181
 30
0.0
  0
VERTEX
  5
1349
  8
0
 10
571.87528455757479
 20
-333.63204743318647
 30
0.0
 42
-0.1989123673797549
  0
VERTEX
  5
134A
  8
0
 10
573.2187874418297
 20
-333.07555031744101
 30
0.0
  0
VERTEX
  5
134B
  8
0
 10
604.97614675471141
 20
-333.07555031744278
 30
0.0
 42
-0.1989123673795628
  0
VERTEX
  5
134C
  8
0
 10
606.3196496389653
 20
-333.63204743318738
 30
0.0
  0
VERTEX
  5
134D
  8
0
 10
607.32381269500206
 20
-334.63621048922278
 30
0.0
 42
0.1989123673796333
  0
VERTEX
  5
134E
  8
0
 10
608.38447286678183
 20
-335.07555031744278
 30
0.0
  0
VERTEX
  5
134F
  8
0
 10
649.58528147546281
 20
-335.07555031744278
 30
0.0
 42
0.2495077831462635
  0
VERTEX
  5
1350
  8
0
 10
650.82940541402468
 20
-334.41349758636761
 30
0.0
  0
VERTEX
  5
1351
  8
0
 10
683.55021756216786
 20
-285.83198513037632
 30
0.0
 42
-0.2224824033526144
  0
VERTEX
  5
1352
  8
0
 10
684.93189923810075
 20
-285.00333659181251
 30
0.0
  0
VERTEX
  5
1353
  8
0
 10
691.91951814210063
 20
-284.2853359317096
 30
0.0
 42
0.0897571267653155
  0
VERTEX
  5
1354
  8
0
 10
692.29588068081262
 20
-284.17652896627902
 30
0.0
 42
-0.1469336373120105
  0
VERTEX
  5
1355
  8
0
 10
705.00000000000011
 20
-282.01299467058419
 30
0.0
 42
-0.1469336373120105
  0
SEQEND
  5
1356
  8
0
  0
LINE
  5
FC4
  8
0
 10
474.4453259123398
 20
-239.91823392489499
 30
0.0
 11
474.4453259123361
 21
-243.01823392489541
 31
0.0
1001
ACDBBLOCKREPETAG
1070
     1
1071
        0
1005
FC4
  0
LINE
  5
FC5
  8
0
 10
477.4453259123398
 20
-239.91823392489499
 30
0.0
 11
477.4453259123398
 21
-243.01823392489541
 31
0.0
1001
ACDBBLOCKREPETAG
1070
     1
1071
        1
1005
FC5
  0
LINE
  5
FC6
  8
0
 10
486.88457591233919
 20
-250.19823392489391
 30
0.0
 11
486.88457591233919
 21
-248.14823392489279
 31
0.0
1001
ACDBBLOCKREPETAG
1070
     1
1071
        2
1005
FC6
  0
LINE
  5
FC7
  8
0
 10
465.00607591234029
 20
-250.19823392489391
 30
0.0
 11
465.00607591234029
 21
-248.14823392489461
 31
0.0
1001
ACDBBLOCKREPETAG
1070
     1
1071
        3
1005
FC7
  0
LINE
  5
FC8
  8
0
 10
486.88457591233919
 20
-248.14823392489279
 30
0.0
 11
484.43457591233857
 21
-247.44823392489391
 31
0.0
1001
ACDBBLOCKREPETAG
1070
     1
1071
        4
1005
FC8
  0
LINE
  5
FC9
  8
0
 10
474.4453259123398
 20
-239.91823392489499
 30
0.0
 11
469.57838841233712
 21
-239.9182339248932
 31
0.0
1001
ACDBBLOCKREPETAG
1070
     1
1071
        5
1005
FC9
  0
ARC
  5
FCA
  8
0
 10
475.94532591233622
 20
-255.0776089248925
 30
0.0
 40
15.15937499999999
 50
95.678633468270746
 51
106.2602047083479
1001
ACDBBLOCKREPETAG
1070
     1
1071
        6
1005
FCA
  0
ARC
  5
FCB
  8
0
 10
482.31226341233889
 20
-243.93546829989151
 30
0.0
 40
4.0172343749993544
 50
58.109208198165732
 51
121.8907918018342
1001
ACDBBLOCKREPETAG
1070
     1
1071
        7
1005
FCB
  0
ARC
  5
FCC
  8
0
 10
469.57838841233712
 20
-243.9354682998933
 30
0.0
 40
4.0172343749993544
 50
58.109208198165732
 51
121.8907918018342
1001
ACDBBLOCKREPETAG
1070
     1
1071
        8
1005
FCC
  0
ARC
  5
FCD
  8
0
 10
475.94532591233622
 20
-255.0776089248925
 30
0.0
 40
15.15937499999999
 50
73.739795291652086
 51
84.321366531729225
1001
ACDBBLOCKREPETAG
1070
     1
1071
        9
1005
FCD
  0
LINE
  5
FCE
  8
0
 10
482.31226341233889
 20
-239.9182339248932
 30
0.0
 11
477.4453259123398
 21
-239.91823392489499
 31
0.0
1001
ACDBBLOCKREPETAG
1070
     1
1071
       10
1005
FCE
  0
LINE
  5
FCF
  8
0
 10
486.88457591233919
 20
-250.19823392489391
 30
0.0
 11
465.00607591234029
 21
-250.19823392489391
 31
0.0
1001
ACDBBLOCKREPETAG
1070
     1
1071
       11
1005
FCF
  0
LINE
  5
FD0
  8
0
 10
467.45607591234477
 20
-247.44823392489391
 30
0.0
 11
467.45607591234108
 21
-240.52460892489441
 31
0.0
1001
ACDBBLOCKREPETAG
1070
     1
1071
       12
1005
FD0
  0
LINE
  5
FD1
  8
0
 10
484.43457591233857
 20
-247.44823392489391
 30
0.0
 11
484.43457591233857
 21
-240.52460892489441
 31
0.0
1001
ACDBBLOCKREPETAG
1070
     1
1071
       13
1005
FD1
  0
LINE
  5
FD2
  8
0
 10
480.18995091233552
 20
-247.44823392489391
 30
0.0
 11
480.18995091233921
 21
-240.52460892489441
 31
0.0
1001
ACDBBLOCKREPETAG
1070
     1
1071
       14
1005
FD2
  0
LINE
  5
FD3
  8
0
 10
471.70070091234408
 20
-247.44823392489391
 30
0.0
 11
471.70070091234408
 21
-240.52460892489441
 31
0.0
1001
ACDBBLOCKREPETAG
1070
     1
1071
       15
1005
FD3
  0
LINE
  5
FD4
  8
0
 10
474.21554798466929
 20
-295.4030946300586
 30
0.0
 11
478.21029899337702
 21
-294.33270432331437
 31
0.0
1001
ACDBBLOCKREPETAG
1070
     1
1071
       16
1005
FD4
  0
LINE
  5
FD5
  8
0
 10
475.94532591233622
 20
-298.86265048539241
 30
0.0
 11
478.9453259123398
 21
-292.86265048539047
 31
0.0
1001
ACDBBLOCKREPETAG
1070
     1
1071
       17
1005
FD5
  0
LINE
  5
FD6
  8
0
 10
475.94532591233622
 20
-298.86265048539241
 30
0.0
 11
472.9453259123398
 21
-292.86265048539047
 31
0.0
1001
ACDBBLOCKREPETAG
1070
     1
1071
       18
1005
FD6
  0
LINE
  5
FD7
  8
0
 10
472.9453259123398
 20
-250.19823392489391
 30
0.0
 11
472.9453259123398
 21
-292.86265048539047
 31
0.0
1001
ACDBBLOCKREPETAG
1070
     1
1071
       19
1005
FD7
  0
LINE
  5
FD8
  8
0
 10
478.9453259123398
 20
-250.19823392489391
 30
0.0
 11
478.9453259123398
 21
-292.86265048539047
 31
0.0
1001
ACDBBLOCKREPETAG
1070
     1
1071
       20
1005
FD8
  0
LINE
  5
FD9
  8
0
 10
477.4453259123398
 20
-243.01823392489541
 30
0.0
 11
474.4453259123361
 21
-243.01823392489541
 31
0.0
1001
ACDBBLOCKREPETAG
1070
     1
1071
       21
1005
FD9
  0
LINE
  5
FDA
  8
0
 10
472.94532591233622
 20
-288.85331057162011
 30
0.0
 11
478.9453259123398
 21
-287.2456154170327
 31
0.0
1001
ACDBBLOCKREPETAG
1070
     1
1071
       22
1005
FDA
  0
LINE
  5
FDB
  8
0
 10
472.9453259123398
 20
-282.42252995327232
 30
0.0
 11
478.9453259123398
 21
-280.8148347986866
 31
0.0
1001
ACDBBLOCKREPETAG
1070
     1
1071
       23
1005
FDB
  0
LINE
  5
FDC
  8
0
 10
472.9453259123398
 20
-275.9917493349281
 30
0.0
 11
478.9453259123398
 21
-274.38405418034063
 31
0.0
1001
ACDBBLOCKREPETAG
1070
     1
1071
       24
1005
FDC
  0
LINE
  5
FDD
  8
0
 10
472.9453259123398
 20
-269.56096871658019
 30
0.0
 11
478.9453259123398
 21
-267.95327356199459
 31
0.0
1001
ACDBBLOCKREPETAG
1070
     1
1071
       25
1005
FDD
  0
LINE
  5
FDE
  8
0
 10
472.9453259123398
 20
-263.13018809823598
 30
0.0
 11
478.9453259123398
 21
-261.5224929436485
 31
0.0
1001
ACDBBLOCKREPETAG
1070
     1
1071
       26
1005
FDE
  0
LINE
  5
FDF
  8
0
 10
472.94532591233622
 20
-256.69940747988989
 30
0.0
 11
478.9453259123361
 21
-255.0917123253025
 31
0.0
1001
ACDBBLOCKREPETAG
1070
     1
1071
       27
1005
FDF
  0
LINE
  5
FE0
  8
0
 10
484.43457591233857
 20
-247.44823392489391
 30
0.0
 11
467.45607591234477
 21
-247.44823392489391
 31
0.0
1001
ACDBBLOCKREPETAG
1070
     1
1071
       28
1005
FE0
  0
LINE
  5
FE1
  8
0
 10
467.45607591234108
 20
-247.44823392489749
 30
0.0
 11
465.00607591234029
 21
-248.14823392489461
 31
0.0
1001
ACDBBLOCKREPETAG
1070
     1
1071
       29
1005
FE1
  0
SOLID
  5
FE2
  8
0
 10
465.00607591234029
 20
-251.19823392489391
 30
0.0
 11
465.00607591234029
 21
-256.19823392489388
 31
0.0
 12
486.88457591233919
 22
-251.19823392489391
 32
0.0
 13
486.88457591233919
 23
-256.19823392489388
 33
0.0
1001
ACDBBLOCKREPETAG
1070
     1
1071
       30
1005
FE2
  0
INSERT
  5
FE3
  8
0
  6
CONTINUOUS
  2
*U29
 10
0.0
 20
0.0
 30
0.0
1001
ACDBBLOCKREPETAG
1070
     1
1071
       31
1005
FE3
1001
ACAD
1002
{
1000
R14_HATCH_DATA
1000
FE3
1011
1.0
1021
0.0
1031
0.0
1021
0.0
1031
0.0
1011
0.0
1021
0.0
1031
0.0
1021
1.0
1031
0.0
1011
0.0
1021
0.0
1031
0.0
1021
0.0
1031
1.0
1040
0.0
1010
0.0
1020
0.0
1030
1.0
1000
SOLID
1070
     1
1070
     0
1071
        1
1071
        1
1071
        4
1070
     1
1040
460.94532591233622
1040
-261.10268811065322
1040
490.9453259123361
1040
-261.10268811065322
1070
     1
1040
490.9453259123361
1040
-261.10268811065322
1040
490.9453259123361
1040
-266.10268811065322
1070
     1
1040
490.9453259123361
1040
-266.10268811065322
1040
460.94532591233622
1040
-266.10268811065322
1070
     1
1040
460.94532591233622
1040
-266.10268811065322
1040
460.94532591233622
1040
-261.10268811065322
1071
        0
1070
     0
1070
     1
1071
        1
1040
-11229.810011698461
1040
3946.9018474049508
1040
0.0
1002
}
  0
POLYLINE
  5
FE4
  8
0
  6
CONTINUOUS
 66
     1
 10
0.0
 20
0.0
 30
0.0
 70
   129
1001
ACDBBLOCKREPETAG
1070
     1
1071
       32
1005
FE4
  0
VERTEX
  5
135E
  8
0
  6
CONTINUOUS
 10
501.03576427525297
 20
-274.47186285719232
 30
0.0
  0
VERTEX
  5
135F
  8
0
  6
CONTINUOUS
 10
500.16818022808872
 20
-274.97276274036579
 30
0.0
  0
VERTEX
  5
1360
  8
0
  6
CONTINUOUS
 10
492.94457343033861
 20
-260.52554914486558
 30
0.0
 42
0.2840790438404188
  0
VERTEX
  5
1361
  8
0
  6
CONTINUOUS
 10
491.15571904833962
 20
-259.4199763358651
 30
0.0
  0
VERTEX
  5
1362
  8
0
  6
CONTINUOUS
 10
460.73493277634731
 20
-259.4199763358651
 30
0.0
 42
0.2840790438404244
  0
VERTEX
  5
1363
  8
0
  6
CONTINUOUS
 10
458.94607839434832
 20
-260.52554914486558
 30
0.0
  0
VERTEX
  5
1364
  8
0
  6
CONTINUOUS
 10
451.44607839434832
 20
-275.52554914486649
 30
0.0
  0
VERTEX
  5
1365
  8
0
  6
CONTINUOUS
 10
450.55165120334777
 20
-275.07833554936627
 30
0.0
  0
VERTEX
  5
1366
  8
0
  6
CONTINUOUS
 10
458.05165120334777
 20
-260.07833554936542
 30
0.0
 42
-0.2840790438402671
  0
VERTEX
  5
1367
  8
0
  6
CONTINUOUS
 10
460.73493277634731
 20
-258.41997633586521
 30
0.0
  0
VERTEX
  5
1368
  8
0
  6
CONTINUOUS
 10
491.15571904833962
 20
-258.41997633586521
 30
0.0
 42
-0.2840790438411667
  0
VERTEX
  5
1369
  8
0
  6
CONTINUOUS
 10
493.83900062133898
 20
-260.0783355493673
 30
0.0
  0
VERTEX
  5
136A
  8
0
  6
CONTINUOUS
 10
501.06260741908909
 20
-274.52554914486558
 30
0.0
  0
SEQEND
  5
136B
  8
0
  6
CONTINUOUS
  0
LINE
  5
FE5
  8
0
 10
248.168184726406
 20
-240.0861831173271
 30
0.0
 11
248.1681847264023
 21
-243.1861831173274
 31
0.0
1001
ACDBBLOCKREPETAG
1070
     1
1071
        0
1005
FE5
  0
LINE
  5
FE6
  8
0
 10
251.168184726406
 20
-240.0861831173271
 30
0.0
 11
251.168184726406
 21
-243.1861831173274
 31
0.0
1001
ACDBBLOCKREPETAG
1070
     1
1071
        1
1005
FE6
  0
LINE
  5
FE7
  8
0
 10
260.60743472640542
 20
-250.3661831173259
 30
0.0
 11
260.60743472640542
 21
-248.31618311732481
 31
0.0
1001
ACDBBLOCKREPETAG
1070
     1
1071
        2
1005
FE7
  0
LINE
  5
FE8
  8
0
 10
238.72893472640649
 20
-250.3661831173259
 30
0.0
 11
238.72893472640649
 21
-248.3161831173266
 31
0.0
1001
ACDBBLOCKREPETAG
1070
     1
1071
        3
1005
FE8
  0
LINE
  5
FE9
  8
0
 10
260.60743472640542
 20
-248.31618311732481
 30
0.0
 11
258.15743472640469
 21
-247.6161831173259
 31
0.0
1001
ACDBBLOCKREPETAG
1070
     1
1071
        4
1005
FE9
  0
LINE
  5
FEA
  8
0
 10
248.168184726406
 20
-240.0861831173271
 30
0.0
 11
243.30124722640329
 21
-240.08618311732519
 31
0.0
1001
ACDBBLOCKREPETAG
1070
     1
1071
        5
1005
FEA
  0
ARC
  5
FEB
  8
0
 10
249.6681847264023
 20
-255.24555811732449
 30
0.0
 40
15.15937499999999
 50
95.678633468272366
 51
106.2602047083479
1001
ACDBBLOCKREPETAG
1070
     1
1071
        6
1005
FEB
  0
ARC
  5
FEC
  8
0
 10
256.03512222640501
 20
-244.1034174923235
 30
0.0
 40
4.0172343749993544
 50
58.109208198165732
 51
121.8907918018342
1001
ACDBBLOCKREPETAG
1070
     1
1071
        7
1005
FEC
  0
ARC
  5
FED
  8
0
 10
243.30124722640329
 20
-244.10341749232521
 30
0.0
 40
4.0172343749993544
 50
58.109208198165732
 51
121.8907918018342
1001
ACDBBLOCKREPETAG
1070
     1
1071
        8
1005
FED
  0
ARC
  5
FEE
  8
0
 10
249.6681847264023
 20
-255.24555811732449
 30
0.0
 40
15.15937499999999
 50
73.739795291652086
 51
84.321366531727634
1001
ACDBBLOCKREPETAG
1070
     1
1071
        9
1005
FEE
  0
LINE
  5
FEF
  8
0
 10
256.03512222640501
 20
-240.08618311732519
 30
0.0
 11
251.168184726406
 21
-240.0861831173271
 31
0.0
1001
ACDBBLOCKREPETAG
1070
     1
1071
       10
1005
FEF
  0
LINE
  5
FF0
  8
0
 10
260.60743472640542
 20
-250.3661831173259
 30
0.0
 11
238.72893472640649
 21
-250.3661831173259
 31
0.0
1001
ACDBBLOCKREPETAG
1070
     1
1071
       11
1005
FF0
  0
LINE
  5
FF1
  8
0
 10
241.17893472641089
 20
-247.6161831173259
 30
0.0
 11
241.17893472640719
 21
-240.6925581173264
 31
0.0
1001
ACDBBLOCKREPETAG
1070
     1
1071
       12
1005
FF1
  0
LINE
  5
FF2
  8
0
 10
258.15743472640469
 20
-247.6161831173259
 30
0.0
 11
258.15743472640469
 21
-240.6925581173264
 31
0.0
1001
ACDBBLOCKREPETAG
1070
     1
1071
       13
1005
FF2
  0
LINE
  5
FF3
  8
0
 10
253.91280972640169
 20
-247.6161831173259
 30
0.0
 11
253.9128097264053
 21
-240.6925581173264
 31
0.0
1001
ACDBBLOCKREPETAG
1070
     1
1071
       14
1005
FF3
  0
LINE
  5
FF4
  8
0
 10
245.42355972641019
 20
-247.6161831173259
 30
0.0
 11
245.42355972641019
 21
-240.6925581173264
 31
0.0
1001
ACDBBLOCKREPETAG
1070
     1
1071
       15
1005
FF4
  0
LINE
  5
FF5
  8
0
 10
247.9384067987354
 20
-340.12714973232778
 30
0.0
 11
251.93315780744319
 21
-339.05675942558361
 31
0.0
1001
ACDBBLOCKREPETAG
1070
     1
1071
       16
1005
FF5
  0
LINE
  5
FF6
  8
0
 10
249.6681847264023
 20
-343.58670558766158
 30
0.0
 11
252.668184726406
 21
-337.58670558765971
 31
0.0
1001
ACDBBLOCKREPETAG
1070
     1
1071
       17
1005
FF6
  0
LINE
  5
FF7
  8
0
 10
249.6681847264023
 20
-343.58670558766158
 30
0.0
 11
246.668184726406
 21
-337.58670558765971
 31
0.0
1001
ACDBBLOCKREPETAG
1070
     1
1071
       18
1005
FF7
  0
LINE
  5
FF8
  8
0
 10
246.668184726406
 20
-250.3661831173259
 30
0.0
 11
246.668184726406
 21
-337.58670558765971
 31
0.0
1001
ACDBBLOCKREPETAG
1070
     1
1071
       19
1005
FF8
  0
LINE
  5
FF9
  8
0
 10
252.668184726406
 20
-250.3661831173259
 30
0.0
 11
252.668184726406
 21
-337.58670558765971
 31
0.0
1001
ACDBBLOCKREPETAG
1070
     1
1071
       20
1005
FF9
  0
LINE
  5
FFA
  8
0
 10
251.168184726406
 20
-243.1861831173274
 30
0.0
 11
248.1681847264023
 21
-243.1861831173274
 31
0.0
1001
ACDBBLOCKREPETAG
1070
     1
1071
       21
1005
FFA
  0
LINE
  5
FFB
  8
0
 10
246.668184726406
 20
-334.03672409247253
 30
0.0
 11
252.6681847264023
 21
-332.42902893788693
 31
0.0
1001
ACDBBLOCKREPETAG
1070
     1
1071
       22
1005
FFB
  0
LINE
  5
FFC
  8
0
 10
246.668184726406
 20
-314.74438223743442
 30
0.0
 11
252.668184726406
 21
-313.13668708284882
 31
0.0
1001
ACDBBLOCKREPETAG
1070
     1
1071
       23
1005
FFC
  0
LINE
  5
FFD
  8
0
 10
246.668184726406
 20
-308.31360161908839
 30
0.0
 11
252.668184726406
 21
-306.70590646450279
 31
0.0
1001
ACDBBLOCKREPETAG
1070
     1
1071
       24
1005
FFD
  0
LINE
  5
FFE
  8
0
 10
246.668184726406
 20
-301.8828210007423
 30
0.0
 11
252.668184726406
 21
-300.27512584615681
 31
0.0
1001
ACDBBLOCKREPETAG
1070
     1
1071
       25
1005
FFE
  0
LINE
  5
FFF
  8
0
 10
246.668184726406
 20
-295.45204038239632
 30
0.0
 11
252.668184726406
 21
-293.84434522781072
 31
0.0
1001
ACDBBLOCKREPETAG
1070
     1
1071
       26
1005
FFF
  0
LINE
  5
1000
  8
0
 10
246.6681847264023
 20
-289.0212597640521
 30
0.0
 11
252.668184726406
 21
-287.41356460946469
 31
0.0
1001
ACDBBLOCKREPETAG
1070
     1
1071
       27
1005
1000
  0
LINE
  5
1001
  8
0
 10
246.668184726406
 20
-282.59047914570431
 30
0.0
 11
252.668184726406
 21
-280.98278399111871
 31
0.0
1001
ACDBBLOCKREPETAG
1070
     1
1071
       28
1005
1001
  0
LINE
  5
1002
  8
0
 10
246.668184726406
 20
-276.15969852735998
 30
0.0
 11
252.668184726406
 21
-274.55200337277262
 31
0.0
1001
ACDBBLOCKREPETAG
1070
     1
1071
       29
1005
1002
  0
LINE
  5
1003
  8
0
 10
246.668184726406
 20
-269.72891790901218
 30
0.0
 11
252.668184726406
 21
-268.12122275442658
 31
0.0
1001
ACDBBLOCKREPETAG
1070
     1
1071
       30
1005
1003
  0
LINE
  5
1004
  8
0
 10
246.668184726406
 20
-263.29813729066802
 30
0.0
 11
252.668184726406
 21
-261.69044213608061
 31
0.0
1001
ACDBBLOCKREPETAG
1070
     1
1071
       31
1005
1004
  0
LINE
  5
1005
  8
0
 10
246.6681847264023
 20
-256.86735667232188
 30
0.0
 11
252.6681847264023
 21
-255.25966151773449
 31
0.0
1001
ACDBBLOCKREPETAG
1070
     1
1071
       32
1005
1005
  0
LINE
  5
1006
  8
0
 10
246.6681847264023
 20
-327.60594347412649
 30
0.0
 11
252.668184726406
 21
-325.99824831954089
 31
0.0
1001
ACDBBLOCKREPETAG
1070
     1
1071
       33
1005
1006
  0
LINE
  5
1007
  8
0
 10
246.668184726406
 20
-321.1751628557804
 30
0.0
 11
252.668184726406
 21
-319.56746770119491
 31
0.0
1001
ACDBBLOCKREPETAG
1070
     1
1071
       34
1005
1007
  0
LINE
  5
1008
  8
0
 10
258.15743472640469
 20
-247.6161831173259
 30
0.0
 11
241.17893472641089
 21
-247.6161831173259
 31
0.0
1001
ACDBBLOCKREPETAG
1070
     1
1071
       35
1005
1008
  0
LINE
  5
1009
  8
0
 10
241.17893472640719
 20
-247.61618311732951
 30
0.0
 11
238.72893472640649
 21
-248.3161831173266
 31
0.0
1001
ACDBBLOCKREPETAG
1070
     1
1071
       36
1005
1009
  0
SOLID
  5
100A
  8
0
 10
238.72893472640649
 20
-251.3661831173259
 30
0.0
 11
238.72893472640649
 21
-256.36618311732587
 31
0.0
 12
260.60743472640542
 22
-251.3661831173259
 32
0.0
 13
260.60743472640542
 23
-256.36618311732587
 33
0.0
1001
ACDBBLOCKREPETAG
1070
     1
1071
       37
1005
100A
  0
INSERT
  5
100B
  8
0
  6
CONTINUOUS
  2
*U30
 10
0.0
 20
0.0
 30
0.0
1001
ACDBBLOCKREPETAG
1070
     1
1071
       38
1005
100B
1001
ACAD
1002
{
1000
R14_HATCH_DATA
1000
100B
1011
1.0
1021
0.0
1031
0.0
1021
0.0
1031
0.0
1011
0.0
1021
0.0
1031
0.0
1021
1.0
1031
0.0
1011
0.0
1021
0.0
1031
0.0
1021
0.0
1031
1.0
1040
0.0
1010
0.0
1020
0.0
1030
1.0
1000
SOLID
1070
     1
1070
     0
1071
        1
1071
        1
1071
        4
1070
     1
1040
234.6681847264023
1040
-261.27063730308521
1040
264.66818472640227
1040
-261.27063730308521
1070
     1
1040
264.66818472640227
1040
-261.27063730308521
1040
264.66818472640227
1040
-266.27063730308521
1070
     1
1040
264.66818472640227
1040
-266.27063730308521
1040
234.6681847264023
1040
-266.27063730308521
1070
     1
1040
234.6681847264023
1040
-266.27063730308521
1040
234.6681847264023
1040
-261.27063730308521
1071
        0
1070
     0
1070
     1
1071
        1
1040
-11456.087152884391
1040
3946.7338982125189
1040
0.0
1002
}
  0
POLYLINE
  5
100C
  8
0
  6
CONTINUOUS
 66
     1
 10
0.0
 20
0.0
 30
0.0
 70
   129
1001
ACDBBLOCKREPETAG
1070
     1
1071
       39
1005
100C
  0
VERTEX
  5
1373
  8
0
  6
CONTINUOUS
 10
274.75862308931909
 20
-274.6398120496242
 30
0.0
  0
VERTEX
  5
1374
  8
0
  6
CONTINUOUS
 10
273.89103904215489
 20
-275.14071193279779
 30
0.0
  0
VERTEX
  5
1375
  8
0
  6
CONTINUOUS
 10
266.66743224440478
 20
-260.69349833729763
 30
0.0
 42
0.2840790438404188
  0
VERTEX
  5
1376
  8
0
  6
CONTINUOUS
 10
264.87857786240568
 20
-259.58792552829721
 30
0.0
  0
VERTEX
  5
1377
  8
0
  6
CONTINUOUS
 10
234.45779159041351
 20
-259.58792552829721
 30
0.0
 42
0.2840790438404244
  0
VERTEX
  5
1378
  8
0
  6
CONTINUOUS
 10
232.66893720841441
 20
-260.69349833729763
 30
0.0
  0
VERTEX
  5
1379
  8
0
  6
CONTINUOUS
 10
225.16893720841441
 20
-275.69349833729848
 30
0.0
  0
VERTEX
  5
137A
  8
0
  6
CONTINUOUS
 10
224.274510017414
 20
-275.24628474179832
 30
0.0
  0
VERTEX
  5
137B
  8
0
  6
CONTINUOUS
 10
231.774510017414
 20
-260.24628474179741
 30
0.0
 42
-0.2840790438402671
  0
VERTEX
  5
137C
  8
0
  6
CONTINUOUS
 10
234.45779159041351
 20
-258.58792552829709
 30
0.0
  0
VERTEX
  5
137D
  8
0
  6
CONTINUOUS
 10
264.87857786240568
 20
-258.58792552829709
 30
0.0
 42
-0.2840790438411667
  0
VERTEX
  5
137E
  8
0
  6
CONTINUOUS
 10
267.56185943540521
 20
-260.24628474179917
 30
0.0
  0
VERTEX
  5
137F
  8
0
  6
CONTINUOUS
 10
274.78546623315532
 20
-274.69349833729763
 30
0.0
  0
SEQEND
  5
1380
  8
0
  6
CONTINUOUS
  0
LINE
  5
100D
  8
0
 10
-430.7446623891982
 20
-239.68618311732601
 30
0.0
 11
-430.74466238920178
 21
-242.7861831173264
 31
0.0
1001
ACDBBLOCKREPETAG
1070
     1
1071
        0
1005
100D
  0
LINE
  5
100E
  8
0
 10
-427.74466238919808
 20
-239.68618311732601
 30
0.0
 11
-427.74466238919808
 21
-242.7861831173264
 31
0.0
1001
ACDBBLOCKREPETAG
1070
     1
1071
        1
1005
100E
  0
LINE
  5
100F
  8
0
 10
-418.30541238919869
 20
-249.96618311732479
 30
0.0
 11
-418.30541238919869
 21
-247.9161831173237
 31
0.0
1001
ACDBBLOCKREPETAG
1070
     1
1071
        2
1005
100F
  0
LINE
  5
1010
  8
0
 10
-440.18391238919759
 20
-249.96618311732479
 30
0.0
 11
-440.18391238919759
 21
-247.91618311732549
 31
0.0
1001
ACDBBLOCKREPETAG
1070
     1
1071
        3
1005
1010
  0
LINE
  5
1011
  8
0
 10
-418.30541238919869
 20
-247.9161831173237
 30
0.0
 11
-420.75541238919942
 21
-247.21618311732479
 31
0.0
1001
ACDBBLOCKREPETAG
1070
     1
1071
        4
1005
1011
  0
LINE
  5
1012
  8
0
 10
-430.7446623891982
 20
-239.68618311732601
 30
0.0
 11
-435.61159988920087
 21
-239.68618311732419
 31
0.0
1001
ACDBBLOCKREPETAG
1070
     1
1071
        5
1005
1012
  0
ARC
  5
1013
  8
0
 10
-429.24466238920178
 20
-254.84555811732349
 30
0.0
 40
15.15937499999999
 50
95.678633468270746
 51
106.2602047083479
1001
ACDBBLOCKREPETAG
1070
     1
1071
        6
1005
1013
  0
ARC
  5
1014
  8
0
 10
-422.8777248891991
 20
-243.70341749232239
 30
0.0
 40
4.0172343749993544
 50
58.109208198165732
 51
121.8907918018342
1001
ACDBBLOCKREPETAG
1070
     1
1071
        7
1005
1014
  0
ARC
  5
1015
  8
0
 10
-435.61159988920087
 20
-243.70341749232421
 30
0.0
 40
4.0172343749993544
 50
58.109208198165732
 51
121.8907918018342
1001
ACDBBLOCKREPETAG
1070
     1
1071
        8
1005
1015
  0
ARC
  5
1016
  8
0
 10
-429.24466238920178
 20
-254.84555811732349
 30
0.0
 40
15.15937499999999
 50
73.739795291652086
 51
84.321366531729225
1001
ACDBBLOCKREPETAG
1070
     1
1071
        9
1005
1016
  0
LINE
  5
1017
  8
0
 10
-422.8777248891991
 20
-239.68618311732419
 30
0.0
 11
-427.74466238919808
 21
-239.68618311732601
 31
0.0
1001
ACDBBLOCKREPETAG
1070
     1
1071
       10
1005
1017
  0
LINE
  5
1018
  8
0
 10
-418.30541238919869
 20
-249.96618311732479
 30
0.0
 11
-440.18391238919759
 21
-249.96618311732479
 31
0.0
1001
ACDBBLOCKREPETAG
1070
     1
1071
       11
1005
1018
  0
LINE
  5
1019
  8
0
 10
-437.73391238919328
 20
-247.21618311732479
 30
0.0
 11
-437.73391238919692
 21
-240.2925581173254
 31
0.0
1001
ACDBBLOCKREPETAG
1070
     1
1071
       12
1005
1019
  0
LINE
  5
101A
  8
0
 10
-420.75541238919942
 20
-247.21618311732479
 30
0.0
 11
-420.75541238919942
 21
-240.2925581173254
 31
0.0
1001
ACDBBLOCKREPETAG
1070
     1
1071
       13
1005
101A
  0
LINE
  5
101B
  8
0
 10
-425.00003738920242
 20
-247.21618311732479
 30
0.0
 11
-425.00003738919878
 21
-240.2925581173254
 31
0.0
1001
ACDBBLOCKREPETAG
1070
     1
1071
       14
1005
101B
  0
LINE
  5
101C
  8
0
 10
-433.48928738919392
 20
-247.21618311732479
 30
0.0
 11
-433.48928738919392
 21
-240.2925581173254
 31
0.0
1001
ACDBBLOCKREPETAG
1070
     1
1071
       15
1005
101C
  0
LINE
  5
101D
  8
0
 10
-430.97444031686871
 20
-295.17104382248948
 30
0.0
 11
-426.97968930816103
 21
-294.10065351574531
 31
0.0
1001
ACDBBLOCKREPETAG
1070
     1
1071
       16
1005
101D
  0
LINE
  5
101E
  8
0
 10
-429.24466238920178
 20
-298.63059967782328
 30
0.0
 11
-426.2446623891982
 21
-292.63059967782152
 31
0.0
1001
ACDBBLOCKREPETAG
1070
     1
1071
       17
1005
101E
  0
LINE
  5
101F
  8
0
 10
-429.24466238920178
 20
-298.63059967782328
 30
0.0
 11
-432.24466238919808
 21
-292.63059967782152
 31
0.0
1001
ACDBBLOCKREPETAG
1070
     1
1071
       18
1005
101F
  0
LINE
  5
1020
  8
0
 10
-432.24466238919808
 20
-249.96618311732479
 30
0.0
 11
-432.24466238919808
 21
-292.63059967782152
 31
0.0
1001
ACDBBLOCKREPETAG
1070
     1
1071
       19
1005
1020
  0
LINE
  5
1021
  8
0
 10
-426.2446623891982
 20
-249.96618311732479
 30
0.0
 11
-426.2446623891982
 21
-292.63059967782152
 31
0.0
1001
ACDBBLOCKREPETAG
1070
     1
1071
       20
1005
1021
  0
LINE
  5
1022
  8
0
 10
-427.74466238919808
 20
-242.7861831173264
 30
0.0
 11
-430.74466238920178
 21
-242.7861831173264
 31
0.0
1001
ACDBBLOCKREPETAG
1070
     1
1071
       21
1005
1022
  0
LINE
  5
1023
  8
0
 10
-432.24466238920178
 20
-288.62125976405099
 30
0.0
 11
-426.2446623891982
 21
-287.01356460946357
 31
0.0
1001
ACDBBLOCKREPETAG
1070
     1
1071
       22
1005
1023
  0
LINE
  5
1024
  8
0
 10
-432.24466238919808
 20
-282.19047914570319
 30
0.0
 11
-426.2446623891982
 21
-280.58278399111759
 31
0.0
1001
ACDBBLOCKREPETAG
1070
     1
1071
       23
1005
1024
  0
LINE
  5
1025
  8
0
 10
-432.24466238919808
 20
-275.75969852735898
 30
0.0
 11
-426.2446623891982
 21
-274.15200337277162
 31
0.0
1001
ACDBBLOCKREPETAG
1070
     1
1071
       24
1005
1025
  0
LINE
  5
1026
  8
0
 10
-432.24466238919808
 20
-269.32891790901112
 30
0.0
 11
-426.2446623891982
 21
-267.72122275442553
 31
0.0
1001
ACDBBLOCKREPETAG
1070
     1
1071
       25
1005
1026
  0
LINE
  5
1027
  8
0
 10
-432.24466238919808
 20
-262.89813729066691
 30
0.0
 11
-426.2446623891982
 21
-261.29044213607949
 31
0.0
1001
ACDBBLOCKREPETAG
1070
     1
1071
       26
1005
1027
  0
LINE
  5
1028
  8
0
 10
-432.24466238920178
 20
-256.46735667232088
 30
0.0
 11
-426.24466238920178
 21
-254.85966151773351
 31
0.0
1001
ACDBBLOCKREPETAG
1070
     1
1071
       27
1005
1028
  0
LINE
  5
1029
  8
0
 10
-420.75541238919942
 20
-247.21618311732479
 30
0.0
 11
-437.73391238919328
 21
-247.21618311732479
 31
0.0
1001
ACDBBLOCKREPETAG
1070
     1
1071
       28
1005
1029
  0
LINE
  5
102A
  8
0
 10
-437.73391238919692
 20
-247.21618311732851
 30
0.0
 11
-440.18391238919759
 21
-247.91618311732549
 31
0.0
1001
ACDBBLOCKREPETAG
1070
     1
1071
       29
1005
102A
  0
SOLID
  5
102B
  8
0
 10
-440.18391238919759
 20
-250.96618311732479
 30
0.0
 11
-440.18391238919759
 21
-255.96618311732479
 31
0.0
 12
-418.30541238919869
 22
-250.96618311732479
 32
0.0
 13
-418.30541238919869
 23
-255.96618311732479
 33
0.0
1001
ACDBBLOCKREPETAG
1070
     1
1071
       30
1005
102B
  0
INSERT
  5
102C
  8
0
  6
CONTINUOUS
  2
*U31
 10
0.0
 20
0.0
 30
0.0
1001
ACDBBLOCKREPETAG
1070
     1
1071
       31
1005
102C
1001
ACAD
1002
{
1000
R14_HATCH_DATA
1000
102C
1011
1.0
1021
0.0
1031
0.0
1021
0.0
1031
0.0
1011
0.0
1021
0.0
1031
0.0
1021
1.0
1031
0.0
1011
0.0
1021
0.0
1031
0.0
1021
0.0
1031
1.0
1040
0.0
1010
0.0
1020
0.0
1030
1.0
1000
SOLID
1070
     1
1070
     0
1071
        1
1071
        1
1071
        4
1070
     1
1040
-444.24466238920178
1040
-260.8706373030841
1040
-414.24466238920178
1040
-260.8706373030841
1070
     1
1040
-414.24466238920178
1040
-260.8706373030841
1040
-414.24466238920178
1040
-265.8706373030841
1070
     1
1040
-414.24466238920178
1040
-265.8706373030841
1040
-444.24466238920178
1040
-265.8706373030841
1070
     1
1040
-444.24466238920178
1040
-265.8706373030841
1040
-444.24466238920178
1040
-260.8706373030841
1071
        0
1070
     0
1070
     1
1071
        1
1040
-12135.0
1040
3947.1338982125199
1040
0.0
1002
}
  0
POLYLINE
  5
102D
  8
0
  6
CONTINUOUS
 66
     1
 10
0.0
 20
0.0
 30
0.0
 70
   129
1001
ACDBBLOCKREPETAG
1070
     1
1071
       32
1005
102D
  0
VERTEX
  5
1388
  8
0
  6
CONTINUOUS
 10
-404.15422402628508
 20
-274.2398120496232
 30
0.0
  0
VERTEX
  5
1389
  8
0
  6
CONTINUOUS
 10
-405.02180807344922
 20
-274.74071193279678
 30
0.0
  0
VERTEX
  5
138A
  8
0
  6
CONTINUOUS
 10
-412.24541487119939
 20
-260.29349833729663
 30
0.0
 42
0.2840790438404188
  0
VERTEX
  5
138B
  8
0
  6
CONTINUOUS
 10
-414.03426925319837
 20
-259.18792552829609
 30
0.0
  0
VERTEX
  5
138C
  8
0
  6
CONTINUOUS
 10
-444.45505552519069
 20
-259.18792552829609
 30
0.0
 42
0.2840790438404244
  0
VERTEX
  5
138D
  8
0
  6
CONTINUOUS
 10
-446.24390990718967
 20
-260.29349833729663
 30
0.0
  0
VERTEX
  5
138E
  8
0
  6
CONTINUOUS
 10
-453.74390990718967
 20
-275.29349833729748
 30
0.0
  0
VERTEX
  5
138F
  8
0
  6
CONTINUOUS
 10
-454.63833709819011
 20
-274.84628474179732
 30
0.0
  0
VERTEX
  5
1390
  8
0
  6
CONTINUOUS
 10
-447.13833709819011
 20
-259.8462847417963
 30
0.0
 42
-0.2840790438402671
  0
VERTEX
  5
1391
  8
0
  6
CONTINUOUS
 10
-444.45505552519069
 20
-258.18792552829609
 30
0.0
  0
VERTEX
  5
1392
  8
0
  6
CONTINUOUS
 10
-414.03426925319837
 20
-258.18792552829609
 30
0.0
 42
-0.2840790438411667
  0
VERTEX
  5
1393
  8
0
  6
CONTINUOUS
 10
-411.3509876801989
 20
-259.84628474179817
 30
0.0
  0
VERTEX
  5
1394
  8
0
  6
CONTINUOUS
 10
-404.12738088244879
 20
-274.29349833729663
 30
0.0
  0
SEQEND
  5
1395
  8
0
  6
CONTINUOUS
  0
LINE
  5
102E
  8
0
 10
-204.4403800173321
 20
-239.68618311732601
 30
0.0
 11
-204.44038001733571
 21
-242.7861831173264
 31
0.0
1001
ACDBBLOCKREPETAG
1070
     1
1071
        0
1005
102E
  0
LINE
  5
102F
  8
0
 10
-201.4403800173321
 20
-239.68618311732601
 30
0.0
 11
-201.4403800173321
 21
-242.7861831173264
 31
0.0
1001
ACDBBLOCKREPETAG
1070
     1
1071
        1
1005
102F
  0
LINE
  5
1030
  8
0
 10
-192.0011300173326
 20
-249.96618311732479
 30
0.0
 11
-192.0011300173326
 21
-247.9161831173237
 31
0.0
1001
ACDBBLOCKREPETAG
1070
     1
1071
        2
1005
1030
  0
LINE
  5
1031
  8
0
 10
-213.87963001733149
 20
-249.96618311732479
 30
0.0
 11
-213.87963001733149
 21
-247.91618311732549
 31
0.0
1001
ACDBBLOCKREPETAG
1070
     1
1071
        3
1005
1031
  0
LINE
  5
1032
  8
0
 10
-192.0011300173326
 20
-247.9161831173237
 30
0.0
 11
-194.4511300173333
 21
-247.21618311732479
 31
0.0
1001
ACDBBLOCKREPETAG
1070
     1
1071
        4
1005
1032
  0
LINE
  5
1033
  8
0
 10
-204.4403800173321
 20
-239.68618311732601
 30
0.0
 11
-209.3073175173347
 21
-239.68618311732419
 31
0.0
1001
ACDBBLOCKREPETAG
1070
     1
1071
        5
1005
1033
  0
ARC
  5
1034
  8
0
 10
-202.94038001733571
 20
-254.84555811732349
 30
0.0
 40
15.15937499999999
 50
95.678633468272366
 51
106.2602047083479
1001
ACDBBLOCKREPETAG
1070
     1
1071
        6
1005
1034
  0
ARC
  5
1035
  8
0
 10
-196.57344251733301
 20
-243.70341749232239
 30
0.0
 40
4.0172343749993544
 50
58.109208198165732
 51
121.8907918018342
1001
ACDBBLOCKREPETAG
1070
     1
1071
        7
1005
1035
  0
ARC
  5
1036
  8
0
 10
-209.3073175173347
 20
-243.70341749232421
 30
0.0
 40
4.0172343749993544
 50
58.109208198165732
 51
121.8907918018342
1001
ACDBBLOCKREPETAG
1070
     1
1071
        8
1005
1036
  0
ARC
  5
1037
  8
0
 10
-202.94038001733571
 20
-254.84555811732349
 30
0.0
 40
15.15937499999999
 50
73.739795291652086
 51
84.321366531727634
1001
ACDBBLOCKREPETAG
1070
     1
1071
        9
1005
1037
  0
LINE
  5
1038
  8
0
 10
-196.57344251733301
 20
-239.68618311732419
 30
0.0
 11
-201.4403800173321
 21
-239.68618311732601
 31
0.0
1001
ACDBBLOCKREPETAG
1070
     1
1071
       10
1005
1038
  0
LINE
  5
1039
  8
0
 10
-192.0011300173326
 20
-249.96618311732479
 30
0.0
 11
-213.87963001733149
 21
-249.96618311732479
 31
0.0
1001
ACDBBLOCKREPETAG
1070
     1
1071
       11
1005
1039
  0
LINE
  5
103A
  8
0
 10
-211.4296300173271
 20
-247.21618311732479
 30
0.0
 11
-211.42963001733079
 21
-240.2925581173254
 31
0.0
1001
ACDBBLOCKREPETAG
1070
     1
1071
       12
1005
103A
  0
LINE
  5
103B
  8
0
 10
-194.4511300173333
 20
-247.21618311732479
 30
0.0
 11
-194.4511300173333
 21
-240.2925581173254
 31
0.0
1001
ACDBBLOCKREPETAG
1070
     1
1071
       13
1005
103B
  0
LINE
  5
103C
  8
0
 10
-198.6957550173363
 20
-247.21618311732479
 30
0.0
 11
-198.69575501733269
 21
-240.2925581173254
 31
0.0
1001
ACDBBLOCKREPETAG
1070
     1
1071
       14
1005
103C
  0
LINE
  5
103D
  8
0
 10
-207.1850050173278
 20
-247.21618311732479
 30
0.0
 11
-207.1850050173278
 21
-240.2925581173254
 31
0.0
1001
ACDBBLOCKREPETAG
1070
     1
1071
       15
1005
103D
  0
LINE
  5
103E
  8
0
 10
-204.67015794500259
 20
-339.72714973232678
 30
0.0
 11
-200.67540693629491
 21
-338.65675942558261
 31
0.0
1001
ACDBBLOCKREPETAG
1070
     1
1071
       16
1005
103E
  0
LINE
  5
103F
  8
0
 10
-202.94038001733571
 20
-343.18670558766053
 30
0.0
 11
-199.94038001733199
 21
-337.18670558765871
 31
0.0
1001
ACDBBLOCKREPETAG
1070
     1
1071
       17
1005
103F
  0
LINE
  5
1040
  8
0
 10
-202.94038001733571
 20
-343.18670558766053
 30
0.0
 11
-205.9403800173321
 21
-337.18670558765871
 31
0.0
1001
ACDBBLOCKREPETAG
1070
     1
1071
       18
1005
1040
  0
LINE
  5
1041
  8
0
 10
-205.9403800173321
 20
-249.96618311732479
 30
0.0
 11
-205.9403800173321
 21
-337.18670558765871
 31
0.0
1001
ACDBBLOCKREPETAG
1070
     1
1071
       19
1005
1041
  0
LINE
  5
1042
  8
0
 10
-199.94038001733199
 20
-249.96618311732479
 30
0.0
 11
-199.94038001733199
 21
-337.18670558765871
 31
0.0
1001
ACDBBLOCKREPETAG
1070
     1
1071
       20
1005
1042
  0
LINE
  5
1043
  8
0
 10
-201.4403800173321
 20
-242.7861831173264
 30
0.0
 11
-204.44038001733571
 21
-242.7861831173264
 31
0.0
1001
ACDBBLOCKREPETAG
1070
     1
1071
       21
1005
1043
  0
LINE
  5
1044
  8
0
 10
-205.9403800173321
 20
-333.63672409247152
 30
0.0
 11
-199.94038001733571
 21
-332.02902893788593
 31
0.0
1001
ACDBBLOCKREPETAG
1070
     1
1071
       22
1005
1044
  0
LINE
  5
1045
  8
0
 10
-205.9403800173321
 20
-314.34438223743331
 30
0.0
 11
-199.94038001733199
 21
-312.73668708284782
 31
0.0
1001
ACDBBLOCKREPETAG
1070
     1
1071
       23
1005
1045
  0
LINE
  5
1046
  8
0
 10
-205.9403800173321
 20
-307.91360161908727
 30
0.0
 11
-199.94038001733199
 21
-306.30590646450167
 31
0.0
1001
ACDBBLOCKREPETAG
1070
     1
1071
       24
1005
1046
  0
LINE
  5
1047
  8
0
 10
-205.9403800173321
 20
-301.4828210007413
 30
0.0
 11
-199.94038001733199
 21
-299.8751258461557
 31
0.0
1001
ACDBBLOCKREPETAG
1070
     1
1071
       25
1005
1047
  0
LINE
  5
1048
  8
0
 10
-205.9403800173321
 20
-295.05204038239521
 30
0.0
 11
-199.94038001733199
 21
-293.44434522780972
 31
0.0
1001
ACDBBLOCKREPETAG
1070
     1
1071
       26
1005
1048
  0
LINE
  5
1049
  8
0
 10
-205.94038001733571
 20
-288.62125976405099
 30
0.0
 11
-199.94038001733199
 21
-287.01356460946357
 31
0.0
1001
ACDBBLOCKREPETAG
1070
     1
1071
       27
1005
1049
  0
LINE
  5
104A
  8
0
 10
-205.9403800173321
 20
-282.19047914570319
 30
0.0
 11
-199.94038001733199
 21
-280.58278399111759
 31
0.0
1001
ACDBBLOCKREPETAG
1070
     1
1071
       28
1005
104A
  0
LINE
  5
104B
  8
0
 10
-205.9403800173321
 20
-275.75969852735898
 30
0.0
 11
-199.94038001733199
 21
-274.15200337277162
 31
0.0
1001
ACDBBLOCKREPETAG
1070
     1
1071
       29
1005
104B
  0
LINE
  5
104C
  8
0
 10
-205.9403800173321
 20
-269.32891790901112
 30
0.0
 11
-199.94038001733199
 21
-267.72122275442553
 31
0.0
1001
ACDBBLOCKREPETAG
1070
     1
1071
       30
1005
104C
  0
LINE
  5
104D
  8
0
 10
-205.9403800173321
 20
-262.89813729066691
 30
0.0
 11
-199.94038001733199
 21
-261.29044213607949
 31
0.0
1001
ACDBBLOCKREPETAG
1070
     1
1071
       31
1005
104D
  0
LINE
  5
104E
  8
0
 10
-205.94038001733571
 20
-256.46735667232088
 30
0.0
 11
-199.94038001733571
 21
-254.85966151773351
 31
0.0
1001
ACDBBLOCKREPETAG
1070
     1
1071
       32
1005
104E
  0
LINE
  5
104F
  8
0
 10
-205.94038001733571
 20
-327.20594347412549
 30
0.0
 11
-199.94038001733199
 21
-325.59824831953978
 31
0.0
1001
ACDBBLOCKREPETAG
1070
     1
1071
       33
1005
104F
  0
LINE
  5
1050
  8
0
 10
-205.9403800173321
 20
-320.7751628557794
 30
0.0
 11
-199.94038001733199
 21
-319.1674677011938
 31
0.0
1001
ACDBBLOCKREPETAG
1070
     1
1071
       34
1005
1050
  0
LINE
  5
1051
  8
0
 10
-194.4511300173333
 20
-247.21618311732479
 30
0.0
 11
-211.4296300173271
 21
-247.21618311732479
 31
0.0
1001
ACDBBLOCKREPETAG
1070
     1
1071
       35
1005
1051
  0
LINE
  5
1052
  8
0
 10
-211.42963001733079
 20
-247.21618311732851
 30
0.0
 11
-213.87963001733149
 21
-247.91618311732549
 31
0.0
1001
ACDBBLOCKREPETAG
1070
     1
1071
       36
1005
1052
  0
SOLID
  5
1053
  8
0
 10
-213.87963001733149
 20
-250.96618311732479
 30
0.0
 11
-213.87963001733149
 21
-255.96618311732479
 31
0.0
 12
-192.0011300173326
 22
-250.96618311732479
 32
0.0
 13
-192.0011300173326
 23
-255.96618311732479
 33
0.0
1001
ACDBBLOCKREPETAG
1070
     1
1071
       37
1005
1053
  0
INSERT
  5
1054
  8
0
  6
CONTINUOUS
  2
*U32
 10
0.0
 20
0.0
 30
0.0
1001
ACDBBLOCKREPETAG
1070
     1
1071
       38
1005
1054
1001
ACAD
1002
{
1000
R14_HATCH_DATA
1000
1054
1011
1.0
1021
0.0
1031
0.0
1021
0.0
1031
0.0
1011
0.0
1021
0.0
1031
0.0
1021
1.0
1031
0.0
1011
0.0
1021
0.0
1031
0.0
1021
0.0
1031
1.0
1040
0.0
1010
0.0
1020
0.0
1030
1.0
1000
SOLID
1070
     1
1070
     0
1071
        1
1071
        1
1071
        4
1070
     1
1040
-217.94038001733571
1040
-260.8706373030841
1040
-187.94038001733571
1040
-260.8706373030841
1070
     1
1040
-187.94038001733571
1040
-260.8706373030841
1040
-187.94038001733571
1040
-265.8706373030841
1070
     1
1040
-187.94038001733571
1040
-265.8706373030841
1040
-217.94038001733571
1040
-265.8706373030841
1070
     1
1040
-217.94038001733571
1040
-265.8706373030841
1040
-217.94038001733571
1040
-260.8706373030841
1071
        0
1070
     0
1070
     1
1071
        1
1040
-11908.69571762813
1040
3947.1338982125199
1040
0.0
1002
}
  0
POLYLINE
  5
1055
  8
0
  6
CONTINUOUS
 66
     1
 10
0.0
 20
0.0
 30
0.0
 70
   129
1001
ACDBBLOCKREPETAG
1070
     1
1071
       39
1005
1055
  0
VERTEX
  5
139D
  8
0
  6
CONTINUOUS
 10
-177.8499416544189
 20
-274.2398120496232
 30
0.0
  0
VERTEX
  5
139E
  8
0
  6
CONTINUOUS
 10
-178.7175257015831
 20
-274.74071193279678
 30
0.0
  0
VERTEX
  5
139F
  8
0
  6
CONTINUOUS
 10
-185.94113249933321
 20
-260.29349833729663
 30
0.0
 42
0.2840790438404188
  0
VERTEX
  5
13A0
  8
0
  6
CONTINUOUS
 10
-187.72998688133231
 20
-259.18792552829609
 30
0.0
  0
VERTEX
  5
13A1
  8
0
  6
CONTINUOUS
 10
-218.15077315332459
 20
-259.18792552829609
 30
0.0
 42
0.2840790438404244
  0
VERTEX
  5
13A2
  8
0
  6
CONTINUOUS
 10
-219.93962753532361
 20
-260.29349833729663
 30
0.0
  0
VERTEX
  5
13A3
  8
0
  6
CONTINUOUS
 10
-227.43962753532361
 20
-275.29349833729748
 30
0.0
  0
VERTEX
  5
13A4
  8
0
  6
CONTINUOUS
 10
-228.33405472632401
 20
-274.84628474179732
 30
0.0
  0
VERTEX
  5
13A5
  8
0
  6
CONTINUOUS
 10
-220.83405472632401
 20
-259.8462847417963
 30
0.0
 42
-0.2840790438402671
  0
VERTEX
  5
13A6
  8
0
  6
CONTINUOUS
 10
-218.15077315332459
 20
-258.18792552829609
 30
0.0
  0
VERTEX
  5
13A7
  8
0
  6
CONTINUOUS
 10
-187.72998688133231
 20
-258.18792552829609
 30
0.0
 42
-0.2840790438411667
  0
VERTEX
  5
13A8
  8
0
  6
CONTINUOUS
 10
-185.0467053083328
 20
-259.84628474179817
 30
0.0
  0
VERTEX
  5
13A9
  8
0
  6
CONTINUOUS
 10
-177.8230985105827
 20
-274.29349833729663
 30
0.0
  0
SEQEND
  5
13AA
  8
0
  6
CONTINUOUS
  0
LINE
  5
1056
  8
0
  6
CONTINUOUS
 10
-413.980290846858
 20
-275.77832013500762
 30
-0.0000000000001106
 11
-444.50903393153311
 21
-275.77832013500762
 31
-0.0000000000001119
210
0.0
220
1.0
230
0.0000000000000002
  0
ARC
  5
1057
  8
0
  6
CONTINUOUS
 10
-413.980290846858
 20
-277.77832013500762
 30
0.0000000000343495
 40
2.0
 50
33.961210459270198
 51
90.0
  0
LINE
  5
1058
  8
0
  6
CONTINUOUS
 10
-444.45581956031538
 20
-274.87832013500793
 30
-0.0000000000000822
 11
-414.03350521807567
 21
-274.87832013500793
 31
-0.0000000000001065
210
0.0
220
1.0
230
0.0000000000000002
  0
ARC
  5
1059
  8
0
  6
CONTINUOUS
 10
-414.03350521807567
 20
-277.87832013500793
 30
-0.0000000000386498
 40
3.0
 50
33.961210459270198
 51
90.0
  0
LINE
  5
105A
  8
0
  6
CONTINUOUS
 10
425.33160794262091
 20
-373.41204768048868
 30
0.0000000000000848
 11
-378.63094441948027
 21
-373.41204768048868
 31
-0.0000000000001096
210
0.0
220
1.0
230
0.0000000000000002
  0
LINE
  5
105B
  8
0
  6
CONTINUOUS
 10
425.33160794262091
 20
-323.41204768048868
 30
0.0000000000000848
 11
-378.68415879069789
 21
-323.41204768048868
 31
-0.0000000000001121
210
0.0
220
1.0
230
0.0000000000000002
  0
LINE
  5
105C
  8
0
  6
CONTINUOUS
 10
425.33160794262091
 20
-324.31204768048838
 30
0.0000000000000848
 11
-378.63094441948027
 21
-324.31204768048838
 31
-0.0000000000001122
210
0.0
220
1.0
230
0.0000000000000002
  0
LINE
  5
105D
  8
0
  6
CONTINUOUS
 10
-411.54525734095188
 20
-276.20242559715979
 30
0.000000000000053
 11
-380.34299070878041
 21
-322.52931070572077
 31
0.0000000000000005
  0
ARC
  5
105E
  8
0
  6
CONTINUOUS
 10
-378.68415879069789
 20
-321.41204768048868
 30
0.000000000000248
 40
2.0
 50
213.96121045927021
 51
270.0
  0
LINE
  5
105F
  8
0
  6
CONTINUOUS
 10
-412.32145892877548
 20
-276.66105710977553
 30
-0.0000000000002206
 11
-381.11919229660413
 21
-322.9879422183364
 31
-0.0000000000000023
  0
ARC
  5
1060
  8
0
  6
CONTINUOUS
 10
-378.63094441948027
 20
-321.31204768048838
 30
-0.0000000000016501
 40
3.0
 50
213.96121045927021
 51
270.0
  0
LINE
  5
1061
  8
0
  6
CONTINUOUS
 10
-446.94406743743929
 20
-276.2024255971599
 30
0.0
 11
-478.44375647644961
 21
-322.97090213985479
 31
0.0
  0
ARC
  5
1062
  8
0
  6
CONTINUOUS
 10
-444.45581956031538
 20
-277.87832013500793
 30
-0.0000000000134369
 40
3.0
 50
90.0
 51
146.03878954072979
  0
LINE
  5
1063
  8
0
  6
CONTINUOUS
 10
-446.16786584961568
 20
-276.66105710977553
 30
0.0
 11
-477.69728211331238
 21
-323.4736705012092
 31
0.0
  0
ARC
  5
1064
  8
0
  6
CONTINUOUS
 10
-444.50903393153311
 20
-277.77832013500762
 30
-0.0000000000009098
 40
2.0
 50
90.0
 51
146.03878954072979
  0
LINE
  5
1065
  8
0
  6
CONTINUOUS
 10
-478.44375647644961
 20
-322.97090213985479
 30
0.0
 11
-477.69728211331238
 21
-323.4736705012092
 31
0.0
  0
LINE
  5
1066
  8
0
  6
CONTINUOUS
 10
-378.63094441948027
 20
-324.31204768048838
 30
-0.0000000000001122
 11
-378.63094441948027
 21
-373.41204768048868
 31
-0.0000000000001096
  0
LINE
  5
1067
  8
0
  6
CONTINUOUS
 10
460.68095436999869
 20
-275.77832013500768
 30
-0.0000000000000163
 11
491.2096974546738
 21
-275.77832013500768
 31
-0.0000000000000176
210
0.0000000000000003
220
1.0
230
0.0000000000000002
  0
ARC
  5
1068
  8
0
  6
CONTINUOUS
 10
460.68095436999869
 20
-277.77832013500768
 30
0.0000000000344439
 40
2.0
 50
90.0
 51
146.0387895407263
  0
LINE
  5
1069
  8
0
  6
CONTINUOUS
 10
491.15648308345612
 20
-274.8783201350081
 30
0.0000000000000121
 11
460.73416874121631
 21
-274.8783201350081
 31
-0.0000000000000121
210
0.0000000000000003
220
1.0
230
0.0000000000000002
  0
ARC
  5
106A
  8
0
  6
CONTINUOUS
 10
460.73416874121631
 20
-277.87832013500798
 30
-0.0000000000385555
 40
3.0
 50
90.0
 51
146.0387895407263
  0
LINE
  5
106B
  8
0
  6
CONTINUOUS
 10
458.24592086409251
 20
-276.20242559716002
 30
0.0000000000001474
 11
427.04365423192098
 21
-322.52931070572089
 31
0.0000000000000948
  0
ARC
  5
106C
  8
0
  6
CONTINUOUS
 10
425.38482231383853
 20
-321.41204768048891
 30
0.0000000000003423
 40
2.0
 50
270.0
 51
326.03878954072633
  0
LINE
  5
106D
  8
0
  6
CONTINUOUS
 10
459.02212245191618
 20
-276.6610571097757
 30
-0.0000000000001262
 11
427.8198558197447
 21
-322.98794221833651
 31
0.000000000000092
  0
ARC
  5
106E
  8
0
  6
CONTINUOUS
 10
425.33160794262091
 20
-321.31204768048849
 30
-0.0000000000015557
 40
3.0
 50
270.0
 51
326.03878954072633
  0
LINE
  5
106F
  8
0
  6
CONTINUOUS
 10
493.64473096057992
 20
-276.20242559716007
 30
0.0000000000000943
 11
525.14441999959024
 21
-322.97090213985501
 31
0.0000000000000943
  0
ARC
  5
1070
  8
0
  6
CONTINUOUS
 10
491.15648308345612
 20
-277.8783201350081
 30
-0.0000000000133425
 40
3.0
 50
33.961210459270198
 51
90.0
  0
LINE
  5
1071
  8
0
  6
CONTINUOUS
 10
492.8685293727562
 20
-276.6610571097757
 30
0.0000000000000943
 11
524.39794563645319
 21
-323.47367050120943
 31
0.0000000000000943
  0
ARC
  5
1072
  8
0
  6
CONTINUOUS
 10
491.2096974546738
 20
-277.77832013500768
 30
-0.0000000000008155
 40
2.0
 50
33.961210459270198
 51
90.0
  0
LINE
  5
1073
  8
0
  6
CONTINUOUS
 10
525.14441999959024
 20
-322.97090213985501
 30
0.0000000000000943
 11
524.39794563645319
 21
-323.47367050120943
 31
0.0000000000000943
  0
LINE
  5
1074
  8
0
  6
CONTINUOUS
 10
425.33160794262091
 20
-324.31204768048849
 30
-0.0000000000000179
 11
425.33160794262091
 21
-373.41204768048891
 31
-0.0000000000000153
  0
POLYLINE
  5
1075
  8
0
 66
     1
 10
0.0
 20
0.0
 30
0.0
 70
   129
  0
VERTEX
  5
13AB
  8
0
 10
382.10733168085
 20
-322.15712113928799
 30
0.0
 42
-0.1989123673796329
  0
VERTEX
  5
13AC
  8
0
 10
380.7638287965957
 20
-321.60062402354328
 30
0.0
  0
VERTEX
  5
13AD
  8
0
 10
379.75966574055991
 20
-320.59646096750703
 30
0.0
 42
0.1989123673796528
  0
VERTEX
  5
13AE
  8
0
 10
378.69900556878031
 20
-320.15712113928703
 30
0.0
  0
VERTEX
  5
13AF
  8
0
 10
346.9416462558986
 20
-320.15712113928879
 30
0.0
 42
0.1989123673796302
  0
VERTEX
  5
13B0
  8
0
 10
345.880986084119
 20
-320.59646096750879
 30
0.0
  0
VERTEX
  5
13B1
  8
0
 10
344.87682302808349
 20
-321.60062402354242
 30
0.0
 42
-0.198912367379553
  0
VERTEX
  5
13B2
  8
0
 10
343.53332014382971
 20
-322.15712113928703
 30
0.0
  0
VERTEX
  5
13B3
  8
0
 10
302.3325115351476
 20
-322.15712113928703
 30
0.0
 42
-0.2495077831461744
  0
VERTEX
  5
13B4
  8
0
 10
300.75662121296932
 20
-321.31852101325831
 30
0.0
  0
VERTEX
  5
13B5
  8
0
 10
268.03580906482529
 20
-272.73700855726969
 30
0.0
 42
0.2224824033525948
  0
VERTEX
  5
13B6
  8
0
 10
266.94500774172059
 20
-272.08281234261398
 30
0.0
  0
VERTEX
  5
13B7
  8
0
 10
259.95738883771833
 20
-271.36481168250879
 30
0.0
 42
-0.0897571267652499
  0
VERTEX
  5
13B8
  8
0
 10
259.44416719402011
 20
-271.21643854783088
 30
0.0
 42
0.2343875128359297
  0
VERTEX
  5
13B9
  8
0
 10
239.89220225879009
 20
-271.21643854783179
 30
0.0
 42
-0.0897571267652924
  0
VERTEX
  5
13BA
  8
0
 10
239.37898061509179
 20
-271.36481168251021
 30
0.0
  0
VERTEX
  5
13BB
  8
0
 10
232.39136171109101
 20
-272.08281234261312
 30
0.0
 42
0.2224824033527004
  0
VERTEX
  5
13BC
  8
0
 10
231.300560387986
 20
-272.73700855726889
 30
0.0
  0
VERTEX
  5
13BD
  8
0
 10
198.57974823984341
 20
-321.3185210132574
 30
0.0
 42
-0.2495077831461868
  0
VERTEX
  5
13BE
  8
0
 10
197.00385791766499
 20
-322.15712113928703
 30
0.0
  0
VERTEX
  5
13BF
  8
0
 10
155.80304930898089
 20
-322.15712113928703
 30
0.0
 42
-0.1989123673795766
  0
VERTEX
  5
13C0
  8
0
 10
154.4595464247268
 20
-321.60062402354242
 30
0.0
  0
VERTEX
  5
13C1
  8
0
 10
153.4553833686914
 20
-320.59646096750799
 30
0.0
 42
0.1989123673796287
  0
VERTEX
  5
13C2
  8
0
 10
152.39472319691191
 20
-320.15712113928799
 30
0.0
  0
VERTEX
  5
13C3
  8
0
 10
120.6373638840335
 20
-320.1571211392843
 30
0.0
 42
0.1989123673797931
  0
VERTEX
  5
13C4
  8
0
 10
119.5767037122534
 20
-320.59646096750521
 30
0.0
  0
VERTEX
  5
13C5
  8
0
 10
118.572540656219
 20
-321.6006240235406
 30
0.0
 42
-0.1989123673797679
  0
VERTEX
  5
13C6
  8
0
 10
117.2290377719638
 20
-322.15712113928612
 30
0.0
  0
VERTEX
  5
13C7
  8
0
 10
76.028229163280059
 20
-322.15712113928799
 30
0.0
 42
-0.2495077831461886
  0
VERTEX
  5
13C8
  8
0
 10
74.452338841101607
 20
-321.31852101325921
 30
0.0
  0
VERTEX
  5
13C9
  8
0
 10
41.731526692957232
 20
-272.73700855726889
 30
0.0
 42
0.2224824033525858
  0
VERTEX
  5
13CA
  8
0
 10
40.640725369852468
 20
-272.08281234261273
 30
0.0
  0
VERTEX
  5
13CB
  8
0
 10
33.653106465850499
 20
-271.36481168250839
 30
0.0
 42
-0.0897571267652978
  0
VERTEX
  5
13CC
  8
0
 10
33.139884822152169
 20
-271.21643854783042
 30
0.0
 42
0.2343875128359243
  0
VERTEX
  5
13CD
  8
0
 10
13.587919886922229
 20
-271.21643854783127
 30
0.0
 42
-0.0897571267653023
  0
VERTEX
  5
13CE
  8
0
 10
13.074698243223789
 20
-271.36481168250981
 30
0.0
  0
VERTEX
  5
13CF
  8
0
 10
6.0870793392223836
 20
-272.08281234261312
 30
0.0
 42
0.2224824033526504
  0
VERTEX
  5
13D0
  8
0
 10
4.9962780161176852
 20
-272.73700855726889
 30
0.0
  0
VERTEX
  5
13D1
  8
0
 10
-27.724534132026118
 20
-321.31852101325921
 30
0.0
 42
-0.2495077831461899
  0
VERTEX
  5
13D2
  8
0
 10
-29.300424454204581
 20
-322.15712113928799
 30
0.0
  0
VERTEX
  5
13D3
  8
0
 10
-70.501233062889582
 20
-322.15712113928799
 30
0.0
 42
-0.1989123673797369
  0
VERTEX
  5
13D4
  8
0
 10
-71.8447359471445
 20
-321.60062402354242
 30
0.0
  0
VERTEX
  5
13D5
  8
0
 10
-72.848899003176882
 20
-320.59646096750879
 30
0.0
 42
0.1989123673799452
  0
VERTEX
  5
13D6
  8
0
 10
-73.909559174957678
 20
-320.15712113928703
 30
0.0
  0
VERTEX
  5
13D7
  8
0
 10
-105.6669184878365
 20
-320.15712113928703
 30
0.0
 42
0.1989123673796189
  0
VERTEX
  5
13D8
  8
0
 10
-106.727578659616
 20
-320.59646096750703
 30
0.0
  0
VERTEX
  5
13D9
  8
0
 10
-107.73174171565201
 20
-321.60062402354151
 30
0.0
 42
-0.1989123673795527
  0
VERTEX
  5
13DA
  8
0
 10
-109.0752445999059
 20
-322.15712113928612
 30
0.0
  0
VERTEX
  5
13DB
  8
0
 10
-150.27605320858879
 20
-322.15712113928612
 30
0.0
 42
-0.2495077831461824
  0
VERTEX
  5
13DC
  8
0
 10
-151.85194353076719
 20
-321.3185210132574
 30
0.0
  0
VERTEX
  5
13DD
  8
0
 10
-184.57275567891159
 20
-272.73700855726889
 30
0.0
 42
0.2224824033525574
  0
VERTEX
  5
13DE
  8
0
 10
-185.66355700201601
 20
-272.08281234261312
 30
0.0
  0
VERTEX
  5
13DF
  8
0
 10
-192.65117590601869
 20
-271.36481168250788
 30
0.0
 42
-0.0897571267653106
  0
VERTEX
  5
13E0
  8
0
 10
-193.1643975497168
 20
-271.21643854782991
 30
0.0
 42
0.2343875128359216
  0
VERTEX
  5
13E1
  8
0
 10
-212.71636248494701
 20
-271.21643854783088
 30
0.0
 42
-0.0897571267653155
  0
VERTEX
  5
13E2
  8
0
 10
-213.22958412864531
 20
-271.36481168250879
 30
0.0
  0
VERTEX
  5
13E3
  8
0
 10
-220.21720303264499
 20
-272.08281234261182
 30
0.0
 42
0.2224824033526181
  0
VERTEX
  5
13E4
  8
0
 10
-221.30800435575
 20
-272.73700855726747
 30
0.0
  0
VERTEX
  5
13E5
  8
0
 10
-254.0288165038933
 20
-321.3185210132574
 30
0.0
 42
-0.2495077831461927
  0
VERTEX
  5
13E6
  8
0
 10
-255.60470682607169
 20
-322.15712113928703
 30
0.0
  0
VERTEX
  5
13E7
  8
0
 10
-296.80551543475258
 20
-322.15712113928703
 30
0.0
 42
-0.1989123673796096
  0
VERTEX
  5
13E8
  8
0
 10
-298.14901831900681
 20
-321.60062402354242
 30
0.0
  0
VERTEX
  5
13E9
  8
0
 10
-299.15318137504352
 20
-320.59646096750703
 30
0.0
 42
0.1989123673795896
  0
VERTEX
  5
13EA
  8
0
 10
-300.21384154682301
 20
-320.15712113928703
 30
0.0
  0
VERTEX
  5
13EB
  8
0
 10
-331.97120085970471
 20
-320.15712113928521
 30
0.0
 42
0.1989123673798137
  0
VERTEX
  5
13EC
  8
0
 10
-333.03186103148488
 20
-320.59646096750612
 30
0.0
  0
VERTEX
  5
13ED
  8
0
 10
-334.03602408751772
 20
-321.60062402354151
 30
0.0
 42
-0.1989123673798304
  0
VERTEX
  5
13EE
  8
0
 10
-335.37952697177349
 20
-322.15712113928703
 30
0.0
  0
VERTEX
  5
13EF
  8
0
 10
-376.58033558045622
 20
-322.15712113928521
 30
0.0
 42
-0.2495077831461744
  0
VERTEX
  5
13F0
  8
0
 10
-378.15622590263462
 20
-321.31852101325649
 30
0.0
  0
VERTEX
  5
13F1
  8
0
 10
-410.87703805077922
 20
-272.73700855726838
 30
0.0
 42
0.2224824033525738
  0
VERTEX
  5
13F2
  8
0
 10
-411.96783937388358
 20
-272.08281234261273
 30
0.0
  0
VERTEX
  5
13F3
  8
0
 10
-418.95545827788578
 20
-271.36481168250788
 30
0.0
 42
-0.0897571267652499
  0
VERTEX
  5
13F4
  8
0
 10
-419.468679921584
 20
-271.21643854782991
 30
0.0
 42
0.2343875128359206
  0
VERTEX
  5
13F5
  8
0
 10
-439.02064485681399
 20
-271.21643854783088
 30
0.0
 42
-0.0897571267653083
  0
VERTEX
  5
13F6
  8
0
 10
-439.53386650051237
 20
-271.36481168250879
 30
0.0
  0
VERTEX
  5
13F7
  8
0
 10
-446.51326264195592
 20
-272.0819674269078
 30
0.0
 42
0.2319032102171716
  0
VERTEX
  5
13F8
  8
0
 10
-447.63328538992999
 20
-272.78127323136999
 30
0.0
  0
VERTEX
  5
13F9
  8
0
 10
-456.67294130963461
 20
-287.29950849635179
 30
0.0
 42
-0.2896898633028666
  0
VERTEX
  5
13FA
  8
0
 10
-458.11690234039878
 20
-287.99693599298689
 30
0.0
 42
0.6324555320336853
  0
VERTEX
  5
13FB
  8
0
 10
-460.02712929720877
 20
-291.06487625695399
 30
0.0
 42
-0.2896898633027729
  0
VERTEX
  5
13FC
  8
0
 10
-460.01583848405159
 20
-292.66840395829468
 30
0.0
  0
VERTEX
  5
13FD
  8
0
 10
-460.9871821605683
 20
-294.22844077209362
 30
0.0
  0
VERTEX
  5
13FE
  8
0
 10
-461.32674092414982
 20
-294.01701739099548
 30
0.0
  0
VERTEX
  5
13FF
  8
0
 10
-460.35539724763328
 20
-292.45698057719659
 30
0.0
 42
0.2896898633027746
  0
VERTEX
  5
1400
  8
0
 10
-460.36367717728189
 20
-291.28106026288009
 30
0.0
 42
-0.6324555320337085
  0
VERTEX
  5
1401
  8
0
 10
-458.07140482910989
 20
-287.59953194611938
 30
0.0
 42
0.2896898633028543
  0
VERTEX
  5
1402
  8
0
 10
-457.01250007321619
 20
-287.08808511525382
 30
0.0
  0
VERTEX
  5
1403
  8
0
 10
-447.97284415351169
 20
-272.56984985027202
 30
0.0
 42
-0.2319032102171799
  0
VERTEX
  5
1404
  8
0
 10
-446.55414867274442
 20
-271.68406249795322
 30
0.0
  0
VERTEX
  5
1405
  8
0
 10
-439.57475253130087
 20
-270.96690675355421
 30
0.0
 42
0.0897571267653229
  0
VERTEX
  5
1406
  8
0
 10
-439.19838999258889
 20
-270.85809978812358
 30
0.0
 42
-0.2343875128359217
  0
VERTEX
  5
1407
  8
0
 10
-419.29093478580933
 20
-270.85809978812267
 30
0.0
 42
0.08975712676526
  0
VERTEX
  5
1408
  8
0
 10
-418.914572247097
 20
-270.9669067535533
 30
0.0
  0
VERTEX
  5
1409
  8
0
 10
-411.92695334309508
 20
-271.68490741365798
 30
0.0
 42
-0.2224824033526056
  0
VERTEX
  5
140A
  8
0
 10
-410.54527166716258
 20
-272.5135559522214
 30
0.0
  0
VERTEX
  5
140B
  8
0
 10
-377.82445951901809
 20
-321.0950684082095
 30
0.0
 42
0.249507783146274
  0
VERTEX
  5
140C
  8
0
 10
-376.58033558045622
 20
-321.75712113928557
 30
0.0
  0
VERTEX
  5
140D
  8
0
 10
-335.3795269717732
 20
-321.75712113928739
 30
0.0
 42
0.1989123673799034
  0
VERTEX
  5
140E
  8
0
 10
-334.31886679999269
 20
-321.31778131106648
 30
0.0
  0
VERTEX
  5
140F
  8
0
 10
-333.31470374395968
 20
-320.31361825503109
 30
0.0
 42
-0.1989123673797458
  0
VERTEX
  5
1410
  8
0
 10
-331.97120085970471
 20
-319.75712113928557
 30
0.0
  0
VERTEX
  5
1411
  8
0
 10
-300.21384154682312
 20
-319.75712113928739
 30
0.0
 42
-0.1989123673795544
  0
VERTEX
  5
1412
  8
0
 10
-298.87033866256911
 20
-320.313618255032
 30
0.0
  0
VERTEX
  5
1413
  8
0
 10
-297.86617560653229
 20
-321.31778131106739
 30
0.0
 42
0.1989123673796189
  0
VERTEX
  5
1414
  8
0
 10
-296.80551543475258
 20
-321.75712113928739
 30
0.0
  0
VERTEX
  5
1415
  8
0
 10
-255.60470682607169
 20
-321.75712113928739
 30
0.0
 42
0.249507783146263
  0
VERTEX
  5
1416
  8
0
 10
-254.36058288750979
 20
-321.09506840821223
 30
0.0
  0
VERTEX
  5
1417
  8
0
 10
-221.6397707393665
 20
-272.51355595222088
 30
0.0
 42
-0.2224824033526171
  0
VERTEX
  5
1418
  8
0
 10
-220.2580890634336
 20
-271.68490741365707
 30
0.0
  0
VERTEX
  5
1419
  8
0
 10
-213.27047015943381
 20
-270.96690675355421
 30
0.0
 42
0.0897571267653222
  0
VERTEX
  5
141A
  8
0
 10
-212.8941076207218
 20
-270.85809978812358
 30
0.0
 42
-0.2343875128359206
  0
VERTEX
  5
141B
  8
0
 10
-192.9866524139421
 20
-270.85809978812267
 30
0.0
 42
0.0897571267653104
  0
VERTEX
  5
141C
  8
0
 10
-192.61028987523
 20
-270.9669067535533
 30
0.0
  0
VERTEX
  5
141D
  8
0
 10
-185.62267097122751
 20
-271.68490741365849
 30
0.0
 42
-0.2224824033525961
  0
VERTEX
  5
141E
  8
0
 10
-184.24098929529509
 20
-272.51355595222191
 30
0.0
  0
VERTEX
  5
141F
  8
0
 10
-151.5201771471508
 20
-321.09506840821041
 30
0.0
 42
0.249507783146286
  0
VERTEX
  5
1420
  8
0
 10
-150.27605320858879
 20
-321.75712113928648
 30
0.0
  0
VERTEX
  5
1421
  8
0
 10
-109.0752445999059
 20
-321.75712113928648
 30
0.0
 42
0.1989123673796183
  0
VERTEX
  5
1422
  8
0
 10
-108.0145844281264
 20
-321.31778131106648
 30
0.0
  0
VERTEX
  5
1423
  8
0
 10
-107.01042137209051
 20
-320.313618255032
 30
0.0
 42
-0.1989123673795532
  0
VERTEX
  5
1424
  8
0
 10
-105.6669184878365
 20
-319.75712113928739
 30
0.0
  0
VERTEX
  5
1425
  8
0
 10
-73.909559174957678
 20
-319.75712113928739
 30
0.0
 42
-0.1989123673798818
  0
VERTEX
  5
1426
  8
0
 10
-72.566056290702065
 20
-320.31361825503382
 30
0.0
  0
VERTEX
  5
1427
  8
0
 10
-71.56189323466981
 20
-321.31778131106739
 30
0.0
 42
0.1989123673798122
  0
VERTEX
  5
1428
  8
0
 10
-70.501233062889582
 20
-321.7571211392883
 30
0.0
  0
VERTEX
  5
1429
  8
0
 10
-29.30042445420446
 20
-321.7571211392883
 30
0.0
 42
0.2495077831462699
  0
VERTEX
  5
142A
  8
0
 10
-28.05630051564259
 20
-321.09506840821223
 30
0.0
  0
VERTEX
  5
142B
  8
0
 10
4.6645116325011591
 20
-272.5135559522227
 30
0.0
 42
-0.2224824033526725
  0
VERTEX
  5
142C
  8
0
 10
6.0461933084338284
 20
-271.68490741365849
 30
0.0
  0
VERTEX
  5
142D
  8
0
 10
13.033812212435009
 20
-270.96690675355512
 30
0.0
 42
0.0897571267653191
  0
VERTEX
  5
142E
  8
0
 10
13.410174751147389
 20
-270.85809978812398
 30
0.0
 42
-0.234387512835926
  0
VERTEX
  5
142F
  8
0
 10
33.317629957926897
 20
-270.85809978812313
 30
0.0
 42
0.0897571267653119
  0
VERTEX
  5
1430
  8
0
 10
33.693992496639169
 20
-270.9669067535537
 30
0.0
  0
VERTEX
  5
1431
  8
0
 10
40.681611400641081
 20
-271.68490741365798
 30
0.0
 42
-0.2224824033526322
  0
VERTEX
  5
1432
  8
0
 10
42.0632930765737
 20
-272.51355595222191
 30
0.0
  0
VERTEX
  5
1433
  8
0
 10
74.784105224718076
 20
-321.09506840821223
 30
0.0
 42
0.2495077831462883
  0
VERTEX
  5
1434
  8
0
 10
76.028229163280059
 20
-321.7571211392883
 30
0.0
  0
VERTEX
  5
1435
  8
0
 10
117.2290377719638
 20
-321.75712113928648
 30
0.0
 42
0.198912367379832
  0
VERTEX
  5
1436
  8
0
 10
118.2896979437442
 20
-321.31778131106557
 30
0.0
  0
VERTEX
  5
1437
  8
0
 10
119.2938609997787
 20
-320.31361825503018
 30
0.0
 42
-0.1989123673797213
  0
VERTEX
  5
1438
  8
0
 10
120.6373638840335
 20
-319.75712113928472
 30
0.0
  0
VERTEX
  5
1439
  8
0
 10
152.39472319691191
 20
-319.7571211392883
 30
0.0
 42
-0.1989123673795765
  0
VERTEX
  5
143A
  8
0
 10
153.738226081166
 20
-320.31361825503291
 30
0.0
  0
VERTEX
  5
143B
  8
0
 10
154.7423891372014
 20
-321.31778131106739
 30
0.0
 42
0.1989123673796289
  0
VERTEX
  5
143C
  8
0
 10
155.80304930898089
 20
-321.75712113928739
 30
0.0
  0
VERTEX
  5
143D
  8
0
 10
197.00385791766499
 20
-321.75712113928739
 30
0.0
 42
0.2495077831462861
  0
VERTEX
  5
143E
  8
0
 10
198.247981856227
 20
-321.09506840821223
 30
0.0
  0
VERTEX
  5
143F
  8
0
 10
230.96879400436941
 20
-272.5135559522227
 30
0.0
 42
-0.2224824033527405
  0
VERTEX
  5
1440
  8
0
 10
232.35047568030251
 20
-271.68490741365849
 30
0.0
  0
VERTEX
  5
1441
  8
0
 10
239.33809458430301
 20
-270.96690675355558
 30
0.0
 42
0.089757126765326
  0
VERTEX
  5
1442
  8
0
 10
239.71445712301531
 20
-270.85809978812449
 30
0.0
 42
-0.2343875128359289
  0
VERTEX
  5
1443
  8
0
 10
259.62191232979461
 20
-270.85809978812358
 30
0.0
 42
0.0897571267652871
  0
VERTEX
  5
1444
  8
0
 10
259.99827486850688
 20
-270.96690675355421
 30
0.0
  0
VERTEX
  5
1445
  8
0
 10
266.98589377250931
 20
-271.6849074136594
 30
0.0
 42
-0.2224824033526099
  0
VERTEX
  5
1446
  8
0
 10
268.36757544844181
 20
-272.5135559522227
 30
0.0
  0
VERTEX
  5
1447
  8
0
 10
301.08838759658568
 20
-321.09506840821132
 30
0.0
 42
0.2495077831462682
  0
VERTEX
  5
1448
  8
0
 10
302.3325115351476
 20
-321.75712113928739
 30
0.0
  0
VERTEX
  5
1449
  8
0
 10
343.53332014382971
 20
-321.75712113928739
 30
0.0
 42
0.1989123673795797
  0
VERTEX
  5
144A
  8
0
 10
344.59398031560909
 20
-321.31778131106739
 30
0.0
  0
VERTEX
  5
144B
  8
0
 10
345.59814337164448
 20
-320.31361825503382
 30
0.0
 42
-0.1989123673795621
  0
VERTEX
  5
144C
  8
0
 10
346.9416462558986
 20
-319.75712113928921
 30
0.0
  0
VERTEX
  5
144D
  8
0
 10
378.69900556878002
 20
-319.75712113928739
 30
0.0
 42
-0.1989123673796508
  0
VERTEX
  5
144E
  8
0
 10
380.04250845303471
 20
-320.313618255032
 30
0.0
  0
VERTEX
  5
144F
  8
0
 10
381.04667150907022
 20
-321.3177813110683
 30
0.0
 42
0.1989123673796387
  0
VERTEX
  5
1450
  8
0
 10
382.10733168085
 20
-321.7571211392883
 30
0.0
  0
VERTEX
  5
1451
  8
0
 10
423.27452517252328
 20
-321.75712113928557
 30
0.0
 42
0.2495077831462734
  0
VERTEX
  5
1452
  8
0
 10
424.51864911108532
 20
-321.09506840821041
 30
0.0
  0
VERTEX
  5
1453
  8
0
 10
457.23946125922998
 20
-272.5135559522223
 30
0.0
 42
-0.2224824033526058
  0
VERTEX
  5
1454
  8
0
 10
458.62114293516242
 20
-271.684907413659
 30
0.0
  0
VERTEX
  5
1455
  8
0
 10
465.60876183916429
 20
-270.96690675355421
 30
0.0
 42
0.089757126765264
  0
VERTEX
  5
1456
  8
0
 10
465.98512437787639
 20
-270.85809978812358
 30
0.0
 42
-0.2343875128359195
  0
VERTEX
  5
1457
  8
0
 10
485.892579584656
 20
-270.85809978812449
 30
0.0
 42
0.0897571267653209
  0
VERTEX
  5
1458
  8
0
 10
486.26894212336811
 20
-270.96690675355512
 30
0.0
  0
VERTEX
  5
1459
  8
0
 10
493.24833826481182
 20
-271.68406249795407
 30
0.0
 42
-0.2319032102171848
  0
VERTEX
  5
145A
  8
0
 10
494.66703374557892
 20
-272.56984985027287
 30
0.0
  0
VERTEX
  5
145B
  8
0
 10
503.70668966528342
 20
-287.08808511525473
 30
0.0
 42
0.2896898633028527
  0
VERTEX
  5
145C
  8
0
 10
504.76559442117718
 20
-287.59953194612029
 30
0.0
 42
-0.6324555320337123
  0
VERTEX
  5
145D
  8
0
 10
507.05786676934918
 20
-291.28106026288111
 30
0.0
 42
0.2896898633027717
  0
VERTEX
  5
145E
  8
0
 10
507.04958683970062
 20
-292.45698057719761
 30
0.0
  0
VERTEX
  5
145F
  8
0
 10
508.02093051621711
 20
-294.01701739099639
 30
0.0
  0
VERTEX
  5
1460
  8
0
 10
507.68137175263553
 20
-294.22844077209447
 30
0.0
  0
VERTEX
  5
1461
  8
0
 10
506.71002807611882
 20
-292.66840395829558
 30
0.0
 42
-0.2896898633027756
  0
VERTEX
  5
1462
  8
0
 10
506.72131888927612
 20
-291.0648762569549
 30
0.0
 42
0.6324555320336783
  0
VERTEX
  5
1463
  8
0
 10
504.81109193246613
 20
-287.9969359929878
 30
0.0
 42
-0.2896898633028689
  0
VERTEX
  5
1464
  8
0
 10
503.36713090170178
 20
-287.2995084963527
 30
0.0
  0
VERTEX
  5
1465
  8
0
 10
494.32747498199728
 20
-272.78127323137102
 30
0.0
 42
0.2319032102171659
  0
VERTEX
  5
1466
  8
0
 10
493.20745223402309
 20
-272.0819674269087
 30
0.0
  0
VERTEX
  5
1467
  8
0
 10
486.22805609257972
 20
-271.36481168250981
 30
0.0
 42
-0.0897571267653088
  0
VERTEX
  5
1468
  8
0
 10
485.71483444888128
 20
-271.21643854783179
 30
0.0
 42
0.2343875128359194
  0
VERTEX
  5
1469
  8
0
 10
466.16286951365129
 20
-271.21643854783088
 30
0.0
 42
-0.0897571267652513
  0
VERTEX
  5
146A
  8
0
 10
465.64964786995301
 20
-271.36481168250879
 30
0.0
  0
VERTEX
  5
146B
  8
0
 10
458.66202896595092
 20
-272.08281234261358
 30
0.0
 42
0.2224824033525713
  0
VERTEX
  5
146C
  8
0
 10
457.57122764284651
 20
-272.73700855726929
 30
0.0
  0
VERTEX
  5
146D
  8
0
 10
424.85041549470179
 20
-321.3185210132574
 30
0.0
 42
-0.249507783146176
  0
VERTEX
  5
146E
  8
0
 10
423.2745251725234
 20
-322.15712113928612
 30
0.0
  0
SEQEND
  5
146F
  8
0
  0
INSERT
  5
1076
  8
0
  6
CONTINUOUS
  2
*U33
 10
0.0
 20
0.0
 30
0.0
  0
LINE
  5
1077
  8
0
  6
CONTINUOUS
 10
-705.0
 20
306.99999999999773
 30
0.0
 11
705.0
 21
307.00000000000051
 31
0.0
  0
LINE
  5
1078
  8
0
  6
CONTINUOUS
 10
-705.0
 20
294.99999999999818
 30
0.0
 11
705.0
 21
295.00000000000267
 31
0.0
  0
LINE
  5
1079
  8
0
  6
CONTINUOUS
 10
-705.0
 20
-0.0000000000022737
 30
0.0
 11
705.0
 21
0.0000000000022737
 31
0.0
  0
LINE
  5
107A
  8
0
  6
CONTINUOUS
 10
-705.0
 20
11.99999999999727
 30
0.0
 11
705.0
 21
12.00000000000227
 31
0.0
  0
LINE
  5
107B
  8
0
 10
499.7950828468837
 20
361.84999999998081
 30
0.0
 11
499.79508284685829
 21
347.14999999997639
 31
0.0
  0
ARC
  5
107C
  8
0
 10
482.29508284687108
 20
354.50000000000682
 30
0.0
 40
17.5
 50
343.73979529163802
 51
16.26020470813269
  0
ARC
  5
107D
  8
0
 10
495.15758284685938
 20
347.14999999998508
 30
0.0
 40
4.6374999999992541
 50
328.10920819805011
 51
31.890791801740011
  0
ARC
  5
107E
  8
0
 10
495.15758284688673
 20
361.84999999998939
 30
0.0
 40
4.6374999999992541
 50
328.10920819805011
 51
31.890791801740011
  0
LINE
  5
107F
  8
0
 10
499.09508284686308
 20
349.59999999998217
 30
0.0
 11
492.4950828468626
 21
349.599999999994
 31
0.0
  0
LINE
  5
1080
  8
0
 10
499.09508284687939
 20
359.39999999997781
 30
0.0
 11
492.49508284687909
 21
359.39999999998957
 31
0.0
  0
LINE
  5
1081
  8
0
 10
499.09508284688849
 20
364.29999999997932
 30
0.0
 11
492.49508284688812
 21
364.29999999999109
 31
0.0
  0
LINE
  5
1082
  8
0
 10
499.09508284685393
 20
344.69999999998072
 30
0.0
 11
492.49508284685362
 21
344.69999999999249
 31
0.0
  0
ARC
  5
1083
  8
0
 10
496.43258284688272
 20
361.84999999998672
 30
0.0
 40
4.6374999999992541
 50
148.10920819805
 51
211.89079180173999
  0
ARC
  5
1084
  8
0
 10
496.43258284685538
 20
347.1499999999823
 30
0.0
 40
4.6374999999992541
 50
148.10920819805
 51
211.89079180173999
  0
ARC
  5
1085
  8
0
 10
509.29508284686921
 20
354.49999999995771
 30
0.0
 40
17.5
 50
163.73979529163799
 51
196.26020470813259
  0
LINE
  5
1086
  8
0
 10
491.79508284688382
 20
361.84999999999542
 30
0.0
 11
491.79508284685829
 21
347.149999999991
 31
0.0
  0
LINE
  5
1087
  8
0
  6
COMM-10_TRANSSHT_MIDSPAN$1
 10
475.0416219360049
 20
354.4999999999809
 30
0.0
 11
522.18780988743674
 21
354.49999999997999
 31
0.0
  0
LINE
  5
1088
  8
0
 10
516.74508284685908
 20
347.14999999997099
 30
0.0
 11
516.74508284688454
 21
361.84999999997541
 31
0.0
  0
ARC
  5
1089
  8
0
 10
499.24508284687357
 20
354.50000000000858
 30
0.0
 40
17.5
 50
343.73979529163802
 51
16.26020470813269
  0
ARC
  5
108A
  8
0
 10
512.10758284688745
 20
361.84999999998399
 30
0.0
 40
4.6374999999992541
 50
328.10920819805011
 51
31.890791801740011
  0
ARC
  5
108B
  8
0
 10
512.10758284686005
 20
347.14999999997963
 30
0.0
 40
4.6374999999992541
 50
328.10920819805011
 51
31.890791801740011
  0
LINE
  5
108C
  8
0
 10
509.74508284686448
 20
349.59999999998809
 30
0.0
 11
516.04508284686381
 21
349.59999999997672
 31
0.0
  0
LINE
  5
108D
  8
0
 10
509.7450828468809
 20
359.39999999998372
 30
0.0
 11
516.04508284688006
 21
359.39999999997241
 31
0.0
  0
LINE
  5
108E
  8
0
 10
509.74508284685362
 20
344.69999999998657
 30
0.0
 11
516.04508284685471
 21
344.69999999997532
 31
0.0
  0
LINE
  5
108F
  8
0
 10
509.74508284685362
 20
344.69999999998657
 30
0.0
 11
509.74508284688989
 21
364.29999999998518
 31
0.0
  0
LINE
  5
1090
  8
0
 10
509.74508284688989
 20
364.29999999998518
 30
0.0
 11
516.04508284688916
 21
364.29999999997381
 31
0.0
  0
LINE
  5
1091
  8
0
 10
499.79508284685278
 20
344.41666666665469
 30
0.0
 11
500.21174951351708
 21
343.9999999999859
 31
0.0
  0
LINE
  5
1092
  8
0
 10
500.21174951351708
 20
343.9999999999859
 30
0.0
 11
502.29508284685102
 21
343.99999999998232
 31
0.0
  0
LINE
  5
1093
  8
0
 10
500.21174951355709
 20
364.9999999999859
 30
0.0
 11
502.29508284689109
 21
364.99999999998232
 31
0.0
  0
LINE
  5
1094
  8
0
 10
502.29508284685102
 20
343.99999999998232
 30
0.0
 11
502.29508284689109
 21
364.99999999998232
 31
0.0
  0
LINE
  5
1095
  8
0
 10
500.21174951351708
 20
343.9999999999859
 30
0.0
 11
500.21174951355709
 21
364.9999999999859
 31
0.0
  0
LINE
  5
1096
  8
0
 10
499.79508284688922
 20
364.58333333331899
 30
0.0
 11
500.21174951355709
 21
364.9999999999859
 31
0.0
  0
LINE
  5
1097
  8
0
 10
499.79508284685278
 20
344.41666666665469
 30
0.0
 11
499.79508284688922
 21
364.58333333331899
 31
0.0
  0
LINE
  5
1098
  8
0
  6
CONTINUOUS
 10
484.74508284686812
 20
358.49999999997681
 30
0.0
 11
491.79508284687103
 21
358.49999999997908
 31
0.0
  0
LINE
  5
1099
  8
0
  6
CONTINUOUS
 10
484.7450828468717
 20
350.49999999997863
 30
0.0
 11
491.79508284687103
 21
350.49999999997863
 31
0.0
  0
LINE
  5
109A
  8
0
  6
CONTINUOUS
 10
485.74508284687181
 20
349.49999999998499
 30
0.0
 11
485.74508284686817
 21
359.49999999997681
 31
0.0
  0
LINE
  5
109B
  8
0
  6
CONTINUOUS
 10
491.79508284687103
 20
359.49999999997863
 30
0.0
 11
485.74508284686817
 21
359.49999999997681
 31
0.0
  0
LINE
  5
109C
  8
0
  6
CONTINUOUS
 10
485.74508284686817
 20
359.49999999997681
 30
0.0
 11
484.74508284686812
 21
358.49999999997681
 31
0.0
  0
LINE
  5
109D
  8
0
  6
CONTINUOUS
 10
484.74508284686812
 20
358.49999999997681
 30
0.0
 11
484.7450828468717
 21
350.49999999997863
 31
0.0
  0
LINE
  5
109E
  8
0
  6
CONTINUOUS
 10
484.7450828468717
 20
350.49999999997863
 30
0.0
 11
485.74508284687181
 21
349.49999999997772
 31
0.0
  0
LINE
  5
109F
  8
0
  6
CONTINUOUS
 10
485.74508284687181
 20
349.49999999997772
 30
0.0
 11
491.79508284687472
 21
349.49999999997948
 31
0.0
  0
POLYLINE
  5
10A0
  8
0
  6
CONTINUOUS
 66
     1
 10
0.0
 20
0.0
 30
0.0
 70
     1
  0
VERTEX
  5
1474
  8
0
  6
CONTINUOUS
 10
440.74508284693911
 20
492.45000000003478
 30
0.0
  0
VERTEX
  5
1475
  8
0
  6
CONTINUOUS
 10
431.745082846939
 20
492.45000000004478
 30
0.0
 42
-0.4142135623731639
  0
VERTEX
  5
1476
  8
0
  6
CONTINUOUS
 10
430.1950828469416
 20
494.00000000004547
 30
0.0
  0
VERTEX
  5
1477
  8
0
  6
CONTINUOUS
 10
430.19508284695797
 20
513.00000000004536
 30
0.0
 42
-0.4142135623732497
  0
VERTEX
  5
1478
  8
0
  6
CONTINUOUS
 10
431.74508284695912
 20
514.5500000000452
 30
0.0
  0
VERTEX
  5
1479
  8
0
  6
CONTINUOUS
 10
500.74508284695912
 20
514.54999999998245
 30
0.0
 42
-0.4142135623731639
  0
VERTEX
  5
147A
  8
0
  6
CONTINUOUS
 10
502.29508284695652
 20
512.9999999999817
 30
0.0
  0
VERTEX
  5
147B
  8
0
  6
CONTINUOUS
 10
502.29508284690741
 20
457.82082523125058
 30
0.0
 42
-0.134335435270608
  0
VERTEX
  5
147C
  8
0
  6
CONTINUOUS
 10
502.0791751885281
 20
457.03171331014522
 30
0.0
  0
VERTEX
  5
147D
  8
0
  6
CONTINUOUS
 10
496.36494676934302
 20
444.91968963898938
 30
0.0
 42
0.134335435270612
  0
VERTEX
  5
147E
  8
0
  6
CONTINUOUS
 10
495.74508284689358
 20
442.65417476871738
 30
0.0
  0
VERTEX
  5
147F
  8
0
  6
CONTINUOUS
 10
495.74508284688631
 20
434.32045987722671
 30
0.0
 42
0.1303248880248262
  0
VERTEX
  5
1480
  8
0
  6
CONTINUOUS
 10
496.32970596633822
 20
432.11561031969347
 30
0.0
  0
VERTEX
  5
1481
  8
0
  6
CONTINUOUS
 10
502.09145007492771
 20
419.47252142930301
 30
0.0
 42
-0.1303248880247047
  0
VERTEX
  5
1482
  8
0
  6
CONTINUOUS
 10
502.29508284687108
 20
418.70454012274411
 30
0.0
  0
VERTEX
  5
1483
  8
0
  6
CONTINUOUS
 10
502.29508284686381
 20
410.2954598772194
 30
0.0
 42
-0.130324888024651
  0
VERTEX
  5
1484
  8
0
  6
CONTINUOUS
 10
502.09145007491861
 20
409.52747857066061
 30
0.0
  0
VERTEX
  5
1485
  8
0
  6
CONTINUOUS
 10
496.32970596630543
 20
396.88438968028089
 30
0.0
 42
0.1303248880248428
  0
VERTEX
  5
1486
  8
0
  6
CONTINUOUS
 10
495.74508284684811
 20
394.6795401227505
 30
0.0
  0
VERTEX
  5
1487
  8
0
  6
CONTINUOUS
 10
495.74508284684453
 20
386.345825231258
 30
0.0
 42
0.1343354352696578
  0
VERTEX
  5
1488
  8
0
  6
CONTINUOUS
 10
496.36494676928851
 20
384.08031036098868
 30
0.0
  0
VERTEX
  5
1489
  8
0
  6
CONTINUOUS
 10
502.07917518844982
 20
371.9682866898147
 30
0.0
 42
-0.1343354352705928
  0
VERTEX
  5
148A
  8
0
  6
CONTINUOUS
 10
502.29508284682919
 20
371.17917476871298
 30
0.0
  0
VERTEX
  5
148B
  8
0
  6
CONTINUOUS
 10
502.29508284678008
 20
315.99999999998181
 30
0.0
 42
-0.4142135623732497
  0
VERTEX
  5
148C
  8
0
  6
CONTINUOUS
 10
500.74508284677898
 20
314.44999999998032
 30
0.0
  0
VERTEX
  5
148D
  8
0
  6
CONTINUOUS
 10
431.74508284677722
 20
314.45000000004478
 30
0.0
 42
-0.4142135623731639
  0
VERTEX
  5
148E
  8
0
  6
CONTINUOUS
 10
430.19508284677983
 20
316.00000000004547
 30
0.0
  0
VERTEX
  5
148F
  8
0
  6
CONTINUOUS
 10
430.19508284679608
 20
335.00000000004547
 30
0.0
 42
-0.4142135623732497
  0
VERTEX
  5
1490
  8
0
  6
CONTINUOUS
 10
431.74508284679717
 20
336.5500000000452
 30
0.0
  0
VERTEX
  5
1491
  8
0
  6
CONTINUOUS
 10
440.74508284679899
 20
336.5500000000352
 30
0.0
  0
VERTEX
  5
1492
  8
0
  6
CONTINUOUS
 10
440.74508284679899
 20
338.00000000003593
 30
0.0
  0
VERTEX
  5
1493
  8
0
  6
CONTINUOUS
 10
431.74508284679899
 20
338.00000000004411
 30
0.0
 42
0.4142135623730951
  0
VERTEX
  5
1494
  8
0
  6
CONTINUOUS
 10
428.74508284679541
 20
335.0000000000469
 30
0.0
  0
VERTEX
  5
1495
  8
0
  6
CONTINUOUS
 10
428.74508284677898
 20
316.0000000000469
 30
0.0
 42
0.4142135623730951
  0
VERTEX
  5
1496
  8
0
  6
CONTINUOUS
 10
431.74508284677529
 20
313.00000000004411
 30
0.0
  0
VERTEX
  5
1497
  8
0
  6
CONTINUOUS
 10
500.74508284677722
 20
312.99999999998317
 30
0.0
 42
0.4142135623730996
  0
VERTEX
  5
1498
  8
0
  6
CONTINUOUS
 10
503.7450828467808
 20
315.9999999999805
 30
0.0
  0
VERTEX
  5
1499
  8
0
  6
CONTINUOUS
 10
503.7450828468281
 20
371.17917476870798
 30
0.0
 42
0.1343354352702132
  0
VERTEX
  5
149A
  8
0
  6
CONTINUOUS
 10
503.32719705641648
 20
372.7064881643991
 30
0.0
  0
VERTEX
  5
149B
  8
0
  6
CONTINUOUS
 10
497.61296863725693
 20
384.8185118355691
 30
0.0
 42
-0.1343354352701499
  0
VERTEX
  5
149C
  8
0
  6
CONTINUOUS
 10
497.19508284684338
 20
386.34582523125658
 30
0.0
  0
VERTEX
  5
149D
  8
0
  6
CONTINUOUS
 10
497.19508284684889
 20
394.67954012275101
 30
0.0
 42
-0.1303248880250478
  0
VERTEX
  5
149E
  8
0
  6
CONTINUOUS
 10
497.58921079255009
 20
396.16595555479262
 30
0.0
  0
VERTEX
  5
149F
  8
0
  6
CONTINUOUS
 10
503.35095490116328
 20
408.80904444517267
 30
0.0
 42
0.1303248880250151
  0
VERTEX
  5
14A0
  8
0
  6
CONTINUOUS
 10
503.74508284686448
 20
410.29545987721798
 30
0.0
  0
VERTEX
  5
14A1
  8
0
  6
CONTINUOUS
 10
503.74508284687181
 20
418.7045401227428
 30
0.0
 42
0.1303248880249826
  0
VERTEX
  5
14A2
  8
0
  6
CONTINUOUS
 10
503.35095490117419
 20
420.19095555478901
 30
0.0
  0
VERTEX
  5
14A3
  8
0
  6
CONTINUOUS
 10
497.58921079258459
 20
432.83404444517907
 30
0.0
 42
-0.1303248880250137
  0
VERTEX
  5
14A4
  8
0
  6
CONTINUOUS
 10
497.19508284688533
 20
434.3204598772254
 30
0.0
  0
VERTEX
  5
14A5
  8
0
  6
CONTINUOUS
 10
497.19508284689431
 20
442.65417476871602
 30
0.0
 42
-0.1343354352702561
  0
VERTEX
  5
14A6
  8
0
  6
CONTINUOUS
 10
497.6129686373078
 20
444.18148816440629
 30
0.0
  0
VERTEX
  5
14A7
  8
0
  6
CONTINUOUS
 10
503.32719705649282
 20
456.29351183556258
 30
0.0
 42
0.1343354352702699
  0
VERTEX
  5
14A8
  8
0
  6
CONTINUOUS
 10
503.74508284690819
 20
457.82082523124922
 30
0.0
  0
VERTEX
  5
14A9
  8
0
  6
CONTINUOUS
 10
503.74508284695719
 20
512.99999999998045
 30
0.0
 42
0.4142135623730951
  0
VERTEX
  5
14AA
  8
0
  6
CONTINUOUS
 10
500.74508284696088
 20
515.99999999998317
 30
0.0
  0
VERTEX
  5
14AB
  8
0
  6
CONTINUOUS
 10
431.74508284696088
 20
516.00000000004411
 30
0.0
 42
0.4142135623730951
  0
VERTEX
  5
14AC
  8
0
  6
CONTINUOUS
 10
428.74508284695719
 20
513.00000000004684
 30
0.0
  0
VERTEX
  5
14AD
  8
0
  6
CONTINUOUS
 10
428.74508284694087
 20
494.00000000004678
 30
0.0
 42
0.414213562373084
  0
VERTEX
  5
14AE
  8
0
  6
CONTINUOUS
 10
431.74508284693729
 20
491.00000000004411
 30
0.0
  0
VERTEX
  5
14AF
  8
0
  6
CONTINUOUS
 10
440.74508284693911
 20
491.00000000003581
 30
0.0
  0
SEQEND
  5
14B0
  8
0
  6
CONTINUOUS
  0
POLYLINE
  5
10A1
  8
0
  6
CONTINUOUS
 66
     1
 10
0.0
 20
0.0
 30
0.0
 70
   129
  0
VERTEX
  5
14B1
  8
0
  6
CONTINUOUS
 10
503.74508284686812
 20
494.49999999998039
 30
0.0
  0
VERTEX
  5
14B2
  8
0
  6
CONTINUOUS
 10
509.7450828468717
 20
494.49999999998039
 30
0.0
  0
VERTEX
  5
14B3
  8
0
  6
CONTINUOUS
 10
509.74508284686812
 20
307.00000000000591
 30
0.0
  0
VERTEX
  5
14B4
  8
0
  6
CONTINUOUS
 10
503.74508284686812
 20
307.000000000005
 30
0.0
  0
SEQEND
  5
14B5
  8
0
  6
CONTINUOUS
  0
LINE
  5
10A2
  8
0
  6
CONTINUOUS
 10
485.74508284686817
 20
469.49999999997681
 30
0.0
 11
491.79508284686739
 21
469.49999999997772
 31
0.0
  0
LINE
  5
10A3
  8
0
  6
CONTINUOUS
 10
484.7450828468717
 20
470.49999999997721
 30
0.0
 11
485.74508284686817
 21
469.49999999997681
 31
0.0
  0
LINE
  5
10A4
  8
0
  6
CONTINUOUS
 10
484.74508284687539
 20
478.4999999999759
 30
0.0
 11
484.7450828468717
 21
470.49999999997721
 31
0.0
  0
LINE
  5
10A5
  8
0
  6
CONTINUOUS
 10
485.74508284687181
 20
479.4999999999759
 30
0.0
 11
484.74508284687539
 21
478.4999999999759
 31
0.0
  0
LINE
  5
10A6
  8
0
  6
CONTINUOUS
 10
491.79508284686739
 20
479.4999999999776
 30
0.0
 11
485.74508284687181
 21
479.4999999999759
 31
0.0
  0
LINE
  5
10A7
  8
0
  6
CONTINUOUS
 10
485.74508284686817
 20
469.49999999998408
 30
0.0
 11
485.74508284687181
 21
479.4999999999759
 31
0.0
  0
LINE
  5
10A8
  8
0
  6
CONTINUOUS
 10
484.7450828468717
 20
470.49999999997721
 30
0.0
 11
491.79508284686739
 21
470.49999999997772
 31
0.0
  0
LINE
  5
10A9
  8
0
  6
CONTINUOUS
 10
484.74508284687539
 20
478.4999999999759
 30
0.0
 11
491.79508284686739
 21
478.49999999997812
 31
0.0
  0
LINE
  5
10AA
  8
0
 10
499.79508284685278
 20
464.41666666665378
 30
0.0
 11
500.21174951351708
 21
463.99999999998499
 31
0.0
  0
LINE
  5
10AB
  8
0
 10
500.21174951351708
 20
463.99999999998499
 30
0.0
 11
502.29508284685102
 21
463.99999999998141
 31
0.0
  0
LINE
  5
10AC
  8
0
 10
500.21174951355709
 20
484.99999999998499
 30
0.0
 11
502.29508284689109
 21
484.99999999998141
 31
0.0
  0
LINE
  5
10AD
  8
0
 10
502.29508284685102
 20
463.99999999998141
 30
0.0
 11
502.29508284689109
 21
484.99999999998141
 31
0.0
  0
LINE
  5
10AE
  8
0
 10
500.21174951351708
 20
463.99999999998499
 30
0.0
 11
500.21174951355709
 21
484.99999999998499
 31
0.0
  0
LINE
  5
10AF
  8
0
 10
499.79508284688922
 20
484.58333333331802
 30
0.0
 11
500.21174951355709
 21
484.99999999998499
 31
0.0
  0
LINE
  5
10B0
  8
0
 10
499.79508284685278
 20
464.41666666665378
 30
0.0
 11
499.79508284688922
 21
484.58333333331802
 31
0.0
  0
LINE
  5
10B1
  8
0
 10
516.74508284685908
 20
467.14999999996962
 30
0.0
 11
516.74508284688454
 21
481.84999999997387
 31
0.0
  0
ARC
  5
10B2
  8
0
 10
499.24508284687357
 20
474.50000000000722
 30
0.0
 40
17.5
 50
343.73979529163802
 51
16.26020470813269
  0
ARC
  5
10B3
  8
0
 10
512.10758284688745
 20
481.84999999998257
 30
0.0
 40
4.6374999999992541
 50
328.10920819805011
 51
31.890791801740011
  0
ARC
  5
10B4
  8
0
 10
512.10758284686005
 20
467.14999999997821
 30
0.0
 40
4.6374999999992541
 50
328.10920819805011
 51
31.890791801740011
  0
LINE
  5
10B5
  8
0
 10
509.74508284686448
 20
469.59999999998672
 30
0.0
 11
516.04508284686381
 21
469.5999999999753
 31
0.0
  0
LINE
  5
10B6
  8
0
 10
509.7450828468809
 20
479.3999999999823
 30
0.0
 11
516.04508284688006
 21
479.39999999997099
 31
0.0
  0
LINE
  5
10B7
  8
0
 10
509.74508284685362
 20
464.69999999998521
 30
0.0
 11
516.04508284685471
 21
464.6999999999739
 31
0.0
  0
LINE
  5
10B8
  8
0
 10
509.74508284685362
 20
464.69999999998521
 30
0.0
 11
509.74508284688989
 21
484.29999999998381
 31
0.0
  0
LINE
  5
10B9
  8
0
 10
509.74508284688989
 20
484.29999999998381
 30
0.0
 11
516.04508284688916
 21
484.29999999997239
 31
0.0
  0
LINE
  5
10BA
  8
0
  6
COMM-10_TRANSSHT_MIDSPAN$1
 10
475.0416219360086
 20
474.49999999997999
 30
0.0
 11
522.1878098874331
 21
474.4999999999809
 31
0.0
  0
LINE
  5
10BB
  8
0
 10
499.7950828468874
 20
481.8499999999799
 30
0.0
 11
499.79508284686199
 21
467.14999999997548
 31
0.0
  0
ARC
  5
10BC
  8
0
 10
482.29508284687472
 20
474.50000000000591
 30
0.0
 40
17.5
 50
343.73979529163802
 51
16.26020470813269
  0
ARC
  5
10BD
  8
0
 10
495.15758284686302
 20
467.14999999998412
 30
0.0
 40
4.6374999999992541
 50
328.10920819805011
 51
31.890791801740011
  0
ARC
  5
10BE
  8
0
 10
495.15758284689031
 20
481.84999999998848
 30
0.0
 40
4.6374999999992541
 50
328.10920819805011
 51
31.890791801740011
  0
LINE
  5
10BF
  8
0
 10
499.09508284686672
 20
469.59999999998121
 30
0.0
 11
492.4950828468663
 21
469.59999999999309
 31
0.0
  0
LINE
  5
10C0
  8
0
 10
499.09508284688309
 20
479.39999999997679
 30
0.0
 11
492.49508284688272
 21
479.39999999998872
 31
0.0
  0
LINE
  5
10C1
  8
0
 10
499.09508284689213
 20
484.2999999999783
 30
0.0
 11
492.49508284689182
 21
484.29999999999018
 31
0.0
  0
LINE
  5
10C2
  8
0
 10
499.09508284685762
 20
464.69999999997981
 30
0.0
 11
492.4950828468572
 21
464.69999999999158
 31
0.0
  0
ARC
  5
10C3
  8
0
 10
496.43258284688631
 20
481.84999999998581
 30
0.0
 40
4.6374999999992541
 50
148.10920819805
 51
211.89079180173999
  0
ARC
  5
10C4
  8
0
 10
496.43258284685908
 20
467.14999999998139
 30
0.0
 40
4.6374999999992541
 50
148.10920819805
 51
211.89079180173999
  0
ARC
  5
10C5
  8
0
 10
509.2950828468729
 20
474.4999999999568
 30
0.0
 40
17.5
 50
163.73979529163799
 51
196.26020470813259
  0
LINE
  5
10C6
  8
0
 10
491.7950828468874
 20
481.8499999999944
 30
0.0
 11
491.79508284686199
 21
467.14999999999009
 31
0.0
  0
LINE
  5
10C7
  8
0
 10
-506.20491715310879
 20
481.84999999997939
 30
0.0
 11
-506.20491715313432
 21
467.14999999997508
 31
0.0
  0
ARC
  5
10C8
  8
0
 10
-523.70491715312164
 20
474.5000000000054
 30
0.0
 40
17.5
 50
343.73979529163802
 51
16.26020470813269
  0
ARC
  5
10C9
  8
0
 10
-510.84241715313323
 20
467.14999999998372
 30
0.0
 40
4.6374999999992541
 50
328.10920819805011
 51
31.890791801740011
  0
ARC
  5
10CA
  8
0
 10
-510.84241715310588
 20
481.84999999998809
 30
0.0
 40
4.6374999999992541
 50
328.10920819805011
 51
31.890791801740011
  0
LINE
  5
10CB
  8
0
 10
-506.90491715312959
 20
469.5999999999807
 30
0.0
 11
-513.5049171531299
 21
469.59999999999258
 31
0.0
  0
LINE
  5
10CC
  8
0
 10
-506.90491715311322
 20
479.39999999997639
 30
0.0
 11
-513.50491715311364
 21
479.39999999998821
 31
0.0
  0
LINE
  5
10CD
  8
0
 10
-506.90491715310412
 20
484.29999999997779
 30
0.0
 11
-513.50491715310454
 21
484.29999999998961
 31
0.0
  0
LINE
  5
10CE
  8
0
 10
-506.90491715313868
 20
464.6999999999793
 30
0.0
 11
-513.5049171531391
 21
464.69999999999118
 31
0.0
  0
ARC
  5
10CF
  8
0
 10
-509.56741715311
 20
481.8499999999853
 30
0.0
 40
4.6374999999992541
 50
148.10920819805
 51
211.89079180173999
  0
ARC
  5
10D0
  8
0
 10
-509.56741715313723
 20
467.14999999998088
 30
0.0
 40
4.6374999999992541
 50
148.10920819805
 51
211.89079180173999
  0
ARC
  5
10D1
  8
0
 10
-496.7049171531234
 20
474.49999999995629
 30
0.0
 40
17.5
 50
163.73979529163799
 51
196.26020470813259
  0
LINE
  5
10D2
  8
0
 10
-514.20491715310879
 20
481.84999999999388
 30
0.0
 11
-514.20491715313426
 21
467.14999999998957
 31
0.0
  0
LINE
  5
10D3
  8
0
  6
COMM-10_TRANSSHT_MIDSPAN$1
 10
-530.9583780639914
 20
474.49999999997948
 30
0.0
 11
-483.81219011255962
 21
474.49999999997948
 31
0.0
  0
LINE
  5
10D4
  8
0
 10
-489.25491715313723
 20
467.14999999996962
 30
0.0
 11
-489.25491715311182
 21
481.84999999997387
 31
0.0
  0
ARC
  5
10D5
  8
0
 10
-506.75491715312268
 20
474.50000000000722
 30
0.0
 40
17.5
 50
343.73979529163802
 51
16.26020470813269
  0
ARC
  5
10D6
  8
0
 10
-493.89241715310879
 20
481.84999999998257
 30
0.0
 40
4.6374999999992541
 50
328.10920819805011
 51
31.890791801740011
  0
ARC
  5
10D7
  8
0
 10
-493.89241715313608
 20
467.14999999997821
 30
0.0
 40
4.6374999999992541
 50
328.10920819805011
 51
31.890791801740011
  0
LINE
  5
10D8
  8
0
 10
-496.25491715313183
 20
469.59999999998672
 30
0.0
 11
-489.9549171531325
 21
469.5999999999753
 31
0.0
  0
LINE
  5
10D9
  8
0
 10
-496.2549171531154
 20
479.3999999999823
 30
0.0
 11
-489.95491715311618
 21
479.39999999997099
 31
0.0
  0
LINE
  5
10DA
  8
0
 10
-496.25491715314269
 20
464.69999999998521
 30
0.0
 11
-489.95491715314171
 21
464.6999999999739
 31
0.0
  0
LINE
  5
10DB
  8
0
 10
-496.25491715314269
 20
464.69999999998521
 30
0.0
 11
-496.25491715310642
 21
484.29999999998381
 31
0.0
  0
LINE
  5
10DC
  8
0
 10
-496.25491715310642
 20
484.29999999998381
 30
0.0
 11
-489.95491715310698
 21
484.29999999997239
 31
0.0
  0
LINE
  5
10DD
  8
0
 10
-506.20491715314341
 20
464.41666666665378
 30
0.0
 11
-505.78825048647911
 21
463.99999999998499
 31
0.0
  0
LINE
  5
10DE
  8
0
 10
-505.78825048647911
 20
463.99999999998499
 30
0.0
 11
-503.70491715314517
 21
463.99999999998141
 31
0.0
  0
LINE
  5
10DF
  8
0
 10
-505.78825048643921
 20
484.99999999998499
 30
0.0
 11
-503.70491715310533
 21
484.99999999998141
 31
0.0
  0
LINE
  5
10E0
  8
0
 10
-503.70491715314517
 20
463.99999999998141
 30
0.0
 11
-503.70491715310533
 21
484.99999999998141
 31
0.0
  0
LINE
  5
10E1
  8
0
 10
-505.78825048647911
 20
463.99999999998499
 30
0.0
 11
-505.78825048643921
 21
484.99999999998499
 31
0.0
  0
LINE
  5
10E2
  8
0
 10
-506.20491715310709
 20
484.58333333331802
 30
0.0
 11
-505.78825048643921
 21
484.99999999998499
 31
0.0
  0
LINE
  5
10E3
  8
0
 10
-506.20491715314341
 20
464.41666666665378
 30
0.0
 11
-506.20491715310709
 21
484.58333333331802
 31
0.0
  0
LINE
  5
10E4
  8
0
  6
CONTINUOUS
 10
-521.25491715312455
 20
478.4999999999759
 30
0.0
 11
-514.20491715312892
 21
478.49999999997681
 31
0.0
  0
LINE
  5
10E5
  8
0
  6
CONTINUOUS
 10
-521.25491715312808
 20
470.4999999999759
 30
0.0
 11
-514.20491715312528
 21
470.49999999997721
 31
0.0
  0
LINE
  5
10E6
  8
0
  6
CONTINUOUS
 10
-520.25491715312455
 20
469.49999999998312
 30
0.0
 11
-520.25491715312808
 21
479.4999999999759
 31
0.0
  0
LINE
  5
10E7
  8
0
  6
CONTINUOUS
 10
-514.20491715312528
 20
479.49999999997721
 30
0.0
 11
-520.25491715312808
 21
479.4999999999759
 31
0.0
  0
LINE
  5
10E8
  8
0
  6
CONTINUOUS
 10
-520.25491715312808
 20
479.4999999999759
 30
0.0
 11
-521.25491715312455
 21
478.4999999999759
 31
0.0
  0
LINE
  5
10E9
  8
0
  6
CONTINUOUS
 10
-521.25491715312455
 20
478.4999999999759
 30
0.0
 11
-521.25491715312808
 21
470.4999999999759
 31
0.0
  0
LINE
  5
10EA
  8
0
  6
CONTINUOUS
 10
-521.25491715312808
 20
470.4999999999759
 30
0.0
 11
-520.25491715312455
 21
469.49999999997641
 31
0.0
  0
LINE
  5
10EB
  8
0
  6
CONTINUOUS
 10
-520.25491715312455
 20
469.49999999997641
 30
0.0
 11
-514.20491715312892
 21
469.49999999997681
 31
0.0
  0
POLYLINE
  5
10EC
  8
0
  6
CONTINUOUS
 66
     1
 10
0.0
 20
0.0
 30
0.0
 70
   129
  0
VERTEX
  5
14B6
  8
0
  6
CONTINUOUS
 10
-502.25491715312819
 20
494.49999999997999
 30
0.0
  0
VERTEX
  5
14B7
  8
0
  6
CONTINUOUS
 10
-496.2549171531245
 20
494.49999999997902
 30
0.0
  0
VERTEX
  5
14B8
  8
0
  6
CONTINUOUS
 10
-496.25491715313183
 20
307.0000000000054
 30
0.0
  0
VERTEX
  5
14B9
  8
0
  6
CONTINUOUS
 10
-502.25491715312819
 20
307.00000000000591
 30
0.0
  0
SEQEND
  5
14BA
  8
0
  6
CONTINUOUS
  0
POLYLINE
  5
10ED
  8
0
  6
CONTINUOUS
 66
     1
 10
0.0
 20
0.0
 30
0.0
 70
     1
  0
VERTEX
  5
14BB
  8
0
  6
CONTINUOUS
 10
-565.25491715305361
 20
492.45000000003478
 30
0.0
  0
VERTEX
  5
14BC
  8
0
  6
CONTINUOUS
 10
-574.2549171530535
 20
492.45000000004478
 30
0.0
 42
-0.4142135623731639
  0
VERTEX
  5
14BD
  8
0
  6
CONTINUOUS
 10
-575.80491715305095
 20
494.00000000004547
 30
0.0
  0
VERTEX
  5
14BE
  8
0
  6
CONTINUOUS
 10
-575.80491715303469
 20
513.00000000004536
 30
0.0
 42
-0.4142135623732497
  0
VERTEX
  5
14BF
  8
0
  6
CONTINUOUS
 10
-574.2549171530336
 20
514.5500000000452
 30
0.0
  0
VERTEX
  5
14C0
  8
0
  6
CONTINUOUS
 10
-505.2549171530336
 20
514.54999999998245
 30
0.0
 42
-0.4142135623731639
  0
VERTEX
  5
14C1
  8
0
  6
CONTINUOUS
 10
-503.70491715303621
 20
512.9999999999817
 30
0.0
  0
VERTEX
  5
14C2
  8
0
  6
CONTINUOUS
 10
-503.7049171530852
 20
457.82082523125058
 30
0.0
 42
-0.134335435270608
  0
VERTEX
  5
14C3
  8
0
  6
CONTINUOUS
 10
-503.92082481146463
 20
457.03171331014522
 30
0.0
  0
VERTEX
  5
14C4
  8
0
  6
CONTINUOUS
 10
-509.63505323064959
 20
444.91968963898938
 30
0.0
 42
0.134335435270612
  0
VERTEX
  5
14C5
  8
0
  6
CONTINUOUS
 10
-510.25491715309897
 20
442.65417476871738
 30
0.0
  0
VERTEX
  5
14C6
  8
0
  6
CONTINUOUS
 10
-510.25491715310631
 20
434.32045987722671
 30
0.0
 42
0.1303248880248262
  0
VERTEX
  5
14C7
  8
0
  6
CONTINUOUS
 10
-509.6702940336545
 20
432.11561031969347
 30
0.0
  0
VERTEX
  5
14C8
  8
0
  6
CONTINUOUS
 10
-503.90854992506502
 20
419.47252142930301
 30
0.0
 42
-0.1303248880247047
  0
VERTEX
  5
14C9
  8
0
  6
CONTINUOUS
 10
-503.70491715312158
 20
418.70454012274411
 30
0.0
  0
VERTEX
  5
14CA
  8
0
  6
CONTINUOUS
 10
-503.70491715312892
 20
410.2954598772194
 30
0.0
 42
-0.130324888024651
  0
VERTEX
  5
14CB
  8
0
  6
CONTINUOUS
 10
-503.90854992507411
 20
409.52747857066061
 30
0.0
  0
VERTEX
  5
14CC
  8
0
  6
CONTINUOUS
 10
-509.67029403368718
 20
396.88438968028089
 30
0.0
 42
0.1303248880248428
  0
VERTEX
  5
14CD
  8
0
  6
CONTINUOUS
 10
-510.2549171531445
 20
394.6795401227505
 30
0.0
  0
VERTEX
  5
14CE
  8
0
  6
CONTINUOUS
 10
-510.2549171531482
 20
386.345825231258
 30
0.0
 42
0.1343354352696578
  0
VERTEX
  5
14CF
  8
0
  6
CONTINUOUS
 10
-509.63505323070422
 20
384.08031036098868
 30
0.0
  0
VERTEX
  5
14D0
  8
0
  6
CONTINUOUS
 10
-503.92082481154279
 20
371.9682866898147
 30
0.0
 42
-0.1343354352705928
  0
VERTEX
  5
14D1
  8
0
  6
CONTINUOUS
 10
-503.70491715316342
 20
371.17917476871298
 30
0.0
  0
VERTEX
  5
14D2
  8
0
  6
CONTINUOUS
 10
-503.70491715321248
 20
315.99999999998181
 30
0.0
 42
-0.4142135623732497
  0
VERTEX
  5
14D3
  8
0
  6
CONTINUOUS
 10
-505.25491715321363
 20
314.44999999998032
 30
0.0
  0
VERTEX
  5
14D4
  8
0
  6
CONTINUOUS
 10
-574.2549171532155
 20
314.45000000004478
 30
0.0
 42
-0.4142135623731639
  0
VERTEX
  5
14D5
  8
0
  6
CONTINUOUS
 10
-575.80491715321295
 20
316.00000000004547
 30
0.0
  0
VERTEX
  5
14D6
  8
0
  6
CONTINUOUS
 10
-575.80491715319658
 20
335.00000000004547
 30
0.0
 42
-0.4142135623732497
  0
VERTEX
  5
14D7
  8
0
  6
CONTINUOUS
 10
-574.25491715319549
 20
336.5500000000452
 30
0.0
  0
VERTEX
  5
14D8
  8
0
  6
CONTINUOUS
 10
-565.25491715319356
 20
336.5500000000352
 30
0.0
  0
VERTEX
  5
14D9
  8
0
  6
CONTINUOUS
 10
-565.25491715319356
 20
338.00000000003593
 30
0.0
  0
VERTEX
  5
14DA
  8
0
  6
CONTINUOUS
 10
-574.25491715319356
 20
338.00000000004411
 30
0.0
 42
0.4142135623730951
  0
VERTEX
  5
14DB
  8
0
  6
CONTINUOUS
 10
-577.25491715319731
 20
335.0000000000469
 30
0.0
  0
VERTEX
  5
14DC
  8
0
  6
CONTINUOUS
 10
-577.25491715321357
 20
316.0000000000469
 30
0.0
 42
0.4142135623730951
  0
VERTEX
  5
14DD
  8
0
  6
CONTINUOUS
 10
-574.25491715321732
 20
313.00000000004411
 30
0.0
  0
VERTEX
  5
14DE
  8
0
  6
CONTINUOUS
 10
-505.2549171532155
 20
312.99999999998317
 30
0.0
 42
0.4142135623730996
  0
VERTEX
  5
14DF
  8
0
  6
CONTINUOUS
 10
-502.25491715321181
 20
315.9999999999805
 30
0.0
  0
VERTEX
  5
14E0
  8
0
  6
CONTINUOUS
 10
-502.25491715316451
 20
371.17917476870798
 30
0.0
 42
0.1343354352702132
  0
VERTEX
  5
14E1
  8
0
  6
CONTINUOUS
 10
-502.67280294357619
 20
372.7064881643991
 30
0.0
  0
VERTEX
  5
14E2
  8
0
  6
CONTINUOUS
 10
-508.38703136273568
 20
384.8185118355691
 30
0.0
 42
-0.1343354352701499
  0
VERTEX
  5
14E3
  8
0
  6
CONTINUOUS
 10
-508.80491715314918
 20
386.34582523125658
 30
0.0
  0
VERTEX
  5
14E4
  8
0
  6
CONTINUOUS
 10
-508.80491715314378
 20
394.67954012275101
 30
0.0
 42
-0.1303248880250478
  0
VERTEX
  5
14E5
  8
0
  6
CONTINUOUS
 10
-508.41078920744258
 20
396.16595555479262
 30
0.0
  0
VERTEX
  5
14E6
  8
0
  6
CONTINUOUS
 10
-502.64904509882939
 20
408.80904444517267
 30
0.0
 42
0.1303248880250151
  0
VERTEX
  5
14E7
  8
0
  6
CONTINUOUS
 10
-502.25491715312819
 20
410.29545987721798
 30
0.0
  0
VERTEX
  5
14E8
  8
0
  6
CONTINUOUS
 10
-502.25491715312091
 20
418.7045401227428
 30
0.0
 42
0.1303248880249826
  0
VERTEX
  5
14E9
  8
0
  6
CONTINUOUS
 10
-502.64904509881848
 20
420.19095555478901
 30
0.0
  0
VERTEX
  5
14EA
  8
0
  6
CONTINUOUS
 10
-508.4107892074079
 20
432.83404444517907
 30
0.0
 42
-0.1303248880250137
  0
VERTEX
  5
14EB
  8
0
  6
CONTINUOUS
 10
-508.8049171531074
 20
434.3204598772254
 30
0.0
  0
VERTEX
  5
14EC
  8
0
  6
CONTINUOUS
 10
-508.8049171530983
 20
442.65417476871602
 30
0.0
 42
-0.1343354352702561
  0
VERTEX
  5
14ED
  8
0
  6
CONTINUOUS
 10
-508.38703136268492
 20
444.18148816440629
 30
0.0
  0
VERTEX
  5
14EE
  8
0
  6
CONTINUOUS
 10
-502.67280294349979
 20
456.29351183556258
 30
0.0
 42
0.1343354352702699
  0
VERTEX
  5
14EF
  8
0
  6
CONTINUOUS
 10
-502.25491715308448
 20
457.82082523124922
 30
0.0
  0
VERTEX
  5
14F0
  8
0
  6
CONTINUOUS
 10
-502.25491715303542
 20
512.99999999998045
 30
0.0
 42
0.4142135623730951
  0
VERTEX
  5
14F1
  8
0
  6
CONTINUOUS
 10
-505.25491715303173
 20
515.99999999998317
 30
0.0
  0
VERTEX
  5
14F2
  8
0
  6
CONTINUOUS
 10
-574.25491715303178
 20
516.00000000004411
 30
0.0
 42
0.4142135623730951
  0
VERTEX
  5
14F3
  8
0
  6
CONTINUOUS
 10
-577.25491715303542
 20
513.00000000004684
 30
0.0
  0
VERTEX
  5
14F4
  8
0
  6
CONTINUOUS
 10
-577.25491715305179
 20
494.00000000004678
 30
0.0
 42
0.414213562373084
  0
VERTEX
  5
14F5
  8
0
  6
CONTINUOUS
 10
-574.25491715305543
 20
491.00000000004411
 30
0.0
  0
VERTEX
  5
14F6
  8
0
  6
CONTINUOUS
 10
-565.25491715305361
 20
491.00000000003581
 30
0.0
  0
SEQEND
  5
14F7
  8
0
  6
CONTINUOUS
  0
LINE
  5
10EE
  8
0
  6
CONTINUOUS
 10
-520.25491715312455
 20
349.49999999997732
 30
0.0
 11
-514.20491715312528
 21
349.49999999997732
 31
0.0
  0
LINE
  5
10EF
  8
0
  6
CONTINUOUS
 10
-521.2549171531208
 20
350.49999999997681
 30
0.0
 11
-520.25491715312455
 21
349.49999999997732
 31
0.0
  0
LINE
  5
10F0
  8
0
  6
CONTINUOUS
 10
-521.25491715312455
 20
358.49999999997681
 30
0.0
 11
-521.2549171531208
 21
350.49999999997681
 31
0.0
  0
LINE
  5
10F1
  8
0
  6
CONTINUOUS
 10
-520.25491715312455
 20
359.4999999999763
 30
0.0
 11
-521.25491715312455
 21
358.49999999997681
 31
0.0
  0
LINE
  5
10F2
  8
0
  6
CONTINUOUS
 10
-514.20491715312528
 20
359.49999999997863
 30
0.0
 11
-520.25491715312455
 21
359.4999999999763
 31
0.0
  0
LINE
  5
10F3
  8
0
  6
CONTINUOUS
 10
-520.25491715312808
 20
349.4999999999846
 30
0.0
 11
-520.25491715312455
 21
359.4999999999763
 31
0.0
  0
LINE
  5
10F4
  8
0
  6
CONTINUOUS
 10
-521.2549171531208
 20
350.49999999997681
 30
0.0
 11
-514.20491715312892
 21
350.49999999997817
 31
0.0
  0
LINE
  5
10F5
  8
0
  6
CONTINUOUS
 10
-521.25491715312455
 20
358.49999999997681
 30
0.0
 11
-514.20491715312892
 21
358.49999999997681
 31
0.0
  0
LINE
  5
10F6
  8
0
 10
-506.20491715314341
 20
344.41666666665242
 30
0.0
 11
-505.78825048647911
 21
343.99999999998357
 31
0.0
  0
LINE
  5
10F7
  8
0
 10
-505.78825048647911
 20
343.99999999998357
 30
0.0
 11
-503.70491715314517
 21
343.99999999997999
 31
0.0
  0
LINE
  5
10F8
  8
0
 10
-505.78825048643921
 20
364.99999999998357
 30
0.0
 11
-503.70491715310533
 21
364.99999999997999
 31
0.0
  0
LINE
  5
10F9
  8
0
 10
-503.70491715314517
 20
343.99999999997999
 30
0.0
 11
-503.70491715310533
 21
364.99999999997999
 31
0.0
  0
LINE
  5
10FA
  8
0
 10
-505.78825048647911
 20
343.99999999998357
 30
0.0
 11
-505.78825048643921
 21
364.99999999998357
 31
0.0
  0
LINE
  5
10FB
  8
0
 10
-506.20491715310709
 20
364.5833333333166
 30
0.0
 11
-505.78825048643921
 21
364.99999999998357
 31
0.0
  0
LINE
  5
10FC
  8
0
 10
-506.20491715314341
 20
344.41666666665242
 30
0.0
 11
-506.20491715310709
 21
364.5833333333166
 31
0.0
  0
LINE
  5
10FD
  8
0
 10
-489.25491715313723
 20
347.14999999997048
 30
0.0
 11
-489.25491715311182
 21
361.8499999999749
 31
0.0
  0
ARC
  5
10FE
  8
0
 10
-506.75491715312268
 20
354.50000000000819
 30
0.0
 40
17.5
 50
343.73979529163802
 51
16.26020470813269
  0
ARC
  5
10FF
  8
0
 10
-493.89241715310879
 20
361.84999999998348
 30
0.0
 40
4.6374999999992541
 50
328.10920819805011
 51
31.890791801740011
  0
ARC
  5
1100
  8
0
 10
-493.89241715313608
 20
347.14999999997917
 30
0.0
 40
4.6374999999992541
 50
328.10920819805011
 51
31.890791801740011
  0
LINE
  5
1101
  8
0
 10
-496.25491715313183
 20
349.59999999998757
 30
0.0
 11
-489.9549171531325
 21
349.59999999997632
 31
0.0
  0
LINE
  5
1102
  8
0
 10
-496.2549171531154
 20
359.39999999998332
 30
0.0
 11
-489.95491715311618
 21
359.3999999999719
 31
0.0
  0
LINE
  5
1103
  8
0
 10
-496.25491715314269
 20
344.69999999998618
 30
0.0
 11
-489.95491715314171
 21
344.69999999997481
 31
0.0
  0
LINE
  5
1104
  8
0
 10
-496.25491715314269
 20
344.69999999998618
 30
0.0
 11
-496.25491715310642
 21
364.29999999998472
 31
0.0
  0
LINE
  5
1105
  8
0
 10
-496.25491715310642
 20
364.29999999998472
 30
0.0
 11
-489.95491715310698
 21
364.29999999997341
 31
0.0
  0
LINE
  5
1106
  8
0
  6
COMM-10_TRANSSHT_MIDSPAN$1
 10
-530.95837806398777
 20
354.49999999997908
 30
0.0
 11
-483.81219011255962
 21
354.49999999997999
 31
0.0
  0
LINE
  5
1107
  8
0
 10
-506.20491715311249
 20
361.8499999999799
 30
0.0
 11
-506.20491715313801
 21
347.14999999997559
 31
0.0
  0
ARC
  5
1108
  8
0
 10
-523.70491715312528
 20
354.50000000000591
 30
0.0
 40
17.5
 50
343.73979529163802
 51
16.26020470813269
  0
ARC
  5
1109
  8
0
 10
-510.84241715313681
 20
347.14999999998417
 30
0.0
 40
4.6374999999992541
 50
328.10920819805011
 51
31.890791801740011
  0
ARC
  5
110A
  8
0
 10
-510.84241715310958
 20
361.84999999998848
 30
0.0
 40
4.6374999999992541
 50
328.10920819805011
 51
31.890791801740011
  0
LINE
  5
110B
  8
0
 10
-506.90491715313323
 20
349.59999999998132
 30
0.0
 11
-513.50491715313365
 21
349.59999999999309
 31
0.0
  0
LINE
  5
110C
  8
0
 10
-506.90491715311691
 20
359.3999999999769
 30
0.0
 11
-513.50491715311716
 21
359.39999999998872
 31
0.0
  0
LINE
  5
110D
  8
0
 10
-506.9049171531077
 20
364.2999999999783
 30
0.0
 11
-513.50491715310818
 21
364.29999999999018
 31
0.0
  0
LINE
  5
110E
  8
0
 10
-506.90491715314238
 20
344.69999999997981
 30
0.0
 11
-513.50491715314274
 21
344.69999999999169
 31
0.0
  0
ARC
  5
110F
  8
0
 10
-509.56741715311358
 20
361.84999999998581
 30
0.0
 40
4.6374999999992541
 50
148.10920819805
 51
211.89079180173999
  0
ARC
  5
1110
  8
0
 10
-509.56741715314092
 20
347.1499999999815
 30
0.0
 40
4.6374999999992541
 50
148.10920819805
 51
211.89079180173999
  0
ARC
  5
1111
  8
0
 10
-496.7049171531271
 20
354.4999999999568
 30
0.0
 40
17.5
 50
163.73979529163799
 51
196.26020470813259
  0
LINE
  5
1112
  8
0
 10
-514.20491715311255
 20
361.8499999999944
 30
0.0
 11
-514.20491715313801
 21
347.14999999999009
 31
0.0
  0
LINE
  5
1113
  8
0
  6
COMM-10_TRANSSHT_MIDSPAN$0
 10
-705.0
 20
518.99999999997215
 30
0.0
 11
705.0
 21
518.99999999998136
 31
0.0
  0
LINE
  5
1114
  8
0
  6
CONTINUOUS
 10
-705.0
 20
525.99999999997181
 30
0.0
 11
705.0
 21
525.99999999997954
 31
0.0
  0
LINE
  5
1115
  8
0
  6
CONTINUOUS
 10
-705.0
 20
575.99999999997215
 30
0.0
 11
705.0
 21
575.99999999998045
 31
0.0
  0
POLYLINE
  5
1116
  8
0
  6
CONTINUOUS
 66
     1
 10
0.0
 20
0.0
 30
0.0
 70
   128
  0
VERTEX
  5
14F8
  8
0
  6
CONTINUOUS
 10
-705.0
 20
595.99999999997215
 30
0.0
  0
VERTEX
  5
14F9
  8
0
  6
CONTINUOUS
 10
-705.0
 20
560.99999999997169
 30
0.0
  0
VERTEX
  5
14FA
  8
0
  6
CONTINUOUS
 10
-718.73738709728048
 20
555.99999999995816
 30
0.0
  0
VERTEX
  5
14FB
  8
0
  6
CONTINUOUS
 10
-691.26261290271941
 20
545.99999999995805
 30
0.0
  0
VERTEX
  5
14FC
  8
0
  6
CONTINUOUS
 10
-705.0
 20
540.99999999997181
 30
0.0
  0
VERTEX
  5
14FD
  8
0
  6
CONTINUOUS
 10
-705.0
 20
505.99999999997181
 30
0.0
  0
SEQEND
  5
14FE
  8
0
  6
CONTINUOUS
  0
POLYLINE
  5
1117
  8
0
  6
CONTINUOUS
 66
     1
 10
0.0
 20
0.0
 30
0.0
 70
   128
  0
VERTEX
  5
14FF
  8
0
  6
CONTINUOUS
 10
-705.0
 20
326.99999999999773
 30
0.0
  0
VERTEX
  5
1500
  8
0
  6
CONTINUOUS
 10
-705.0
 20
163.4999999999977
 30
0.0
  0
VERTEX
  5
1501
  8
0
  6
CONTINUOUS
 10
-718.73738709728048
 20
158.4999999999977
 30
0.0
  0
VERTEX
  5
1502
  8
0
  6
CONTINUOUS
 10
-691.26261290271941
 20
148.4999999999977
 30
0.0
  0
VERTEX
  5
1503
  8
0
  6
CONTINUOUS
 10
-705.0
 20
143.4999999999977
 30
0.0
  0
VERTEX
  5
1504
  8
0
  6
CONTINUOUS
 10
-705.0
 20
-20.00000000000227
 30
0.0
  0
SEQEND
  5
1505
  8
0
  6
CONTINUOUS
  0
POLYLINE
  5
1118
  8
0
  6
CONTINUOUS
 66
     1
 10
0.0
 20
0.0
 30
0.0
 70
   128
  0
VERTEX
  5
1506
  8
0
  6
CONTINUOUS
 10
705.0
 20
327.0000000000004
 30
0.0
  0
VERTEX
  5
1507
  8
0
  6
CONTINUOUS
 10
705.0
 20
163.50000000000131
 30
0.0
  0
VERTEX
  5
1508
  8
0
  6
CONTINUOUS
 10
691.26261290271941
 20
158.49999999999679
 30
0.0
  0
VERTEX
  5
1509
  8
0
  6
CONTINUOUS
 10
718.73738709728048
 20
148.49999999999679
 30
0.0
  0
VERTEX
  5
150A
  8
0
  6
CONTINUOUS
 10
705.0
 20
143.50000000000131
 30
0.0
  0
VERTEX
  5
150B
  8
0
  6
CONTINUOUS
 10
705.0
 20
-19.999999999997719
 30
0.0
  0
SEQEND
  5
150C
  8
0
  6
CONTINUOUS
  0
POLYLINE
  5
1119
  8
0
  6
CONTINUOUS
 66
     1
 10
0.0
 20
0.0
 30
0.0
 70
   128
  0
VERTEX
  5
150D
  8
0
  6
CONTINUOUS
 10
705.0
 20
505.99999999997948
 30
0.0
  0
VERTEX
  5
150E
  8
0
  6
CONTINUOUS
 10
705.0
 20
540.99999999997999
 30
0.0
  0
VERTEX
  5
150F
  8
0
  6
CONTINUOUS
 10
718.73738709728048
 20
545.99999999995043
 30
0.0
  0
VERTEX
  5
1510
  8
0
  6
CONTINUOUS
 10
691.26261290271941
 20
555.99999999995043
 30
0.0
  0
VERTEX
  5
1511
  8
0
  6
CONTINUOUS
 10
705.0
 20
560.99999999997988
 30
0.0
  0
VERTEX
  5
1512
  8
0
  6
CONTINUOUS
 10
705.0
 20
595.99999999998045
 30
0.0
  0
SEQEND
  5
1513
  8
0
  6
CONTINUOUS
  0
LINE
  5
111A
  8
0
  6
CONTINUOUS
 10
-24.842053857717481
 20
522.39691942692525
 30
0.0000000000000115
 11
23.257946142284709
 21
522.39691942692525
 31
0.0000000000000009
210
0.0000000000000002
220
1.0
230
0.0
  0
LINE
  5
111B
  8
0
  6
COMM-10_TRANSSHT_MIDSPAN$0
 10
25.157946142280711
 20
574.89442719097622
 30
0.0000000000000111
 11
25.157946142280711
 21
523.29691942692534
 31
0.0000000000000222
210
-0.0000000000000002
220
1.0
230
0.0
  0
LINE
  5
111C
  8
0
  6
CONTINUOUS
 10
-24.842053857719289
 20
523.29691942692534
 30
0.0000000000000222
 11
25.15794614228253
 21
523.29691942692534
 31
-0.0000000000000074
210
0.0000000000000002
220
1.0
230
0.0
  0
LINE
  5
111D
  8
0
  6
COMM-10_TRANSSHT_MIDSPAN$0
 10
25.157946142280711
 20
574.89442719097622
 30
0.0000000000000111
 11
-24.842053857721108
 21
574.89442719097622
 31
-0.0000000000000111
210
-0.0000000000000002
220
1.0
230
0.0
  0
LINE
  5
111E
  8
0
  6
CONTINUOUS
 10
-24.842053857717481
 20
522.89442719097542
 30
0.0000000000000115
 11
-24.842053857717481
 21
522.39691942692525
 31
0.0000000000000115
210
0.0000000000000002
220
1.0
230
0.0
  0
LINE
  5
111F
  8
0
  6
CONTINUOUS
 10
-24.842053857717481
 20
523.29691942692534
 30
0.0000000000000115
 11
-24.842053857717481
 21
522.89442719097542
 31
0.0000000000000115
210
0.0000000000000002
220
1.0
230
0.0
  0
LINE
  5
1120
  8
0
  6
CONTINUOUS
 10
25.15794614228253
 20
521.29691942692534
 30
0.0000000000000004
 11
25.15794614228253
 21
473.29691942692529
 31
0.0000000000000004
210
0.0000000000000002
220
1.0
230
0.0
  0
LINE
  5
1121
  8
0
  6
CONTINUOUS
 10
23.257946142284709
 20
522.39691942692525
 30
0.0000000000000009
 11
-24.842053857717481
 21
522.39691942692525
 31
0.0000000000000115
210
0.0000000000000002
220
1.0
230
0.0
  0
ARC
  5
1122
  8
0
  6
CONTINUOUS
 10
23.257946142284709
 20
521.39691942692525
 30
0.0000000000000009
 40
0.9999999999999998
 50
0.0
 51
90.0
  0
LINE
  5
1123
  8
0
  6
CONTINUOUS
 10
24.257946142284709
 20
473.29691942692529
 30
0.0000000000000006
 11
24.257946142284709
 21
521.39691942692525
 31
0.0000000000000006
210
0.0000000000000002
220
1.0
230
0.0
  0
LINE
  5
1124
  8
0
  6
COMM-10_TRANSSHT_MIDSPAN$0
 10
25.157946142280711
 20
573.99442719097624
 30
0.0000000000000111
 11
-24.842053857721108
 21
573.99442719097669
 31
-0.0000000000000111
210
-0.0000000000000002
220
1.0
230
0.0
  0
ARC
  5
1125
  8
0
  6
CONTINUOUS
 10
23.15794614228253
 20
521.29691942692534
 30
0.0000000000000009
 40
1.9999999999999989
 50
0.0
 51
90.0
  0
LINE
  5
1126
  8
0
  6
CONTINUOUS
 10
322.50000000000728
 20
-655.44650552222765
 30
0.0
 11
-272.49999999999272
 21
-655.44650552222765
 31
0.0
1001
GENIUS_GENREC_14
1002
{
1000
PYDIR
1011
-102.4999999999927
1021
0.0
1031
0.0
1021
-655.44650552222765
1031
0.0
1002
}
1002
{
1000
PXDIR
1011
302.50000000000728
1021
0.0
1031
0.0
1021
-908.41204768048874
1031
0.0
1002
}
1002
{
1000
PORI
1011
-102.4999999999927
1021
0.0
1031
0.0
1021
-908.41204768048874
1031
0.0
1002
}
1002
{
1000
PINS
1011
-102.4999999999927
1021
0.0
1031
0.0
1021
-908.41204768048874
1031
0.0
1002
}
1002
{
1000
PINS2
1011
437.50000000000722
1021
0.0
1031
0.0
1021
-608.41204768048874
1031
0.0
1002
}
1002
{
1000
C
1070
     1
1002
}
1001
GENIUS_GENOBJ-N-REC_13
1002
{
1000
OWNER
1000
GEN
1002
}
1001
GENIUS_GENODEF_13
1002
{
1000
HIER
1070
     0
1002
}
1002
{
1000
MANEDIT
1070
     0
1002
}
1002
{
1000
NOSEL
1070
     0
1002
}
1002
{
1000
BEHIND
1070
     0
1002
}
1002
{
1000
OTHER
1070
     0
1002
}
1002
{
1000
REACTOR
1002
}
  0
LINE
  5
1127
  8
0
  6
CONTINUOUS
 10
322.50000000000728
 20
-695.44650552222765
 30
0.0
 11
-272.49999999999272
 21
-695.44650552222765
 31
0.0
1001
GENIUS_GENREC_14
1002
{
1000
PYDIR
1011
-102.4999999999927
1021
0.0
1031
0.0
1021
-695.44650552222765
1031
0.0
1002
}
1002
{
1000
PXDIR
1011
302.50000000000728
1021
0.0
1031
0.0
1021
-948.41204768048874
1031
0.0
1002
}
1002
{
1000
PORI
1011
-102.4999999999927
1021
0.0
1031
0.0
1021
-948.41204768048874
1031
0.0
1002
}
1002
{
1000
PINS
1011
-102.4999999999927
1021
0.0
1031
0.0
1021
-948.41204768048874
1031
0.0
1002
}
1002
{
1000
PINS2
1011
437.50000000000722
1021
0.0
1031
0.0
1021
-648.41204768048874
1031
0.0
1002
}
1002
{
1000
C
1070
     1
1002
}
1001
GENIUS_GENOBJ-N-REC_13
1002
{
1000
OWNER
1000
GEN
1002
}
1001
GENIUS_GENODEF_13
1002
{
1000
HIER
1070
     0
1002
}
1002
{
1000
MANEDIT
1070
     0
1002
}
1002
{
1000
NOSEL
1070
     0
1002
}
1002
{
1000
BEHIND
1070
     0
1002
}
1002
{
1000
OTHER
1070
     0
1002
}
1002
{
1000
REACTOR
1002
}
  0
LINE
  5
1128
  8
0
  6
CONTINUOUS
 10
322.50000000000728
 20
-735.44650552222765
 30
0.0
 11
-272.49999999999272
 21
-735.44650552222765
 31
0.0
1001
GENIUS_GENREC_14
1002
{
1000
PYDIR
1011
-102.4999999999927
1021
0.0
1031
0.0
1021
-735.44650552222765
1031
0.0
1002
}
1002
{
1000
PXDIR
1011
302.50000000000728
1021
0.0
1031
0.0
1021
-988.41204768048885
1031
0.0
1002
}
1002
{
1000
PORI
1011
-102.4999999999927
1021
0.0
1031
0.0
1021
-988.41204768048885
1031
0.0
1002
}
1002
{
1000
PINS
1011
-102.4999999999927
1021
0.0
1031
0.0
1021
-988.41204768048885
1031
0.0
1002
}
1002
{
1000
PINS2
1011
437.50000000000722
1021
0.0
1031
0.0
1021
-688.41204768048874
1031
0.0
1002
}
1002
{
1000
C
1070
     1
1002
}
1001
GENIUS_GENOBJ-N-REC_13
1002
{
1000
OWNER
1000
GEN
1002
}
1001
GENIUS_GENODEF_13
1002
{
1000
HIER
1070
     0
1002
}
1002
{
1000
MANEDIT
1070
     0
1002
}
1002
{
1000
NOSEL
1070
     0
1002
}
1002
{
1000
BEHIND
1070
     0
1002
}
1002
{
1000
OTHER
1070
     0
1002
}
1002
{
1000
REACTOR
1002
}
  0
LINE
  5
1129
  8
0
  6
CONTINUOUS
 10
322.50000000000728
 20
-775.44650552222765
 30
0.0
 11
-272.49999999999272
 21
-775.44650552222765
 31
0.0
1001
GENIUS_GENREC_14
1002
{
1000
PYDIR
1011
-102.4999999999927
1021
0.0
1031
0.0
1021
-775.44650552222765
1031
0.0
1002
}
1002
{
1000
PXDIR
1011
657.50000000000728
1021
0.0
1031
0.0
1021
-1028.4120476804881
1031
0.0
1002
}
1002
{
1000
PORI
1011
-142.4999999999927
1021
0.0
1031
0.0
1021
-1028.4120476804881
1031
0.0
1002
}
1002
{
1000
PINS
1011
-142.4999999999927
1021
0.0
1031
0.0
1021
-1028.4120476804881
1031
0.0
1002
}
1002
{
1000
PINS2
1011
437.50000000000722
1021
0.0
1031
0.0
1021
-728.41204768048874
1031
0.0
1002
}
1002
{
1000
C
1070
     1
1002
}
1001
GENIUS_GENOBJ-N-REC_13
1002
{
1000
OWNER
1000
GEN
1002
}
1001
GENIUS_GENODEF_13
1002
{
1000
HIER
1070
     0
1002
}
1002
{
1000
MANEDIT
1070
     0
1002
}
1002
{
1000
NOSEL
1070
     0
1002
}
1002
{
1000
BEHIND
1070
     0
1002
}
1002
{
1000
OTHER
1070
     0
1002
}
1002
{
1000
REACTOR
1002
}
  0
LINE
  5
112A
  8
0
  6
CONTINUOUS
 10
82.500000000007276
 20
-518.41204768048874
 30
0.0
 11
82.500000000005457
 21
-775.44650552222765
 31
0.0
  0
LINE
  5
112B
  8
0
  6
CONTINUOUS
 10
-72.499999999992724
 20
-518.41204768048874
 30
0.0
 11
-72.499999999994543
 21
-775.44650552222765
 31
0.0
  0
LINE
  5
112C
  8
0
  6
CONTINUOUS
 10
-272.49999999999272
 20
-518.41204768048874
 30
0.0
 11
-272.49999999999449
 21
-775.44650552222765
 31
0.0
  0
INSERT
  5
112D
  8
0
  6
CONTINUOUS
  2
*U34
 10
0.0
 20
0.0
 30
0.0
  0
LINE
  5
112E
  8
0
  6
CONTINUOUS
 10
322.50000000000728
 20
-518.41204768048874
 30
0.0
 11
-272.49999999999272
 21
-518.41204768048874
 31
0.0
1001
GENIUS_GENREC_14
1002
{
1000
PYDIR
1011
-102.4999999999927
1021
0.0
1031
0.0
1021
-518.41204768048874
1031
0.0
1002
}
1002
{
1000
PXDIR
1011
657.50000000000728
1021
0.0
1031
0.0
1021
-208.41204768048871
1031
0.0
1002
}
1002
{
1000
PORI
1011
-142.4999999999927
1021
0.0
1031
0.0
1021
-208.41204768048871
1031
0.0
1002
}
1002
{
1000
PINS
1011
-142.4999999999927
1021
0.0
1031
0.0
1021
-208.41204768048871
1031
0.0
1002
}
1002
{
1000
PINS2
1011
397.50000000000728
1021
0.0
1031
0.0
1021
-478.41204768048868
1031
0.0
1002
}
1002
{
1000
C
1070
     1
1002
}
1001
GENIUS_GENOBJ-N-REC_13
1002
{
1000
OWNER
1000
GEN
1002
}
1001
GENIUS_GENODEF_13
1002
{
1000
HIER
1070
     0
1002
}
1002
{
1000
MANEDIT
1070
     0
1002
}
1002
{
1000
NOSEL
1070
     0
1002
}
1002
{
1000
BEHIND
1070
     0
1002
}
1002
{
1000
OTHER
1070
     0
1002
}
1002
{
1000
REACTOR
1002
}
  0
INSERT
  5
112F
  8
0
  6
CONTINUOUS
  2
*U35
 10
0.0
 20
0.0
 30
0.0
  0
LINE
  5
1130
  8
0
  6
CONTINUOUS
 10
322.50000000000728
 20
-775.44650552222765
 30
0.0
 11
322.50000000000728
 21
-518.41204768048874
 31
0.0
  0
INSERT
  5
1131
  8
0
  6
CONTINUOUS
  2
*U36
 10
0.0
 20
0.0
 30
0.0
  0
INSERT
  5
1132
  8
0
  6
CONTINUOUS
  2
*U37
 10
0.0
 20
0.0
 30
0.0
  0
LINE
  5
1133
  8
0
  6
CONTINUOUS
 10
360.5706727753095
 20
1106.73295389345
 30
-0.0000000000187841
 11
349.11025608926678
 21
1126.582977869587
 31
-0.0000000000193968
210
0.0
220
0.816496580927726
230
0.577350269189626
  0
LINE
  5
1134
  8
0
  6
CONTINUOUS
 10
349.11025608926678
 20
1126.582977869587
 30
-0.0000000000193968
 11
326.72547977841708
 21
1113.6591212407691
 31
-0.0000000000205604
210
0.0
220
0.816496580927726
230
0.577350269189626
  0
LINE
  5
1135
  8
0
  6
CONTINUOUS
 10
326.72547977841708
 20
1113.6591212407691
 30
-0.0000000000205604
 11
316.11887806061708
 21
1083.0404994559781
 31
-0.0000000000211287
210
0.0
220
0.816496580927726
230
0.577350269189626
  0
LINE
  5
1136
  8
0
  6
CONTINUOUS
 10
292.7843542814644
 20
1133.2550391830339
 30
-0.0000000000223636
 11
326.72547977841708
 21
1113.6591212407691
 31
-0.0000000000205604
210
0.0
220
0.816496580927726
230
0.577350269189626
  0
LINE
  5
1137
  8
0
  6
CONTINUOUS
 10
292.78435428146258
 20
1133.2550391830339
 30
-0.0000000000223645
 11
315.16913059231229
 21
1146.178895811853
 31
-0.0000000000211778
210
0.0
220
0.816496580927726
230
0.577350269189626
  0
LINE
  5
1138
  8
0
  6
CONTINUOUS
 10
282.1777525636644
 20
1102.6364173982449
 30
-0.0000000000229214
 11
316.11887806061708
 21
1083.0404994559781
 31
-0.0000000000211289
210
0.0
220
0.816496580927726
230
0.577350269189626
  0
LINE
  5
1139
  8
0
  6
CONTINUOUS
 10
282.1777525636644
 20
1102.6364173982449
 30
-0.0000000000229214
 11
292.78435428146258
 21
1133.2550391830339
 31
-0.0000000000223616
210
0.0
220
0.816496580927726
230
0.577350269189626
  0
LINE
  5
113A
  8
0
  6
CONTINUOUS
 10
337.6498394032223
 20
1119.9663032108749
 30
-0.0000000000199971
 11
360.5706727753095
 21
1106.73295389345
 31
-0.0000000000187841
210
0.0
220
0.816496580927726
230
0.577350269189626
  0
LINE
  5
113B
  8
0
  6
CONTINUOUS
 10
316.11887806061708
 20
1083.0404994559781
 30
-0.0000000000211287
 11
316.1188780606135
 21
1040.582677247736
 31
-0.0000000000211211
210
0.0
220
0.816496580927726
230
0.577350269189626
  0
LINE
  5
113C
  8
0
  6
CONTINUOUS
 10
316.1188780606135
 20
1040.582677247736
 30
-0.0000000000211315
 11
-266.07264354304237
 21
704.45424552997326
 31
-0.0000000000517168
210
0.0
220
0.816496580927726
230
0.577350269189626
  0
LINE
  5
113D
  8
0
  6
CONTINUOUS
 10
316.11887806061708
 20
1083.0404994559781
 30
-0.0000000000211287
 11
-266.07264354303879
 21
746.91206773821705
 31
-0.0000000000518544
210
0.0
220
0.816496580927726
230
0.577350269189626
  0
LINE
  5
113E
  8
0
  6
CONTINUOUS
 10
282.1777525636644
 20
1102.6364173982449
 30
-0.0000000000229214
 11
-288.5533523539525
 21
773.12466033919679
 31
-0.000000000053068
210
0.0
220
0.816496580927726
230
0.577350269189626
  0
LINE
  5
113F
  8
0
  6
CONTINUOUS
 10
349.11025608926678
 20
1126.582977869587
 30
-0.0000000000193968
 11
315.16913059231229
 21
1146.178895811853
 31
-0.0000000000211873
210
0.0
220
0.816496580927726
230
0.577350269189626
  0
LINE
  5
1140
  8
0
 10
-541.25491715307169
 20
604.21968749997041
 30
0.0
 11
-541.25491715307544
 21
601.11968749997004
 31
0.0
  0
LINE
  5
1141
  8
0
 10
-538.2549171530718
 20
604.21968749997041
 30
0.0
 11
-538.2549171530718
 21
601.11968749997004
 31
0.0
  0
LINE
  5
1142
  8
0
 10
-528.81566715307235
 20
593.93968749997146
 30
0.0
 11
-528.81566715307235
 21
595.98968749997255
 31
0.0
  0
LINE
  5
1143
  8
0
 10
-550.69416715307125
 20
593.93968749997146
 30
0.0
 11
-550.69416715307125
 21
595.98968749997084
 31
0.0
  0
LINE
  5
1144
  8
0
 10
-528.81566715307235
 20
595.98968749997255
 30
0.0
 11
-531.26566715307308
 21
596.68968749997146
 31
0.0
  0
LINE
  5
1145
  8
0
 10
-541.25491715307169
 20
604.21968749997041
 30
0.0
 11
-546.12185465307437
 21
604.21968749997222
 31
0.0
  0
ARC
  5
1146
  8
0
 10
-539.75491715307544
 20
589.06031249997295
 30
0.0
 40
15.15937499999999
 50
95.678633468273006
 51
106.26020470835461
  0
ARC
  5
1147
  8
0
 10
-533.38797965307276
 20
600.20245312497389
 30
0.0
 40
4.0172343749993544
 50
58.10920819816608
 51
121.8907918018339
  0
ARC
  5
1148
  8
0
 10
-546.12185465307437
 20
600.20245312497218
 30
0.0
 40
4.0172343749993544
 50
58.10920819816608
 51
121.8907918018339
  0
ARC
  5
1149
  8
0
 10
-539.75491715307544
 20
589.06031249997295
 30
0.0
 40
15.15937499999999
 50
73.739795291645308
 51
84.321366531726966
  0
LINE
  5
114A
  8
0
 10
-533.38797965307276
 20
604.21968749997222
 30
0.0
 11
-538.2549171530718
 21
604.21968749997041
 31
0.0
  0
LINE
  5
114B
  8
0
 10
-528.81566715307235
 20
593.93968749997146
 30
0.0
 11
-550.69416715307125
 21
593.93968749997146
 31
0.0
  0
LINE
  5
114C
  8
0
 10
-548.24416715306677
 20
596.68968749997146
 30
0.0
 11
-548.24416715307052
 21
603.61331249997102
 31
0.0
  0
LINE
  5
114D
  8
0
 10
-531.26566715307308
 20
596.68968749997146
 30
0.0
 11
-531.26566715307308
 21
603.61331249997102
 31
0.0
  0
LINE
  5
114E
  8
0
 10
-535.51029215307597
 20
596.68968749997146
 30
0.0
 11
-535.51029215307244
 21
603.61331249997102
 31
0.0
  0
LINE
  5
114F
  8
0
 10
-543.99954215306741
 20
596.68968749997146
 30
0.0
 11
-543.99954215306741
 21
603.61331249997102
 31
0.0
  0
LINE
  5
1150
  8
0
 10
-541.4846950807422
 20
504.17872088496961
 30
0.0
 11
-537.48994407203463
 21
505.24911119171378
 31
0.0
  0
LINE
  5
1151
  8
0
 10
-539.75491715307544
 20
500.7191650296358
 30
0.0
 11
-536.75491715307169
 21
506.71916502963762
 31
0.0
  0
LINE
  5
1152
  8
0
 10
-539.75491715307544
 20
500.7191650296358
 30
0.0
 11
-542.7549171530718
 21
506.71916502963762
 31
0.0
  0
LINE
  5
1153
  8
0
 10
-542.7549171530718
 20
593.93968749997146
 30
0.0
 11
-542.7549171530718
 21
506.71916502963762
 31
0.0
  0
LINE
  5
1154
  8
0
 10
-536.75491715307169
 20
593.93968749997146
 30
0.0
 11
-536.75491715307169
 21
506.71916502963762
 31
0.0
  0
LINE
  5
1155
  8
0
 10
-538.2549171530718
 20
601.11968749997004
 30
0.0
 11
-541.25491715307544
 21
601.11968749997004
 31
0.0
  0
LINE
  5
1156
  8
0
 10
-542.7549171530718
 20
510.26914652482481
 30
0.0
 11
-536.75491715307544
 21
511.87684167941052
 31
0.0
  0
LINE
  5
1157
  8
0
 10
-542.7549171530718
 20
529.56148837986302
 30
0.0
 11
-536.75491715307169
 21
531.16918353444862
 31
0.0
  0
LINE
  5
1158
  8
0
 10
-542.7549171530718
 20
535.99226899820906
 30
0.0
 11
-536.75491715307169
 21
537.59996415279466
 31
0.0
  0
LINE
  5
1159
  8
0
 10
-542.7549171530718
 20
542.42304961655498
 30
0.0
 11
-536.75491715307169
 21
544.03074477114069
 31
0.0
  0
LINE
  5
115A
  8
0
 10
-542.7549171530718
 20
548.85383023490112
 30
0.0
 11
-536.75491715307169
 21
550.46152538948672
 31
0.0
  0
LINE
  5
115B
  8
0
 10
-542.75491715307544
 20
555.28461085324534
 30
0.0
 11
-536.75491715307169
 21
556.89230600783264
 31
0.0
  0
LINE
  5
115C
  8
0
 10
-542.7549171530718
 20
561.71539147159319
 30
0.0
 11
-536.75491715307169
 21
563.32308662617868
 31
0.0
  0
LINE
  5
115D
  8
0
 10
-542.7549171530718
 20
568.14617208993741
 30
0.0
 11
-536.75491715307169
 21
569.75386724452483
 31
0.0
  0
LINE
  5
115E
  8
0
 10
-542.7549171530718
 20
574.57695270828526
 30
0.0
 11
-536.75491715307169
 21
576.18464786287075
 31
0.0
  0
LINE
  5
115F
  8
0
 10
-542.7549171530718
 20
581.00773332662948
 30
0.0
 11
-536.75491715307169
 21
582.6154284812169
 31
0.0
  0
LINE
  5
1160
  8
0
 10
-542.75491715307544
 20
587.43851394497551
 30
0.0
 11
-536.75491715307544
 21
589.04620909956293
 31
0.0
  0
LINE
  5
1161
  8
0
 10
-542.75491715307544
 20
516.69992714317095
 30
0.0
 11
-536.75491715307169
 21
518.30762229775655
 31
0.0
  0
LINE
  5
1162
  8
0
 10
-542.7549171530718
 20
523.13070776151687
 30
0.0
 11
-536.75491715307169
 21
524.73840291610247
 31
0.0
  0
LINE
  5
1163
  8
0
 10
-531.26566715307308
 20
596.68968749997146
 30
0.0
 11
-548.24416715306677
 21
596.68968749997146
 31
0.0
  0
LINE
  5
1164
  8
0
 10
-548.24416715307052
 20
596.68968749996793
 30
0.0
 11
-550.69416715307125
 21
595.98968749997084
 31
0.0
  0
SOLID
  5
1165
  8
0
 10
-550.69416715307125
 20
592.93968749997146
 30
0.0
 11
-550.69416715307125
 21
587.93968749997157
 31
0.0
 12
-528.81566715307235
 22
592.93968749997146
 32
0.0
 13
-528.81566715307235
 23
587.93968749997157
 33
0.0
  0
LINE
  5
1166
  8
0
 10
464.74508284692268
 20
604.21968749997041
 30
0.0
 11
464.7450828469191
 21
601.11968749997004
 31
0.0
  0
LINE
  5
1167
  8
0
 10
467.74508284692268
 20
604.21968749997041
 30
0.0
 11
467.74508284692268
 21
601.11968749997004
 31
0.0
  0
LINE
  5
1168
  8
0
 10
477.18433284692219
 20
593.93968749997146
 30
0.0
 11
477.18433284692219
 21
595.98968749997255
 31
0.0
  0
LINE
  5
1169
  8
0
 10
455.30583284692329
 20
593.93968749997146
 30
0.0
 11
455.30583284692329
 21
595.98968749997084
 31
0.0
  0
LINE
  5
116A
  8
0
 10
477.18433284692219
 20
595.98968749997255
 30
0.0
 11
474.7343328469214
 21
596.68968749997146
 31
0.0
  0
LINE
  5
116B
  8
0
 10
464.74508284692268
 20
604.21968749997041
 30
0.0
 11
459.87814534692001
 21
604.21968749997222
 31
0.0
  0
ARC
  5
116C
  8
0
 10
466.24508284691899
 20
589.06031249997295
 30
0.0
 40
15.15937499999999
 50
95.678633468273006
 51
106.26020470835461
  0
ARC
  5
116D
  8
0
 10
472.61202034692178
 20
600.20245312497389
 30
0.0
 40
4.0172343749993544
 50
58.10920819816608
 51
121.8907918018339
  0
ARC
  5
116E
  8
0
 10
459.87814534692001
 20
600.20245312497218
 30
0.0
 40
4.0172343749993544
 50
58.10920819816608
 51
121.8907918018339
  0
ARC
  5
116F
  8
0
 10
466.24508284691899
 20
589.06031249997295
 30
0.0
 40
15.15937499999999
 50
73.739795291645308
 51
84.321366531726966
  0
LINE
  5
1170
  8
0
 10
472.61202034692178
 20
604.21968749997222
 30
0.0
 11
467.74508284692268
 21
604.21968749997041
 31
0.0
  0
LINE
  5
1171
  8
0
 10
477.18433284692219
 20
593.93968749997146
 30
0.0
 11
455.30583284692329
 21
593.93968749997146
 31
0.0
  0
LINE
  5
1172
  8
0
 10
457.7558328469276
 20
596.68968749997146
 30
0.0
 11
457.75583284692402
 21
603.61331249997102
 31
0.0
  0
LINE
  5
1173
  8
0
 10
474.7343328469214
 20
596.68968749997146
 30
0.0
 11
474.7343328469214
 21
603.61331249997102
 31
0.0
  0
LINE
  5
1174
  8
0
 10
470.48970784691841
 20
596.68968749997146
 30
0.0
 11
470.4897078469221
 21
603.61331249997102
 31
0.0
  0
LINE
  5
1175
  8
0
 10
462.00045784692702
 20
596.68968749997146
 30
0.0
 11
462.00045784692702
 21
603.61331249997102
 31
0.0
  0
LINE
  5
1176
  8
0
 10
464.51530491925217
 20
504.17872088496961
 30
0.0
 11
468.5100559279598
 21
505.24911119171378
 31
0.0
  0
LINE
  5
1177
  8
0
 10
466.24508284691899
 20
500.7191650296358
 30
0.0
 11
469.24508284692268
 21
506.71916502963762
 31
0.0
  0
LINE
  5
1178
  8
0
 10
466.24508284691899
 20
500.7191650296358
 30
0.0
 11
463.24508284692268
 21
506.71916502963762
 31
0.0
  0
LINE
  5
1179
  8
0
 10
463.24508284692268
 20
593.93968749997146
 30
0.0
 11
463.24508284692268
 21
506.71916502963762
 31
0.0
  0
LINE
  5
117A
  8
0
 10
469.24508284692268
 20
593.93968749997146
 30
0.0
 11
469.24508284692268
 21
506.71916502963762
 31
0.0
  0
LINE
  5
117B
  8
0
 10
467.74508284692268
 20
601.11968749997004
 30
0.0
 11
464.7450828469191
 21
601.11968749997004
 31
0.0
  0
LINE
  5
117C
  8
0
 10
463.24508284692268
 20
510.26914652482481
 30
0.0
 11
469.2450828469191
 21
511.87684167941052
 31
0.0
  0
LINE
  5
117D
  8
0
 10
463.24508284692268
 20
529.56148837986302
 30
0.0
 11
469.24508284692268
 21
531.16918353444862
 31
0.0
  0
LINE
  5
117E
  8
0
 10
463.24508284692268
 20
535.99226899820906
 30
0.0
 11
469.24508284692268
 21
537.59996415279466
 31
0.0
  0
LINE
  5
117F
  8
0
 10
463.24508284692268
 20
542.42304961655498
 30
0.0
 11
469.24508284692268
 21
544.03074477114069
 31
0.0
  0
LINE
  5
1180
  8
0
 10
463.24508284692268
 20
548.85383023490112
 30
0.0
 11
469.24508284692268
 21
550.46152538948672
 31
0.0
  0
LINE
  5
1181
  8
0
 10
463.2450828469191
 20
555.28461085324534
 30
0.0
 11
469.24508284692268
 21
556.89230600783264
 31
0.0
  0
LINE
  5
1182
  8
0
 10
463.24508284692268
 20
561.71539147159319
 30
0.0
 11
469.24508284692268
 21
563.32308662617868
 31
0.0
  0
LINE
  5
1183
  8
0
 10
463.24508284692268
 20
568.14617208993741
 30
0.0
 11
469.24508284692268
 21
569.75386724452483
 31
0.0
  0
LINE
  5
1184
  8
0
 10
463.24508284692268
 20
574.57695270828526
 30
0.0
 11
469.24508284692268
 21
576.18464786287075
 31
0.0
  0
LINE
  5
1185
  8
0
 10
463.24508284692268
 20
581.00773332662948
 30
0.0
 11
469.24508284692268
 21
582.6154284812169
 31
0.0
  0
LINE
  5
1186
  8
0
 10
463.2450828469191
 20
587.43851394497551
 30
0.0
 11
469.2450828469191
 21
589.04620909956293
 31
0.0
  0
LINE
  5
1187
  8
0
 10
463.2450828469191
 20
516.69992714317095
 30
0.0
 11
469.24508284692268
 21
518.30762229775655
 31
0.0
  0
LINE
  5
1188
  8
0
 10
463.24508284692268
 20
523.13070776151687
 30
0.0
 11
469.24508284692268
 21
524.73840291610247
 31
0.0
  0
LINE
  5
1189
  8
0
 10
474.7343328469214
 20
596.68968749997146
 30
0.0
 11
457.7558328469276
 21
596.68968749997146
 31
0.0
  0
LINE
  5
118A
  8
0
 10
457.75583284692402
 20
596.68968749996793
 30
0.0
 11
455.30583284692329
 21
595.98968749997084
 31
0.0
  0
SOLID
  5
118B
  8
0
 10
455.30583284692329
 20
592.93968749997146
 30
0.0
 11
455.30583284692329
 21
587.93968749997157
 31
0.0
 12
477.18433284692219
 22
592.93968749997146
 32
0.0
 13
477.18433284692219
 23
587.93968749997157
 33
0.0
  0
LINE
  5
118C
  8
0
  6
CONTINUOUS
 10
-266.07264354303879
 20
746.91206773821705
 30
-0.0000000000518544
 11
-277.5330602290814
 21
766.76209171435437
 31
-0.0000000000524671
210
0.0
220
0.816496580927726
230
0.577350269189626
  0
LINE
  5
118D
  8
0
  6
CONTINUOUS
 10
-277.5330602290814
 20
766.76209171435437
 30
-0.0000000000524671
 11
-299.91783653993122
 21
753.83823508553576
 31
-0.0000000000536307
210
0.0
220
0.816496580927726
230
0.577350269189626
  0
LINE
  5
118E
  8
0
  6
CONTINUOUS
 10
-299.91783653993122
 20
753.83823508553576
 30
-0.0000000000536307
 11
-310.52443825773111
 21
723.21961330074555
 31
-0.000000000054199
210
0.0
220
0.816496580927726
230
0.577350269189626
  0
LINE
  5
118F
  8
0
  6
CONTINUOUS
 10
-333.8589620368839
 20
773.43415302780147
 30
-0.0000000000554339
 11
-299.91783653993122
 21
753.83823508553576
 31
-0.0000000000536307
210
0.0
220
0.816496580927726
230
0.577350269189626
  0
LINE
  5
1190
  8
0
  6
CONTINUOUS
 10
-333.85896203688571
 20
773.43415302780113
 30
-0.0000000000554348
 11
-311.47418572603601
 21
786.35800965662008
 31
-0.0000000000542481
210
0.0
220
0.816496580927726
230
0.577350269189626
  0
LINE
  5
1191
  8
0
  6
CONTINUOUS
 10
-344.4655637546839
 20
742.81553124301217
 30
-0.0000000000559917
 11
-310.52443825773111
 21
723.21961330074555
 31
-0.0000000000541992
210
0.0
220
0.816496580927726
230
0.577350269189626
  0
LINE
  5
1192
  8
0
  6
CONTINUOUS
 10
-344.4655637546839
 20
742.81553124301217
 30
-0.0000000000559917
 11
-333.85896203688571
 21
773.43415302780113
 31
-0.0000000000554319
210
0.0
220
0.816496580927726
230
0.577350269189626
  0
LINE
  5
1193
  8
0
  6
CONTINUOUS
 10
-288.99347691512588
 20
760.14541705564216
 30
-0.0000000000530674
 11
-266.07264354303879
 21
746.91206773821705
 31
-0.0000000000518544
210
0.0
220
0.816496580927726
230
0.577350269189626
  0
LINE
  5
1194
  8
0
  6
CONTINUOUS
 10
-277.5330602290814
 20
766.76209171435437
 30
-0.0000000000524671
 11
-311.47418572603601
 21
786.35800965662008
 31
-0.0000000000542577
210
0.0
220
0.816496580927726
230
0.577350269189626
  0
LINE
  5
1195
  8
0
  6
CONTINUOUS
 10
-266.07264354303879
 20
746.91206773821705
 30
-0.0000000000518544
 11
-266.07264354304237
 21
704.45424552997326
 31
-0.0000000000518469
210
0.0
220
0.816496580927726
230
0.577350269189626
  0
TEXT
  5
1196
  8
0
  6
CONTINUOUS
 10
45.881419066879957
 20
-628.14420382306196
 30
0.0
 40
20.0
  1
2
  7
COMM-10_TRANSSHT_MIDSPAN$0
  0
TEXT
  5
1197
  8
0
  6
CONTINUOUS
 10
-222.970668485668
 20
-685.28279474460169
 30
0.0
 40
20.0
  1
Low Rib
  7
COMM-10_TRANSSHT_MIDSPAN$0
 72
     1
 11
-172.4999999999927
 21
-685.28279474460169
 31
0.0
  0
TEXT
  5
1198
  8
0
  6
CONTINUOUS
 10
-247.02933151431739
 20
-725.28279474460157
 30
0.0
 40
20.0
  1
Medium Rib
  7
COMM-10_TRANSSHT_MIDSPAN$0
 72
     1
 11
-172.4999999999927
 21
-725.28279474460157
 31
0.0
  0
TEXT
  5
1199
  8
0
  6
CONTINUOUS
 10
-226.0743519781646
 20
-762.50653280735742
 30
0.0
 40
20.0
  1
High Rib
  7
COMM-10_TRANSSHT_MIDSPAN$0
 72
     1
 11
-172.4999999999927
 21
-762.50653280735742
 31
0.0
  0
TEXT
  5
119A
  8
0
  6
CONTINUOUS
 10
171.42223738063481
 20
-765.44650552222765
 30
0.0
 40
20.0
  1
2100
  7
COMM-10_TRANSSHT_MIDSPAN$0
 72
     1
 11
202.5000000000073
 21
-765.44650552222765
 31
0.0
  0
TEXT
  5
119B
  8
0
  6
CONTINUOUS
 10
171.42223738063481
 20
-725.44650552222765
 30
0.0
 40
20.0
  1
1700
  7
COMM-10_TRANSSHT_MIDSPAN$0
 72
     1
 11
202.5000000000073
 21
-725.44650552222765
 31
0.0
  0
TEXT
  5
119C
  8
0
  6
CONTINUOUS
 10
171.42223738063481
 20
-685.44650552222765
 30
0.0
 40
20.0
  1
1200
  7
COMM-10_TRANSSHT_MIDSPAN$0
 72
     1
 11
202.5000000000073
 21
-685.44650552222765
 31
0.0
  0
TEXT
  5
119D
  8
0
  6
CONTINUOUS
 10
-26.077762619365171
 20
-765.44650552222765
 30
0.0
 40
20.0
  1
2200
  7
COMM-10_TRANSSHT_MIDSPAN$0
 72
     1
 11
5.0000000000072751
 21
-765.44650552222765
 31
0.0
  0
TEXT
  5
119E
  8
0
  6
CONTINUOUS
 10
-26.077762619365171
 20
-725.44650552222765
 30
0.0
 40
20.0
  1
2200
  7
COMM-10_TRANSSHT_MIDSPAN$0
 72
     1
 11
5.0000000000072751
 21
-725.44650552222765
 31
0.0
  0
TEXT
  5
119F
  8
0
  6
CONTINUOUS
 10
-26.077762619365171
 20
-685.31690115660638
 30
0.0
 40
20.0
  1
1800
  7
COMM-10_TRANSSHT_MIDSPAN$0
 72
     1
 11
5.0000000000072751
 21
-685.31690115660638
 31
0.0
  0
LINE
  5
11A0
  8
0
 10
-1.5
 20
604.66399169537669
 30
0.0
 11
-1.5
 21
601.56399169537644
 31
0.0
  0
LINE
  5
11A1
  8
0
 10
1.5
 20
604.66399169537669
 30
0.0
 11
1.5
 21
601.56399169537644
 31
0.0
  0
LINE
  5
11A2
  8
0
 10
10.93924999999944
 20
594.38399169537797
 30
0.0
 11
10.93924999999944
 21
596.43399169537724
 31
0.0
  0
LINE
  5
11A3
  8
0
 10
-10.93924999999944
 20
594.38399169537797
 30
0.0
 11
-10.93924999999944
 21
596.43399169537724
 31
0.0
  0
LINE
  5
11A4
  8
0
 10
10.93924999999944
 20
596.43399169537724
 30
0.0
 11
8.4892499999987194
 21
597.13399169537786
 31
0.0
  0
LINE
  5
11A5
  8
0
 10
-1.5
 20
604.66399169537669
 30
0.0
 11
-6.3669375000026767
 21
604.66399169537863
 31
0.0
  0
ARC
  5
11A6
  8
0
 10
-0.000000000003638
 20
589.50461669537935
 30
0.0
 40
15.15937499999999
 50
95.678633468273006
 51
106.26020470835461
  0
ARC
  5
11A7
  8
0
 10
6.3669375000026767
 20
600.64675732037847
 30
0.0
 40
4.0172343749993544
 50
58.10920819817985
 51
121.8907918018201
  0
ARC
  5
11A8
  8
0
 10
-6.3669375000026767
 20
600.64675732037847
 30
0.0
 40
4.0172343749993544
 50
58.10920819817985
 51
121.8907918018201
  0
ARC
  5
11A9
  8
0
 10
-0.000000000003638
 20
589.50461669537935
 30
0.0
 40
15.15937499999999
 50
73.739795291645308
 51
84.321366531726966
  0
LINE
  5
11AA
  8
0
 10
6.3669375000026767
 20
604.66399169537669
 30
0.0
 11
1.5
 21
604.66399169537669
 31
0.0
  0
LINE
  5
11AB
  8
0
 10
10.93924999999944
 20
594.38399169537797
 30
0.0
 11
-10.93924999999944
 21
594.38399169537797
 31
0.0
  0
LINE
  5
11AC
  8
0
 10
-8.4892499999950815
 20
597.13399169537786
 30
0.0
 11
-8.4892499999987194
 21
604.05761669537742
 31
0.0
  0
LINE
  5
11AD
  8
0
 10
8.4892499999987194
 20
597.13399169537786
 30
0.0
 11
8.4892499999987194
 21
604.05761669537742
 31
0.0
  0
LINE
  5
11AE
  8
0
 10
4.2446249999957208
 20
597.13399169537786
 30
0.0
 11
4.2446249999993588
 21
604.05761669537742
 31
0.0
  0
LINE
  5
11AF
  8
0
 10
-4.2446249999957208
 20
597.13399169537786
 30
0.0
 11
-4.2446249999957208
 21
604.05761669537742
 31
0.0
  0
LINE
  5
11B0
  8
0
 10
-0.000000000003638
 20
552.28981735793548
 30
-0.0000000000001123
 11
3.0
 21
558.28981735793195
 31
-0.0000000000001123
  0
LINE
  5
11B1
  8
0
 10
-0.000000000003638
 20
552.28981735793548
 30
-0.0000000000001123
 11
-3.0
 21
558.28981735793559
 31
-0.0000000000001123
  0
LINE
  5
11B2
  8
0
 10
-3.0
 20
594.38399169537797
 30
0.0
 11
-3.0
 21
558.28981735793559
 31
0.0
  0
LINE
  5
11B3
  8
0
 10
3.0
 20
594.38399169537797
 30
0.0
 11
3.0
 21
558.28981735793195
 31
0.0
  0
LINE
  5
11B4
  8
0
 10
1.5
 20
601.56399169537644
 30
0.0
 11
-1.5
 21
601.56399169537644
 31
0.0
  0
LINE
  5
11B5
  8
0
 10
-1.578320872824406
 20
555.44645910357713
 30
-0.0000000000001123
 11
2.0666550503410681
 21
556.42312745862125
 31
-0.0000000000001123
  0
LINE
  5
11B6
  8
0
 10
-3.0
 20
568.59047628534381
 30
0.0
 11
3.0
 21
570.19817143993123
 31
0.0
  0
LINE
  5
11B7
  8
0
 10
-3.0
 20
575.02125690369155
 30
0.0
 11
3.0
 21
576.62895205827715
 31
0.0
  0
LINE
  5
11B8
  8
0
 10
-3.0
 20
581.45203752203577
 30
0.0
 11
3.0
 21
583.05973267662318
 31
0.0
  0
LINE
  5
11B9
  8
0
 10
-3.0000000000036371
 20
587.88281814038191
 30
0.0
 11
2.999999999996362
 21
589.49051329496933
 31
0.0
  0
LINE
  5
11BA
  8
0
 10
8.4892499999987194
 20
597.13399169537786
 30
0.0
 11
-8.4892499999950815
 21
597.13399169537786
 31
0.0
  0
LINE
  5
11BB
  8
0
 10
-8.4892499999987194
 20
597.13399169537433
 30
0.0
 11
-10.93924999999944
 21
596.43399169537724
 31
0.0
  0
SOLID
  5
11BC
  8
0
 10
-9.939249999999447
 20
593.88399169537797
 30
0.0
 11
-9.939249999999447
 21
587.66326876799712
 31
0.0
 12
9.939249999999447
 22
593.88399169537797
 32
0.0
 13
9.939249999999447
 23
587.66326876799712
 33
0.0
  0
LINE
  5
11BD
  8
0
 10
-3.0
 20
561.49630194790143
 30
-0.0000000000001123
 11
3.0
 21
563.10399710248885
 31
-0.0000000000001123
  0
LINE
  5
11BE
  8
0
  6
COMM-10_TRANSSHT_MIDSPAN$0
 10
-24.842053857721108
 20
574.89442719097622
 30
-0.0000000000000111
 11
-24.842053857721108
 21
523.29691942692534
 31
0.0
  0
LINE
  5
11BF
  8
0
  6
COMM-10_TRANSSHT_MIDSPAN$0
 10
25.157946142280711
 20
549.09567330895095
 30
0.0000000000000167
 11
3.0
 21
549.09567330895152
 31
0.0000000000000068
210
-0.0000000000000002
220
1.0
230
0.0
  0
LINE
  5
11C0
  8
0
  6
COMM-10_TRANSSHT_MIDSPAN$0
 10
-3.0
 20
549.09567330895152
 30
0.0000000000000041
 11
-24.842053857721108
 21
549.09567330895152
 31
-0.0000000000000056
210
-0.0000000000000002
220
1.0
230
0.0
  0
LINE
  5
11C1
  8
0
  6
CONTINUOUS
 10
25.15794614228253
 20
473.29691942692529
 30
0.0000000000000004
 11
24.257946142284709
 21
473.29691942692529
 31
0.0000000000000006
  0
INSERT
  5
11C2
  8
0
  6
CONTINUOUS
  2
*U38
 10
0.0
 20
0.0
 30
0.0
1001
ACAD
1002
{
1000
R14_HATCH_DATA
1000
11C2
1011
1.0
1021
0.0
1031
0.0
1021
0.0
1031
0.0
1011
0.0
1021
0.0
1031
0.0
1021
1.0
1031
0.0
1011
0.0
1021
0.0
1031
0.0
1021
0.0
1031
1.0
1040
0.0
1010
0.0
1020
0.0
1030
1.0
1000
SOLID
1070
     1
1070
     0
1071
        1
1071
        1
1071
        4
1070
     1
1040
-554.75491715307544
1040
581.71287105087913
1040
-524.75491715307544
1040
581.71287105087913
1070
     1
1040
-524.75491715307544
1040
581.71287105087913
1040
-524.75491715307544
1040
576.71287105087913
1070
     1
1040
-524.75491715307544
1040
576.71287105087913
1040
-554.75491715307544
1040
576.71287105087913
1070
     1
1040
-554.75491715307544
1040
576.71287105087913
1040
-554.75491715307544
1040
581.71287105087913
1071
        0
1070
     0
1070
     1
1071
        1
1040
-12245.510254763871
1040
4789.7174065664822
1040
0.0
1002
}
  0
POLYLINE
  5
11C3
  8
0
  6
CONTINUOUS
 66
     1
 10
0.0
 20
0.0
 30
0.0
 70
   129
1001
GENIUS_GENREC_14
1002
{
1000
PYDIR
1011
-564.93042951733514
1021
0.0
1031
0.0
1021
584.08795231951217
1031
0.0
1002
}
1002
{
1000
PXDIR
1011
-515.0
1021
0.0
1031
0.0
1021
566.56931096486505
1031
0.0
1002
}
1002
{
1000
PORI
1011
-564.93042951733514
1021
0.0
1031
0.0
1021
566.56931096486505
1031
0.0
1002
}
1002
{
1000
PINS
1011
-564.93042951733514
1021
0.0
1031
0.0
1021
566.56931096486505
1031
0.0
1002
}
1002
{
1000
PINS2
1011
-515.0
1021
0.0
1031
0.0
1021
584.08795231951217
1031
0.0
1002
}
1002
{
1000
C
1070
     1
1002
}
1001
GENIUS_GENOBJ-N-REC_13
1002
{
1000
OWNER
1000
GEN
1002
}
1001
GENIUS_GENODEF_13
1002
{
1000
HIER
1070
     0
1002
}
1002
{
1000
MANEDIT
1070
     0
1002
}
1002
{
1000
NOSEL
1070
     0
1002
}
1002
{
1000
BEHIND
1070
     0
1002
}
1002
{
1000
OTHER
1070
     0
1002
}
1002
{
1000
REACTOR
1002
}
  0
VERTEX
  5
1531
  8
0
  6
CONTINUOUS
 10
-564.93042951733514
 20
566.56931096486505
 30
0.0
  0
VERTEX
  5
1532
  8
0
  6
CONTINUOUS
 10
-515.0
 20
566.56931096486505
 30
0.0
  0
VERTEX
  5
1533
  8
0
  6
CONTINUOUS
 10
-515.0
 20
584.08795231951217
 30
0.0
  0
VERTEX
  5
1534
  8
0
  6
CONTINUOUS
 10
-564.93042951733514
 20
584.08795231951217
 30
0.0
  0
SEQEND
  5
1535
  8
0
  6
CONTINUOUS
  0
INSERT
  5
11C4
  8
0
  6
CONTINUOUS
  2
*U39
 10
0.0
 20
0.0
 30
0.0
1001
ACAD
1002
{
1000
R14_HATCH_DATA
1000
11C4
1011
1.0
1021
0.0
1031
0.0
1021
0.0
1031
0.0
1011
0.0
1021
0.0
1031
0.0
1021
1.0
1031
0.0
1011
0.0
1021
0.0
1031
0.0
1021
0.0
1031
1.0
1040
0.0
1010
0.0
1020
0.0
1030
1.0
1000
SOLID
1070
     1
1070
     0
1071
        1
1071
        1
1071
        4
1070
     1
1040
-15.00000000000364
1040
581.71287105087913
1040
14.99999999999636
1040
581.71287105087913
1070
     1
1040
14.99999999999636
1040
581.71287105087913
1040
14.99999999999636
1040
576.71287105087913
1070
     1
1040
14.99999999999636
1040
576.71287105087913
1040
-15.00000000000364
1040
576.71287105087913
1070
     1
1040
-15.00000000000364
1040
576.71287105087913
1040
-15.00000000000364
1040
581.71287105087913
1071
        0
1070
     0
1070
     1
1071
        1
1040
-11705.755337610801
1040
4789.7174065664822
1040
0.0
1002
}
  0
POLYLINE
  5
11C5
  8
0
  6
CONTINUOUS
 66
     1
 10
0.0
 20
0.0
 30
0.0
 70
   129
1001
GENIUS_GENREC_14
1002
{
1000
PYDIR
1011
-25.175512364263341
1021
0.0
1031
0.0
1021
584.08795231951217
1031
0.0
1002
}
1002
{
1000
PXDIR
1011
24.754917153071801
1021
0.0
1031
0.0
1021
566.56931096486505
1031
0.0
1002
}
1002
{
1000
PORI
1011
-25.175512364263341
1021
0.0
1031
0.0
1021
566.56931096486505
1031
0.0
1002
}
1002
{
1000
PINS
1011
-25.175512364263341
1021
0.0
1031
0.0
1021
566.56931096486505
1031
0.0
1002
}
1002
{
1000
PINS2
1011
24.754917153071801
1021
0.0
1031
0.0
1021
584.08795231951217
1031
0.0
1002
}
1002
{
1000
C
1070
     1
1002
}
1001
GENIUS_GENOBJ-N-REC_13
1002
{
1000
OWNER
1000
GEN
1002
}
1001
GENIUS_GENODEF_13
1002
{
1000
HIER
1070
     0
1002
}
1002
{
1000
MANEDIT
1070
     0
1002
}
1002
{
1000
NOSEL
1070
     0
1002
}
1002
{
1000
BEHIND
1070
     0
1002
}
1002
{
1000
OTHER
1070
     0
1002
}
1002
{
1000
REACTOR
1002
}
  0
VERTEX
  5
153D
  8
0
  6
CONTINUOUS
 10
-25.175512364263341
 20
566.56931096486505
 30
0.0
  0
VERTEX
  5
153E
  8
0
  6
CONTINUOUS
 10
24.754917153071801
 20
566.56931096486505
 30
0.0
  0
VERTEX
  5
153F
  8
0
  6
CONTINUOUS
 10
24.754917153071801
 20
584.08795231951217
 30
0.0
  0
VERTEX
  5
1540
  8
0
  6
CONTINUOUS
 10
-25.175512364263341
 20
584.08795231951217
 30
0.0
  0
SEQEND
  5
1541
  8
0
  6
CONTINUOUS
  0
INSERT
  5
11C6
  8
0
  6
CONTINUOUS
  2
*U40
 10
0.0
 20
0.0
 30
0.0
1001
ACAD
1002
{
1000
R14_HATCH_DATA
1000
11C6
1011
1.0
1021
0.0
1031
0.0
1021
0.0
1031
0.0
1011
0.0
1021
0.0
1031
0.0
1021
1.0
1031
0.0
1011
0.0
1021
0.0
1031
0.0
1021
0.0
1031
1.0
1040
0.0
1010
0.0
1020
0.0
1030
1.0
1000
SOLID
1070
     1
1070
     0
1071
        1
1071
        1
1071
        4
1070
     1
1040
451.2450828469191
1040
581.71287105087913
1040
481.2450828469191
1040
581.71287105087913
1070
     1
1040
481.2450828469191
1040
581.71287105087913
1040
481.2450828469191
1040
576.71287105087913
1070
     1
1040
481.2450828469191
1040
576.71287105087913
1040
451.2450828469191
1040
576.71287105087913
1070
     1
1040
451.2450828469191
1040
576.71287105087913
1040
451.2450828469191
1040
581.71287105087913
1071
        0
1070
     0
1070
     1
1071
        1
1040
-11239.51025476388
1040
4789.7174065664822
1040
0.0
1002
}
  0
POLYLINE
  5
11C7
  8
0
  6
CONTINUOUS
 66
     1
 10
0.0
 20
0.0
 30
0.0
 70
   129
1001
GENIUS_GENREC_14
1002
{
1000
PYDIR
1011
441.0695704826594
1021
0.0
1031
0.0
1021
584.08795231951217
1031
0.0
1002
}
1002
{
1000
PXDIR
1011
490.99999999999449
1021
0.0
1031
0.0
1021
566.56931096486505
1031
0.0
1002
}
1002
{
1000
PORI
1011
441.0695704826594
1021
0.0
1031
0.0
1021
566.56931096486505
1031
0.0
1002
}
1002
{
1000
PINS
1011
441.0695704826594
1021
0.0
1031
0.0
1021
566.56931096486505
1031
0.0
1002
}
1002
{
1000
PINS2
1011
490.99999999999449
1021
0.0
1031
0.0
1021
584.08795231951217
1031
0.0
1002
}
1002
{
1000
C
1070
     1
1002
}
1001
GENIUS_GENOBJ-N-REC_13
1002
{
1000
OWNER
1000
GEN
1002
}
1001
GENIUS_GENODEF_13
1002
{
1000
HIER
1070
     0
1002
}
1002
{
1000
MANEDIT
1070
     0
1002
}
1002
{
1000
NOSEL
1070
     0
1002
}
1002
{
1000
BEHIND
1070
     0
1002
}
1002
{
1000
OTHER
1070
     0
1002
}
1002
{
1000
REACTOR
1002
}
  0
VERTEX
  5
1549
  8
0
  6
CONTINUOUS
 10
441.0695704826594
 20
566.56931096486505
 30
0.0
  0
VERTEX
  5
154A
  8
0
  6
CONTINUOUS
 10
490.99999999999449
 20
566.56931096486505
 30
0.0
  0
VERTEX
  5
154B
  8
0
  6
CONTINUOUS
 10
490.99999999999449
 20
584.08795231951217
 30
0.0
  0
VERTEX
  5
154C
  8
0
  6
CONTINUOUS
 10
441.0695704826594
 20
584.08795231951217
 30
0.0
  0
SEQEND
  5
154D
  8
0
  6
CONTINUOUS
  0
INSERT
  5
11C8
  8
0
  6
CONTINUOUS
  2
*U41
 10
0.0
 20
0.0
 30
0.0
1001
ACAD
1000
DSTYLE
1002
{
1070
   176
1070
   256
1070
    77
1070
     0
1002
}
  0
INSERT
  5
11C9
  8
0
  6
CONTINUOUS
  2
*U42
 10
0.0
 20
0.0
 30
0.0
  0
INSERT
  5
11CA
  8
0
  6
CONTINUOUS
  2
*U43
 10
0.0
 20
0.0
 30
0.0
1001
ACAD
1000
DSTYLE
1002
{
1070
   176
1070
   256
1070
    77
1070
     0
1002
}
  0
INSERT
  5
11CB
  8
0
  6
CONTINUOUS
  2
*U44
 10
0.0
 20
0.0
 30
0.0
  0
INSERT
  5
11CC
  8
0
  6
CONTINUOUS
  2
*X45
 10
0.0
 20
0.0
 30
0.0
1001
ACAD
1000
HATCH
1002
{
1070
    19
1000
_USER
1040
1.0
1040
0.7853981633974483
1000
R14_HATCH_DATA
1000
11CC
1011
1.0
1021
0.0
1031
0.0
1021
0.0
1031
0.0
1011
0.0
1021
0.0
1031
0.0
1021
1.0
1031
0.0
1011
0.0
1021
0.0
1031
0.0
1021
0.0
1031
1.0
1040
0.0
1010
0.0
1020
0.0
1030
1.0
1000
_USER
1070
     0
1070
     0
1071
        1
1071
        1
1071
        4
1070
     1
1040
-574.25491715303178
1040
520.9999999999427
1040
-505.25491715303491
1040
520.9999999999427
1070
     1
1040
-505.25491715303491
1040
520.9999999999427
1040
-505.25491715303491
1040
523.99999999988177
1070
     1
1040
-505.25491715303491
1040
523.99999999988177
1040
-574.25491715303178
1040
523.99999999988177
1070
     1
1040
-574.25491715303178
1040
523.99999999988177
1040
-574.25491715303178
1040
520.9999999999427
1071
        0
1070
     0
1070
     0
1040
0.7853981633974483
1040
1.0
1070
     0
1070
     1
1040
0.7853981633974483
1040
0.0
1040
-0.5
1040
-0.7071067811865475
1040
0.7071067811865476
1070
     0
1071
        1
1040
-517.76197357554338
1040
522.17258139632747
1040
0.0
1002
}
  0
POLYLINE
  5
11CD
  8
0
 66
     1
 10
0.0
 20
0.0
 30
0.0
 70
     1
  0
VERTEX
  5
159E
  8
0
 10
-574.25491715303178
 20
520.9999999999427
 30
0.0
  0
VERTEX
  5
159F
  8
0
 10
-505.25491715303491
 20
520.9999999999427
 30
0.0
  0
VERTEX
  5
15A0
  8
0
 10
-505.25491715303491
 20
523.99999999988177
 30
0.0
  0
VERTEX
  5
15A1
  8
0
 10
-574.25491715303178
 20
523.99999999988177
 30
0.0
  0
SEQEND
  5
15A2
  8
0
  0
INSERT
  5
11CE
  8
0
  6
CONTINUOUS
  2
*X46
 10
0.0
 20
0.0
 30
0.0
1001
ACAD
1000
HATCH
1002
{
1070
    19
1000
_USER
1040
1.0
1040
0.7853981633974483
1000
R14_HATCH_DATA
1000
11CE
1011
1.0
1021
0.0
1031
0.0
1021
0.0
1031
0.0
1011
0.0
1021
0.0
1031
0.0
1021
1.0
1031
0.0
1011
0.0
1021
0.0
1031
0.0
1021
0.0
1031
1.0
1040
0.0
1010
0.0
1020
0.0
1030
1.0
1000
_USER
1070
     0
1070
     0
1071
        1
1071
        1
1071
        4
1070
     1
1040
431.74508284696282
1040
520.9999999999427
1040
500.74508284695952
1040
520.9999999999427
1070
     1
1040
500.74508284695952
1040
520.9999999999427
1040
500.74508284695952
1040
523.99999999988177
1070
     1
1040
500.74508284695952
1040
523.99999999988177
1040
431.74508284696282
1040
523.99999999988177
1070
     1
1040
431.74508284696282
1040
523.99999999988177
1040
431.74508284696282
1040
520.9999999999427
1071
        0
1070
     0
1070
     0
1040
0.7853981633974483
1040
1.0
1070
     0
1070
     1
1040
0.7853981633974483
1040
1005.999999999994
1040
-0.5
1040
-0.7071067811865475
1040
0.7071067811865476
1070
     0
1071
        1
1040
488.23802642445111
1040
522.17258139632747
1040
0.0
1002
}
  0
POLYLINE
  5
11CF
  8
0
 66
     1
 10
0.0
 20
0.0
 30
0.0
 70
     1
  0
VERTEX
  5
15D8
  8
0
 10
431.74508284696282
 20
520.9999999999427
 30
0.0
  0
VERTEX
  5
15D9
  8
0
 10
500.74508284695952
 20
520.9999999999427
 30
0.0
  0
VERTEX
  5
15DA
  8
0
 10
500.74508284695952
 20
523.99999999988177
 30
0.0
  0
VERTEX
  5
15DB
  8
0
 10
431.74508284696282
 20
523.99999999988177
 30
0.0
  0
SEQEND
  5
15DC
  8
0
  0
INSERT
  5
11D0
  8
0
  6
CONTINUOUS
  2
*U47
 10
0.0
 20
0.0
 30
0.0
1001
ACAD
1000
DSTYLE
1002
{
1070
   176
1070
     0
1070
   147
1040
1.0
1070
    77
1070
     0
1002
}
  0
INSERT
  5
11D1
  8
0
  6
CONTINUOUS
  2
*U48
 10
0.0
 20
0.0
 30
0.0
  0
ENDSEC
  0
EOF
