  0
SECTION
  2
HEADER
  9
$ACADVER
  1
AC1009
  9
$INSBASE
 10
0.0
 20
0.0
 30
0.0
  9
$EXTMIN
 10
-120.0273926198081
 20
-160.0007952754612
 30
-0.0015258207003583
  9
$EXTMAX
 10
204.007171262806
 20
272.32929369833602
 30
0.0000000349246037
  9
$LIMMIN
 10
0.0
 20
0.0
  9
$LIMMAX
 10
420.0
 20
297.0
  9
$ORTHOMODE
 70
     0
  9
$REGENMODE
 70
     1
  9
$FILLMODE
 70
     1
  9
$QTEXTMODE
 70
     0
  9
$MIRRTEXT
 70
     0
  9
$DRAGMODE
 70
     2
  9
$LTSCALE
 40
1.0
  9
$OSMODE
 70
     0
  9
$ATTMODE
 70
     1
  9
$TEXTSIZE
 40
2.5
  9
$TRACEWID
 40
1.0
  9
$TEXTSTYLE
  7
ARIAL
  9
$CLAYER
  8
0
  9
$CELTYPE
  6
CONTINUOUS
  9
$CECOLOR
 62
   256
  9
$DIMSCALE
 40
2.0
  9
$DIMASZ
 40
2.0
  9
$DIMEXO
 40
2.0
  9
$DIMDLI
 40
6.0
  9
$DIMRND
 40
0.0
  9
$DIMDLE
 40
1.5
  9
$DIMEXE
 40
1.5
  9
$DIMTP
 40
0.0
  9
$DIMTM
 40
0.0
  9
$DIMTXT
 40
2.0
  9
$DIMCEN
 40
2.0
  9
$DIMTSZ
 40
0.0
  9
$DIMTOL
 70
     0
  9
$DIMLIM
 70
     0
  9
$DIMTIH
 70
     0
  9
$DIMTOH
 70
     0
  9
$DIMSE1
 70
     0
  9
$DIMSE2
 70
     0
  9
$DIMTAD
 70
     0
  9
$DIMZIN
 70
     0
  9
$DIMBLK
  1
ARCHTICK
  9
$DIMASO
 70
     1
  9
$DIMSHO
 70
     1
  9
$DIMPOST
  1

  9
$DIMAPOST
  1

  9
$DIMALT
 70
     0
  9
$DIMALTD
 70
     2
  9
$DIMALTF
 40
0.0394
  9
$DIMLFAC
 40
1.0
  9
$DIMTOFL
 70
     1
  9
$DIMTVP
 40
0.0
  9
$DIMTIX
 70
     1
  9
$DIMSOXD
 70
     0
  9
$DIMSAH
 70
     0
  9
$DIMBLK1
  1

  9
$DIMBLK2
  1

  9
$DIMSTYLE
  2
1_TO_2_LEADER
  9
$DIMCLRD
 70
     0
  9
$DIMCLRE
 70
     0
  9
$DIMCLRT
 70
     0
  9
$DIMTFAC
 40
1.0
  9
$DIMGAP
 40
1.0
  9
$LUNITS
 70
     2
  9
$LUPREC
 70
     1
  9
$SKETCHINC
 40
1.0
  9
$FILLETRAD
 40
0.0
  9
$AUNITS
 70
     1
  9
$AUPREC
 70
     4
  9
$MENU
  1
.
  9
$ELEVATION
 40
0.0
  9
$PELEVATION
 40
0.0
  9
$THICKNESS
 40
0.0
  9
$LIMCHECK
 70
     0
  9
$BLIPMODE
 70
     0
  9
$CHAMFERA
 40
0.0
  9
$CHAMFERB
 40
0.0
  9
$SKPOLY
 70
     0
  9
$TDCREATE
 40
2455492.3865162041
  9
$TDUPDATE
 40
2455936.5085843401
  9
$TDINDWG
 40
0.1552374074
  9
$TDUSRTIMER
 40
0.1552366782
  9
$USRTIMER
 70
     1
  9
$ANGBASE
 50
0.0
  9
$ANGDIR
 70
     0
  9
$PDMODE
 70
     0
  9
$PDSIZE
 40
0.0
  9
$PLINEWID
 40
0.0
  9
$COORDS
 70
     1
  9
$SPLFRAME
 70
     0
  9
$SPLINETYPE
 70
     6
  9
$SPLINESEGS
 70
     8
  9
$ATTDIA
 70
     0
  9
$ATTREQ
 70
     1
  9
$HANDLING
 70
     1
  9
$HANDSEED
  5
1D5D
  9
$SURFTAB1
 70
     6
  9
$SURFTAB2
 70
     6
  9
$SURFTYPE
 70
     6
  9
$SURFU
 70
     6
  9
$SURFV
 70
     6
  9
$UCSNAME
  2

  9
$UCSORG
 10
0.0
 20
0.0
 30
0.0
  9
$UCSXDIR
 10
1.0
 20
0.0
 30
0.0
  9
$UCSYDIR
 10
0.0
 20
1.0
 30
0.0
  9
$PUCSNAME
  2

  9
$PUCSORG
 10
0.0
 20
0.0
 30
0.0
  9
$PUCSXDIR
 10
1.0
 20
0.0
 30
0.0
  9
$PUCSYDIR
 10
0.0
 20
1.0
 30
0.0
  9
$USERI1
 70
     0
  9
$USERI2
 70
     0
  9
$USERI3
 70
     0
  9
$USERI4
 70
     0
  9
$USERI5
 70
     0
  9
$USERR1
 40
0.0
  9
$USERR2
 40
0.0
  9
$USERR3
 40
0.0
  9
$USERR4
 40
0.0
  9
$USERR5
 40
0.0
  9
$WORLDVIEW
 70
     1
  9
$SHADEDGE
 70
     3
  9
$SHADEDIF
 70
    70
  9
$TILEMODE
 70
     1
  9
$MAXACTVP
 70
    64
  9
$PLIMCHECK
 70
     0
  9
$PEXTMIN
 10
0.0
 20
0.0
 30
0.0
  9
$PEXTMAX
 10
0.0
 20
0.0
 30
0.0
  9
$PLIMMIN
 10
0.0
 20
0.0
  9
$PLIMMAX
 10
12.0
 20
9.0
  9
$UNITMODE
 70
     0
  9
$VISRETAIN
 70
     1
  9
$PLINEGEN
 70
     0
  9
$PSLTSCALE
 70
     1
  0
ENDSEC
  0
SECTION
  2
TABLES
  0
TABLE
  2
VPORT
 70
     1
  0
VPORT
  2
*ACTIVE
 70
     0
 10
0.0
 20
0.0
 11
1.0
 21
1.0
 12
-14.88997837919848
 22
-507.41306188243988
 13
0.0
 23
0.0
 14
1.0
 24
1.0
 15
10.0
 25
10.0
 16
0.0
 26
0.0
 36
1.0
 17
56.879867700697403
 27
563.57731109387737
 37
0.0
 40
434.92926786542313
 41
1.6128385155466389
 42
50.0
 43
0.0
 44
0.0
 50
0.0
 51
0.0
 71
     0
 72
  1000
 73
     1
 74
     3
 75
     0
 76
     0
 77
     0
 78
     0
  0
ENDTAB
  0
TABLE
  2
LTYPE
 70
     1
  0
LTYPE
  2
CONTINUOUS
 70
     0
  3
Solid line
 72
    65
 73
     0
 40
0.0
  0
ENDTAB
  0
TABLE
  2
LAYER
 70
     9
  0
LAYER
  2
0
 70
     0
 62
     7
  6
CONTINUOUS
  0
ENDTAB
  0
TABLE
  2
STYLE
 70
     2
  0
STYLE
  2
STANDARD
 70
     0
 40
0.0
 41
1.0
 50
0.0
 71
     0
 42
2.5
  3
txt
  4

  0
STYLE
  2
ARIAL
 70
     0
 40
0.0
 41
1.0
 50
0.0
 71
     0
 42
2.5
  3
txt
  4

  0
ENDTAB
  0
TABLE
  2
VIEW
 70
     1
  0
ENDTAB
  0
TABLE
  2
UCS
 70
     0
  0
ENDTAB
  0
TABLE
  2
APPID
 70
    27
  0
APPID
  2
ACAD
 70
     0
  0
APPID
  2
ACAD_PSEXT
 70
     0
  0
APPID
  2
ACADANNOPO
 70
     0
  0
APPID
  2
ACADANNOTATIVE
 70
     0
  0
APPID
  2
ACAD_DSTYLE_DIMJAG
 70
     0
  0
APPID
  2
ACAD_DSTYLE_DIMTALN
 70
     0
  0
APPID
  2
ACAD_MLEADERVER
 70
     0
  0
APPID
  2
RAK
 70
     0
  0
APPID
  2
ACAD_EXEMPT_FROM_CAD_STANDARDS
 70
     0
  0
APPID
  2
ACDBBLOCKREPETAG
 70
     0
  0
APPID
  2
ACDBDYNAMICBLOCKGUID
 70
     0
  0
APPID
  2
GRADIENTCOLOR1ACI
 70
     0
  0
APPID
  2
GRADIENTCOLOR2ACI
 70
     0
  0
APPID
  2
ACAD_DSTYLE_DIMEXT_ENABLED
 70
     0
  0
APPID
  2
ACAD_DSTYLE_DIMEXT_LENGTH
 70
     0
  0
APPID
  2
GENIUS_GENODEF_13
 70
     0
  0
APPID
  2
GENIUS_GENSCREG_15
 70
     0
  0
APPID
  2
GENIUS_GENOBJ-N-SDF_13
 70
     0
  0
APPID
  2
GENIUS_GENCFG_13
 70
     0
  0
APPID
  2
GENIUS_GENCFG0_13
 70
     0
  0
APPID
  2
ADESKUNDERLAYLAYEROVERRIDEDATA
 70
     0
  0
APPID
  2
ACAECLAYERSTANDARD
 70
     0
  0
APPID
  2
ACCMTRANSPARENCY
 70
     0
  0
APPID
  2
URBANX
 70
     0
  0
APPID
  2
ACAD_NAV_VCDISPLAY
 70
     0
  0
APPID
  2
ACAD_DSTYLE_DIMJOGGED_JOGA
 70
     0
  0
APPID
  2
PE_URL
 70
     0
  0
ENDTAB
  0
TABLE
  2
DIMSTYLE
 70
     1
  0
DIMSTYLE
  2
1_TO_2_LEADER
 70
     0
  3

  4

  5
ARCHTICK
  6

  7

 40
2.0
 41
2.0
 42
2.0
 43
6.0
 44
1.5
 45
0.0
 46
1.5
 47
0.0
 48
0.0
140
2.0
141
2.0
142
0.0
143
0.0394
144
1.0
145
0.0
146
1.0
147
1.0
 71
     0
 72
     0
 73
     0
 74
     0
 75
     0
 76
     0
 77
     0
 78
     0
170
     0
171
     2
172
     1
173
     0
174
     1
175
     0
176
     0
177
     0
178
     0
  0
ENDTAB
  0
ENDSEC
  0
SECTION
  2
BLOCKS
  0
BLOCK
  8
0
  2
$MODEL_SPACE
 70
     0
 10
0.0
 20
0.0
 30
0.0
  3
$MODEL_SPACE
  1

  0
ENDBLK
  5
21
  8
0
  0
BLOCK
 67
     1
  8
0
  2
$PAPER_SPACE
 70
     0
 10
0.0
 20
0.0
 30
0.0
  3
$PAPER_SPACE
  1

  0
ENDBLK
  5
1BBD
 67
     1
  8
0
  0
BLOCK
  8
0
  2
_ARCHTICK
 70
     0
 10
0.0
 20
0.0
 30
0.0
  3
_ARCHTICK
  1

  0
POLYLINE
  5
3C9
  8
0
  6
BYBLOCK
 62
     0
 66
     1
 10
0.0
 20
0.0
 30
0.0
 40
0.15
 41
0.15
  0
VERTEX
  5
1C4D
  8
0
  6
BYBLOCK
 62
     0
 10
-0.5
 20
-0.5
 30
0.0
  0
VERTEX
  5
1C4E
  8
0
  6
BYBLOCK
 62
     0
 10
0.5
 20
0.5
 30
0.0
  0
SEQEND
  5
1C4F
  8
0
  6
BYBLOCK
 62
     0
  0
ENDBLK
  5
3CB
  8
0
  0
BLOCK
  8
0
  2
*U7
 70
     1
 10
0.0
 20
0.0
 30
0.0
  3
*U7
  1

  0
TEXT
  5
1C7D
  8
0
  6
CONTINUOUS
 10
72.904160982264273
 20
-157.9145446140956
 30
0.0
 40
7.0
  1
Head Detail
  7
ARIAL
  0
ENDBLK
  5
1C7F
  8
0
  0
BLOCK
  8
0
  2
*U8
 70
     1
 10
0.0
 20
0.0
 30
0.0
  3
*U8
  1

  0
SOLID
  5
1C86
  8
0
  6
CONTINUOUS
 10
71.958201551659045
 20
187.5985717173904
 30
0.0
 11
75.113883781609402
 21
185.05178666403
 31
0.0
 12
71.302794627863804
 22
186.43744315344111
 32
0.0
 13
71.302794627863804
 23
186.43744315344111
 33
0.0
  0
POLYLINE
  5
1C87
  8
0
  6
CONTINUOUS
 66
     1
 10
0.0
 20
0.0
 30
0.0
  0
VERTEX
  5
1C88
  8
0
  6
CONTINUOUS
 10
71.630498089761417
 20
187.0180074354158
 30
0.0
  0
VERTEX
  5
1C89
  8
0
  6
CONTINUOUS
 10
-74.0
 20
269.22013364884521
 30
0.0
  0
VERTEX
  5
1C8A
  8
0
  6
CONTINUOUS
 10
-78.0
 20
269.22013364884521
 30
0.0
  0
SEQEND
  5
1C8B
  8
0
  6
CONTINUOUS
  0
ENDBLK
  5
1C8D
  8
0
  0
BLOCK
  8
0
  2
*U9
 70
     1
 10
0.0
 20
0.0
 30
0.0
  3
*U9
  1

  0
TEXT
  5
1C8F
  8
0
  6
CONTINUOUS
 10
-103.99181446111859
 20
267.2542400608508
 30
0.0
 40
4.0
  1
 Structure
  7
ARIAL
  0
ENDBLK
  5
1C91
  8
0
  0
BLOCK
  8
0
  2
*U10
 70
     1
 10
0.0
 20
0.0
 30
0.0
  3
*U10
  1

  0
SOLID
  5
1C93
  8
0
  6
CONTINUOUS
 10
-51.474483605219568
 20
148.960724966301
 30
0.0
 11
-50.400000000002102
 21
145.0504910312834
 31
0.0
 12
-52.684587389267577
 22
148.40087980055381
 32
0.0
 13
-52.684587389267577
 23
148.40087980055381
 33
0.0
  0
POLYLINE
  5
1C94
  8
0
  6
CONTINUOUS
 66
     1
 10
0.0
 20
0.0
 30
0.0
  0
VERTEX
  5
1C95
  8
0
  6
CONTINUOUS
 10
-52.079535497243583
 20
148.68080238342739
 30
0.0
  0
VERTEX
  5
1C96
  8
0
  6
CONTINUOUS
 10
-74.0
 20
196.06182604105689
 30
0.0
  0
VERTEX
  5
1C97
  8
0
  6
CONTINUOUS
 10
-78.0
 20
196.06182604105689
 30
0.0
  0
SEQEND
  5
1C98
  8
0
  6
CONTINUOUS
  0
ENDBLK
  5
1C9A
  8
0
  0
BLOCK
  8
0
  2
*U11
 70
     1
 10
0.0
 20
0.0
 30
0.0
  3
*U11
  1

  0
TEXT
  5
1C9C
  8
0
  6
CONTINUOUS
 10
-120.0109140518417
 20
194.649820584031
 30
0.0
 40
4.0
  1
ST 900 cladding
  7
ARIAL
  0
ENDBLK
  5
1C9E
  8
0
  0
BLOCK
  8
0
  2
*U12
 70
     1
 10
0.0
 20
0.0
 30
0.0
  3
*U12
  1

  0
SOLID
  5
1CA0
  8
0
  6
CONTINUOUS
 10
-62.733060950001722
 20
22.636782429611809
 30
0.0
 11
-60.900000000001491
 21
19.019555315090429
 31
0.0
 12
-63.80713131417081
 22
21.846750385583551
 32
0.0
 13
-63.80713131417081
 23
21.846750385583551
 33
0.0
  0
POLYLINE
  5
1CA1
  8
0
  6
CONTINUOUS
 66
     1
 10
0.0
 20
0.0
 30
0.0
  0
VERTEX
  5
1CA2
  8
0
  6
CONTINUOUS
 10
-63.270096132086273
 20
22.24176640759768
 30
0.0
  0
VERTEX
  5
1CA3
  8
0
  6
CONTINUOUS
 10
-74.0
 20
36.829366799281388
 30
0.0
  0
VERTEX
  5
1CA4
  8
0
  6
CONTINUOUS
 10
-78.0
 20
36.829366799281388
 30
0.0
  0
SEQEND
  5
1CA5
  8
0
  6
CONTINUOUS
  0
ENDBLK
  5
1CA7
  8
0
  0
BLOCK
  8
0
  2
*U13
 70
     1
 10
0.0
 20
0.0
 30
0.0
  3
*U13
  1

  0
TEXT
  5
1CA9
  8
0
  6
CONTINUOUS
 10
-113.7980900409277
 20
35.417361342255468
 30
0.0
 40
4.0
  1
Head flashing
  7
ARIAL
  0
ENDBLK
  5
1CAB
  8
0
  0
BLOCK
  8
0
  2
*U14
 70
     1
 10
0.0
 20
0.0
 30
0.0
  3
*U14
  1

  0
SOLID
  5
1CAD
  8
0
  6
CONTINUOUS
 10
-55.228902560839202
 20
-28.594529246909719
 30
0.0
 11
-51.400000000001249
 21
-27.25888347648516
 31
0.0
 12
-54.588752442818382
 22
-29.76413841418557
 32
0.0
 13
-54.588752442818382
 23
-29.76413841418557
 33
0.0
  0
POLYLINE
  5
1CAE
  8
0
  6
CONTINUOUS
 66
     1
 10
0.0
 20
0.0
 30
0.0
  0
VERTEX
  5
1CAF
  8
0
  6
CONTINUOUS
 10
-54.908827501828789
 20
-29.179333830547641
 30
0.0
  0
VERTEX
  5
1CB0
  8
0
  6
CONTINUOUS
 10
-74.0
 20
-39.628308299792742
 30
0.0
  0
VERTEX
  5
1CB1
  8
0
  6
CONTINUOUS
 10
-78.0
 20
-39.628308299792742
 30
0.0
  0
SEQEND
  5
1CB2
  8
0
  6
CONTINUOUS
  0
ENDBLK
  5
1CB4
  8
0
  0
BLOCK
  8
0
  2
*U15
 70
     1
 10
0.0
 20
0.0
 30
0.0
  3
*U15
  1

  0
TEXT
  5
1CB6
  8
0
  6
CONTINUOUS
 10
-118.74761255115961
 20
-41.595566144267487
 30
0.0
 40
4.0
  1
Window section
  7
ARIAL
  0
ENDBLK
  5
1CB8
  8
0
  0
ENDSEC
  0
SECTION
  2
ENTITIES
  0
POLYLINE
  5
501
  8
0
 66
     1
 10
0.0
 20
0.0
 30
0.0
 40
0.5
 41
0.5
  0
VERTEX
  5
1C50
  8
0
 10
-68.062869062028625
 20
4.4146050642860919
 30
0.0
  0
VERTEX
  5
1C51
  8
0
 10
-60.900000000001491
 20
11.392664020776349
 30
0.0
  0
VERTEX
  5
1C52
  8
0
 10
-60.900000000001491
 20
26.64644660940451
 30
0.0
 42
-0.3536435698526406
  0
VERTEX
  5
1C53
  8
0
 10
-59.319126090431268
 20
28.602036883547051
 30
0.0
  0
VERTEX
  5
1C54
  8
0
 10
-7.8041545784016071
 20
39.414345465274408
 30
0.0
 42
0.3565614720781773
  0
VERTEX
  5
1C55
  8
0
 10
-6.202989518908459
 20
41.374174715548712
 30
0.0
  0
VERTEX
  5
1C56
  8
0
 10
-6.202989518908459
 20
144.39430456245549
 30
0.0
 42
1.0
  0
VERTEX
  5
1C57
  8
0
 10
-8.2029895189084598
 20
144.39430456245549
 30
0.0
  0
VERTEX
  5
1C58
  8
0
 10
-8.2029895189084598
 20
134.39430456245549
 30
0.0
 40
0.0
 41
0.0
  0
SEQEND
  5
1C59
  8
0
  0
POLYLINE
  5
580
  8
0
 66
     1
 10
0.0
 20
0.0
 30
0.0
  0
VERTEX
  5
1C5A
  8
0
 10
-3.0
 20
69.000000000001819
 30
0.0
  0
VERTEX
  5
1C5B
  8
0
 10
-3.0000000000000782
 20
249.8692691057208
 30
0.0
  0
SEQEND
  5
1C5C
  8
0
  0
POLYLINE
  5
581
  8
0
 66
     1
 10
0.0
 20
0.0
 30
0.0
  0
VERTEX
  5
1C5D
  8
0
 10
200.0
 20
69.000000000001819
 30
0.0
  0
VERTEX
  5
1C5E
  8
0
 10
200.0
 20
249.86926910572089
 30
0.0
  0
SEQEND
  5
1C5F
  8
0
  0
POLYLINE
  5
59F
  8
0
 66
     1
 10
0.0
 20
0.0
 30
0.0
  0
VERTEX
  5
1C60
  8
0
 10
200.0
 20
-5.9999999999995453
 30
0.0
  0
VERTEX
  5
1C61
  8
0
 10
200.0
 20
-130.3284056409463
 30
0.0
  0
SEQEND
  5
1C62
  8
0
  0
POLYLINE
  5
5A0
  8
0
 66
     1
 10
0.0
 20
0.0
 30
0.0
  0
VERTEX
  5
1C63
  8
0
 10
-3.0000000000000071
 20
-39.999999999999197
 30
0.0
  0
VERTEX
  5
1C64
  8
0
 10
-3.0000000000000231
 20
-130.3284056409463
 30
0.0
  0
SEQEND
  5
1C65
  8
0
  0
POLYLINE
  5
5A1
  8
0
 66
     1
 10
0.0
 20
0.0
 30
0.0
  0
VERTEX
  5
1C66
  8
0
 10
-3.0000000000000009
 20
-5.9999999999995453
 30
0.0
  0
VERTEX
  5
1C67
  8
0
 10
-3.0000000000000031
 20
-17.999999999999542
 30
0.0
  0
SEQEND
  5
1C68
  8
0
  0
POLYLINE
  5
5A2
  8
0
 66
     1
 10
0.0
 20
0.0
 30
0.0
  0
VERTEX
  5
1C69
  8
0
 10
-50.400000000002088
 20
249.86926910572089
 30
0.0
  0
VERTEX
  5
1C6A
  8
0
 10
-50.400000000002102
 20
40.231712956845968
 30
0.0
  0
VERTEX
  5
1C6B
  8
0
 10
-12.000000000000711
 20
40.231712956845968
 30
0.0
  0
VERTEX
  5
1C6C
  8
0
 10
-12.000000000000689
 20
249.86926910572089
 30
0.0
  0
SEQEND
  5
1C6D
  8
0
  0
POLYLINE
  5
5FE
  8
0
  6
CONTINUOUS
 66
     1
 10
0.0
 20
0.0
 30
0.0
  0
VERTEX
  5
1C6E
  8
0
  6
CONTINUOUS
 10
204.0
 20
249.86926910572089
 30
0.0
  0
VERTEX
  5
1C6F
  8
0
  6
CONTINUOUS
 10
76.799999999998761
 20
249.86926910572089
 30
0.0
  0
VERTEX
  5
1C70
  8
0
  6
CONTINUOUS
 10
75.799999999998875
 20
252.61674652517601
 30
0.0
  0
VERTEX
  5
1C71
  8
0
  6
CONTINUOUS
 10
73.799999999998875
 20
247.12179168626659
 30
0.0
  0
VERTEX
  5
1C72
  8
0
  6
CONTINUOUS
 10
72.799999999998761
 20
249.86926910572089
 30
0.0
  0
VERTEX
  5
1C73
  8
0
  6
CONTINUOUS
 10
-54.400000000002102
 20
249.86926910572089
 30
0.0
  0
SEQEND
  5
1C74
  8
0
  6
CONTINUOUS
  0
POLYLINE
  5
608
  8
0
  6
CONTINUOUS
 66
     1
 10
0.0
 20
0.0
 30
0.0
  0
VERTEX
  5
1C75
  8
0
  6
CONTINUOUS
 10
204.0
 20
-130.3284056409463
 30
0.0
  0
VERTEX
  5
1C76
  8
0
  6
CONTINUOUS
 10
100.4999999999997
 20
-130.3284056409463
 30
0.0
  0
VERTEX
  5
1C77
  8
0
  6
CONTINUOUS
 10
99.499999999999602
 20
-127.58092822149121
 30
0.0
  0
VERTEX
  5
1C78
  8
0
  6
CONTINUOUS
 10
97.499999999999602
 20
-133.07588306040071
 30
0.0
  0
VERTEX
  5
1C79
  8
0
  6
CONTINUOUS
 10
96.499999999999716
 20
-130.3284056409463
 30
0.0
  0
VERTEX
  5
1C7A
  8
0
  6
CONTINUOUS
 10
-7.0000000000000178
 20
-130.3284056409463
 30
0.0
  0
SEQEND
  5
1C7B
  8
0
  6
CONTINUOUS
  0
INSERT
  5
7A4
  8
0
  6
CONTINUOUS
  2
*U7
 10
0.0
 20
0.0
 30
0.0
  0
INSERT
  5
177C
  8
0
  6
CONTINUOUS
  2
*U8
 10
0.0
 20
0.0
 30
0.0
  0
INSERT
  5
177D
  8
0
  6
CONTINUOUS
  2
*U9
 10
0.0
 20
0.0
 30
0.0
  0
INSERT
  5
177E
  8
0
  6
CONTINUOUS
  2
*U10
 10
0.0
 20
0.0
 30
0.0
  0
INSERT
  5
177F
  8
0
  6
CONTINUOUS
  2
*U11
 10
0.0
 20
0.0
 30
0.0
  0
INSERT
  5
1780
  8
0
  6
CONTINUOUS
  2
*U12
 10
0.0
 20
0.0
 30
0.0
  0
INSERT
  5
1781
  8
0
  6
CONTINUOUS
  2
*U13
 10
0.0
 20
0.0
 30
0.0
  0
INSERT
  5
1782
  8
0
  6
CONTINUOUS
  2
*U14
 10
0.0
 20
0.0
 30
0.0
  0
INSERT
  5
1783
  8
0
  6
CONTINUOUS
  2
*U15
 10
0.0
 20
0.0
 30
0.0
  0
POLYLINE
  5
1BAF
  8
0
 66
     1
 10
0.0
 20
0.0
 30
0.0
 70
     1
  0
VERTEX
  5
1CB9
  8
0
 10
200.0
 20
-19.499999999999829
 30
0.0
  0
VERTEX
  5
1CBA
  8
0
 10
199.99999999999989
 20
-38.499999999999602
 30
0.0
  0
VERTEX
  5
1CBB
  8
0
 10
-2.400000000000559
 20
-38.499999999999552
 30
0.0
  0
VERTEX
  5
1CBC
  8
0
 10
-2.400000000000559
 20
-19.499999999999542
 30
0.0
  0
SEQEND
  5
1CBD
  8
0
  0
POLYLINE
  5
1BB0
  8
0
 66
     1
 10
0.0
 20
0.0
 30
0.0
 70
     1
 40
0.5
 41
0.5
  0
VERTEX
  5
1CBE
  8
0
 10
199.75
 20
-19.749999999999829
 30
0.0
  0
VERTEX
  5
1CBF
  8
0
 10
199.74999999999989
 20
-38.249999999999602
 30
0.0
  0
VERTEX
  5
1CC0
  8
0
 10
-2.1500000000006159
 20
-38.249999999999552
 30
0.0
  0
VERTEX
  5
1CC1
  8
0
 10
-2.150000000000559
 20
-19.749999999999542
 30
0.0
  0
SEQEND
  5
1CC2
  8
0
  0
ARC
  5
1BB1
  8
0
 10
4.8252291007430008
 20
70.897056288742306
 30
0.0
 40
103.10517195596169
 50
266.26011971109688
 51
298.16456858978171
  0
ARC
  5
1BB2
  8
0
 10
4.3435311200039157
 20
57.041067023907431
 30
0.0
 40
132.50026943152761
 50
314.16884310634742
 51
324.4480529100241
  0
ARC
  5
1BB3
  8
0
 10
9.1408158944434206
 20
59.917892910802372
 30
0.0
 40
159.61885085592559
 50
322.16075166631401
 51
329.95503176579001
  0
ARC
  5
1BB4
  8
0
 10
7.1813609211433507
 20
49.369530328776243
 30
0.0
 40
203.97502670602469
 50
334.6380936614101
 51
340.117743064477
  0
ARC
  5
1BB5
  8
0
 10
11.19384991457691
 20
100.3685095758312
 30
0.0
 40
143.0605774984721
 50
284.71478706487159
 51
302.71371874455281
  0
POLYLINE
  5
1BB6
  8
0
 66
     1
 10
0.0
 20
0.0
 30
0.0
  0
VERTEX
  5
1CC3
  8
0
 10
1.849999999999425
 20
-19.499999999999542
 30
0.0
  0
VERTEX
  5
1CC4
  8
0
 10
47.5323197772382
 20
-37.999999999999538
 30
0.0
  0
SEQEND
  5
1CC5
  8
0
  0
POLYLINE
  5
1BB7
  8
0
 66
     1
 10
0.0
 20
0.0
 30
0.0
  0
VERTEX
  5
1CC6
  8
0
 10
67.777240548788257
 20
-19.999999999999542
 30
0.0
  0
VERTEX
  5
1CC7
  8
0
 10
181.92038294117779
 20
-38.499999999999829
 30
0.0
  0
SEQEND
  5
1CC8
  8
0
  0
POLYLINE
  5
1BB8
  8
0
 66
     1
 10
0.0
 20
0.0
 30
0.0
 70
     1
  0
VERTEX
  5
1CC9
  8
0
 10
22.0
 20
60.000000000001833
 30
0.0
  0
VERTEX
  5
1CCA
  8
0
 10
22.0
 20
69.000000000001833
 30
0.0
 42
0.4142135623730951
  0
VERTEX
  5
1CCB
  8
0
 10
19.0
 20
72.000000000001833
 30
0.0
  0
VERTEX
  5
1CCC
  8
0
 10
0.0
 20
72.000000000001833
 30
0.0
 42
0.4142135623730951
  0
VERTEX
  5
1CCD
  8
0
 10
-3.0
 20
69.000000000001833
 30
0.0
  0
VERTEX
  5
1CCE
  8
0
 10
-3.0
 20
0.0000000000000124
 30
0.0
 42
0.4142135623730951
  0
VERTEX
  5
1CCF
  8
0
 10
0.0
 20
-2.9999999999999871
 30
0.0
  0
VERTEX
  5
1CD0
  8
0
 10
55.179174768728899
 20
-2.9999999999981721
 30
0.0
 42
0.1343354352701982
  0
VERTEX
  5
1CD1
  8
0
 10
56.706488164417799
 20
-2.5821142095846792
 30
0.0
  0
VERTEX
  5
1CD2
  8
0
 10
68.818511835582285
 20
3.132114209585787
 30
0.0
 42
-0.1343354352701658
  0
VERTEX
  5
1CD3
  8
0
 10
70.345825231270283
 20
3.5500000000010989
 30
0.0
  0
VERTEX
  5
1CD4
  8
0
 10
78.679540122764124
 20
3.550000000002917
 30
0.0
 42
-0.130324888025067
  0
VERTEX
  5
1CD5
  8
0
 10
80.165955554808079
 20
3.1558720543034791
 30
0.0
  0
VERTEX
  5
1CD6
  8
0
 10
92.809044445194104
 20
-2.6058720542987359
 30
0.0
 42
0.1303248880250286
  0
VERTEX
  5
1CD7
  8
0
 10
94.29545987723759
 20
-2.9999999999981739
 30
0.0
  0
VERTEX
  5
1CD8
  8
0
 10
102.7045401227642
 20
-2.9999999999981748
 30
0.0
 42
0.1303248880249852
  0
VERTEX
  5
1CD9
  8
0
 10
104.1909555548077
 20
-2.6058720542987368
 30
0.0
  0
VERTEX
  5
1CDA
  8
0
 10
116.8340444451955
 20
3.1558720543016578
 30
0.0
 42
-0.1303248880250239
  0
VERTEX
  5
1CDB
  8
0
 10
118.3204598772395
 20
3.5500000000010958
 30
0.0
  0
VERTEX
  5
1CDC
  8
0
 10
126.65417476873201
 20
3.5500000000010949
 30
0.0
 42
-0.1343354352702374
  0
VERTEX
  5
1CDD
  8
0
 10
128.1814881644209
 20
3.132114209589421
 30
0.0
  0
VERTEX
  5
1CDE
  8
0
 10
140.29351183558131
 20
-2.5821142095846841
 30
0.0
 42
0.1343354352702762
  0
VERTEX
  5
1CDF
  8
0
 10
141.82082523127059
 20
-2.999999999998177
 30
0.0
  0
VERTEX
  5
1CE0
  8
0
 10
197.0
 20
-2.999999999998181
 30
0.0
 42
0.4142135623730951
  0
VERTEX
  5
1CE1
  8
0
 10
200.0
 20
0.000000000001819
 30
0.0
  0
VERTEX
  5
1CE2
  8
0
 10
200.0
 20
69.000000000001819
 30
0.0
 42
0.4142135623730951
  0
VERTEX
  5
1CE3
  8
0
 10
197.0
 20
72.000000000001819
 30
0.0
  0
VERTEX
  5
1CE4
  8
0
 10
178.0
 20
72.000000000001819
 30
0.0
 42
0.4142135623730951
  0
VERTEX
  5
1CE5
  8
0
 10
175.0
 20
69.000000000001819
 30
0.0
  0
VERTEX
  5
1CE6
  8
0
 10
174.99999999999949
 20
60.000000000001819
 30
0.0
  0
VERTEX
  5
1CE7
  8
0
 10
176.14999999999961
 20
60.000000000001819
 30
0.0
  0
VERTEX
  5
1CE8
  8
0
 10
176.14999999999961
 20
69.000000000001819
 30
0.0
 42
-0.4142135623732102
  0
VERTEX
  5
1CE9
  8
0
 10
178.0
 20
70.850000000002183
 30
0.0
  0
VERTEX
  5
1CEA
  8
0
 10
197.0
 20
70.850000000000364
 30
0.0
 42
-0.4142135623731383
  0
VERTEX
  5
1CEB
  8
0
 10
198.84999999999991
 20
69.000000000001819
 30
0.0
  0
VERTEX
  5
1CEC
  8
0
 10
198.85000000000031
 20
0.000000000001819
 30
0.0
 42
-0.4142135623732102
  0
VERTEX
  5
1CED
  8
0
 10
197.0
 20
-1.8499999999985439
 30
0.0
  0
VERTEX
  5
1CEE
  8
0
 10
141.82082523126931
 20
-1.849999999998541
 30
0.0
 42
-0.1408425027255955
  0
VERTEX
  5
1CEF
  8
0
 10
140.83861889025951
 20
-1.5677278793427789
 30
0.0
  0
VERTEX
  5
1CF0
  8
0
 10
128.71679910517241
 20
4.1511221649288972
 30
0.0
 42
0.1307776883162581
  0
VERTEX
  5
1CF1
  8
0
 10
126.65417476873201
 20
4.700000000002551
 30
0.0
  0
VERTEX
  5
1CF2
  8
0
 10
118.3204598772395
 20
4.700000000002551
 30
0.0
 42
0.1268679712255803
  0
VERTEX
  5
1CF3
  8
0
 10
116.31347547580479
 20
4.1824253072027249
 30
0.0
  0
VERTEX
  5
1CF4
  8
0
 10
103.6608011658459
 20
-1.583687095824637
 30
0.0
 42
-0.1366468976977215
  0
VERTEX
  5
1CF5
  8
0
 10
102.7045401227642
 20
-1.8499999999985379
 30
0.0
  0
VERTEX
  5
1CF6
  8
0
 10
94.29545987723759
 20
-1.8499999999985379
 30
0.0
 42
-0.1366468976977103
  0
VERTEX
  5
1CF7
  8
0
 10
93.339198834156363
 20
-1.583687095824637
 30
0.0
  0
VERTEX
  5
1CF8
  8
0
 10
80.686524524197921
 20
4.1824253072063646
 30
0.0
 42
0.1268679712254794
  0
VERTEX
  5
1CF9
  8
0
 10
78.679540122763683
 20
4.7000000000025528
 30
0.0
  0
VERTEX
  5
1CFA
  8
0
 10
70.345825231268918
 20
4.6999999999989157
 30
0.0
 42
0.1307776883162657
  0
VERTEX
  5
1CFB
  8
0
 10
68.283200894831225
 20
4.1511221649270809
 30
0.0
  0
VERTEX
  5
1CFC
  8
0
 10
56.161381109739978
 20
-1.567727879342774
 30
0.0
 42
-0.1408425027257099
  0
VERTEX
  5
1CFD
  8
0
 10
55.179174768728899
 20
-1.849999999998535
 30
0.0
  0
VERTEX
  5
1CFE
  8
0
 10
0.0
 20
-1.8500000000003509
 30
0.0
 42
-0.4142135623731383
  0
VERTEX
  5
1CFF
  8
0
 10
-1.8499999999999091
 20
0.0000000000000124
 30
0.0
  0
VERTEX
  5
1D00
  8
0
 10
-1.8500000000003629
 20
69.000000000001833
 30
0.0
 42
-0.4142135623732102
  0
VERTEX
  5
1D01
  8
0
 10
0.0
 20
70.850000000002197
 30
0.0
  0
VERTEX
  5
1D02
  8
0
 10
19.0
 20
70.850000000000378
 30
0.0
 42
-0.4142135623731383
  0
VERTEX
  5
1D03
  8
0
 10
20.849999999999909
 20
69.000000000001833
 30
0.0
  0
VERTEX
  5
1D04
  8
0
 10
20.849999999999909
 20
60.000000000001833
 30
0.0
  0
SEQEND
  5
1D05
  8
0
  0
POLYLINE
  5
1BB9
  8
0
 66
     1
 10
0.0
 20
0.0
 30
0.0
 70
   129
1001
ACDBBLOCKREPETAG
1070
     1
1071
        0
1005
1BB9
  0
VERTEX
  5
1D06
  8
0
 10
-54.400000000001029
 20
20.89644660940462
 30
0.0
  0
VERTEX
  5
1D07
  8
0
 10
-54.400000000001477
 20
26.14644660940462
 30
0.0
 42
0.4142135623730951
  0
VERTEX
  5
1D08
  8
0
 10
-54.900000000001477
 20
26.64644660940462
 30
0.0
  0
VERTEX
  5
1D09
  8
0
 10
-58.400000000001491
 20
26.646446609404169
 30
0.0
 42
0.4142135623730784
  0
VERTEX
  5
1D0A
  8
0
 10
-58.900000000001477
 20
26.146446609404169
 30
0.0
  0
VERTEX
  5
1D0B
  8
0
 10
-58.900000000001938
 20
-13.3535533905956
 30
0.0
 42
0.1989123673796969
  0
VERTEX
  5
1D0C
  8
0
 10
-58.753553390595272
 20
-13.707106781188941
 30
0.0
  0
VERTEX
  5
1D0D
  8
0
 10
-51.54644660940906
 20
-20.91421356237424
 30
0.0
 42
-0.1989123673796435
  0
VERTEX
  5
1D0E
  8
0
 10
-51.400000000002393
 20
-21.26776695296758
 30
0.0
  0
VERTEX
  5
1D0F
  8
0
 10
-51.400000000000119
 20
-33.250000000002728
 30
0.0
  0
VERTEX
  5
1D10
  8
0
 10
-49.900000000000119
 20
-33.250000000002728
 30
0.0
  0
VERTEX
  5
1D11
  8
0
 10
-49.900000000001931
 20
-24.50000000000227
 30
0.0
 42
-0.4142135623731409
  0
VERTEX
  5
1D12
  8
0
 10
-49.400000000001938
 20
-24.000000000002281
 30
0.0
  0
VERTEX
  5
1D13
  8
0
 10
-43.922542485940113
 20
-24.000000000002281
 30
0.0
 42
-0.2840790438403827
  0
VERTEX
  5
1D14
  8
0
 10
-43.475328890440352
 20
-24.276393202252169
 30
0.0
  0
VERTEX
  5
1D15
  8
0
 10
-38.751722092689342
 20
-33.723606797750108
 30
0.0
 42
0.2840790438403819
  0
VERTEX
  5
1D16
  8
0
 10
-38.304508497189573
 20
-34.0
 30
0.0
  0
VERTEX
  5
1D17
  8
0
 10
-19.39999999999921
 20
-33.999999999999552
 30
0.0
 42
-0.414213562373126
  0
VERTEX
  5
1D18
  8
0
 10
-18.89999999999921
 20
-34.499999999999552
 30
0.0
  0
VERTEX
  5
1D19
  8
0
 10
-18.900000000001029
 20
-44.500000000000448
 30
0.0
 42
-0.4142135623730571
  0
VERTEX
  5
1D1A
  8
0
 10
-19.400000000001029
 20
-45.000000000000448
 30
0.0
  0
VERTEX
  5
1D1B
  8
0
 10
-22.400000000000119
 20
-45.000000000000448
 30
0.0
 42
0.4142135623730062
  0
VERTEX
  5
1D1C
  8
0
 10
-22.900000000000119
 20
-45.500000000000462
 30
0.0
  0
VERTEX
  5
1D1D
  8
0
 10
-22.90000000000148
 20
-48.000000000000909
 30
0.0
  0
VERTEX
  5
1D1E
  8
0
 10
-21.400000000001029
 20
-48.000000000002281
 30
0.0
  0
VERTEX
  5
1D1F
  8
0
 10
-21.400000000000119
 20
-46.999999999999091
 30
0.0
 42
-0.4142135623728287
  0
VERTEX
  5
1D20
  8
0
 10
-20.900000000000119
 20
-46.499999999999552
 30
0.0
  0
VERTEX
  5
1D21
  8
0
 10
-19.400000000000571
 20
-46.499999999999552
 30
0.0
 42
-0.4142135623730951
  0
VERTEX
  5
1D22
  8
0
 10
-18.900000000000571
 20
-46.999999999999538
 30
0.0
  0
VERTEX
  5
1D23
  8
0
 10
-18.900000000000571
 20
-51.999999999999538
 30
0.0
 42
-0.4142135623730951
  0
VERTEX
  5
1D24
  8
0
 10
-19.400000000000571
 20
-52.499999999999538
 30
0.0
  0
VERTEX
  5
1D25
  8
0
 10
-20.900000000000581
 20
-52.499999999999538
 30
0.0
 42
-0.4142135623730951
  0
VERTEX
  5
1D26
  8
0
 10
-21.400000000000571
 20
-51.999999999999538
 30
0.0
  0
VERTEX
  5
1D27
  8
0
 10
-21.400000000000571
 20
-51.0
 30
0.0
  0
VERTEX
  5
1D28
  8
0
 10
-22.900000000000571
 20
-50.999999999998629
 30
0.0
  0
VERTEX
  5
1D29
  8
0
 10
-22.900000000001029
 20
-53.500000000001357
 30
0.0
 42
0.4142135623731676
  0
VERTEX
  5
1D2A
  8
0
 10
-22.400000000001029
 20
-54.000000000001371
 30
0.0
  0
VERTEX
  5
1D2B
  8
0
 10
-17.900000000000571
 20
-53.999999999999552
 30
0.0
 42
0.4142135623729752
  0
VERTEX
  5
1D2C
  8
0
 10
-17.400000000000571
 20
-53.499999999999552
 30
0.0
  0
VERTEX
  5
1D2D
  8
0
 10
-17.399999999999661
 20
-34.499999999999552
 30
0.0
 42
-0.4142135623730715
  0
VERTEX
  5
1D2E
  8
0
 10
-16.899999999999661
 20
-33.999999999999552
 30
0.0
  0
VERTEX
  5
1D2F
  8
0
 10
-4.4000000000005741
 20
-33.999999999999091
 30
0.0
 42
-0.4142135623731053
  0
VERTEX
  5
1D30
  8
0
 10
-3.9000000000005741
 20
-34.499999999999091
 30
0.0
  0
VERTEX
  5
1D31
  8
0
 10
-3.9000000000001189
 20
-39.499999999999091
 30
0.0
 42
0.414213562373072
  0
VERTEX
  5
1D32
  8
0
 10
-3.4000000000001189
 20
-39.999999999999091
 30
0.0
  0
VERTEX
  5
1D33
  8
0
 10
1.849999999999425
 20
-40.0
 30
0.0
  0
VERTEX
  5
1D34
  8
0
 10
1.849999999999425
 20
-38.499999999999552
 30
0.0
  0
VERTEX
  5
1D35
  8
0
 10
-2.4000000000005741
 20
-38.499999999999552
 30
0.0
  0
VERTEX
  5
1D36
  8
0
 10
-2.4000000000005741
 20
-19.499999999999059
 30
0.0
  0
VERTEX
  5
1D37
  8
0
 10
6.849999999999425
 20
-19.499999999999542
 30
0.0
  0
VERTEX
  5
1D38
  8
0
 10
6.849999999999425
 20
-17.999999999999542
 30
0.0
  0
VERTEX
  5
1D39
  8
0
 10
-3.4000000000005741
 20
-17.999999999999542
 30
0.0
 42
0.4142135623731081
  0
VERTEX
  5
1D3A
  8
0
 10
-3.9000000000005741
 20
-18.499999999999542
 30
0.0
  0
VERTEX
  5
1D3B
  8
0
 10
-3.900000000001028
 20
-31.999999999999091
 30
0.0
 42
-0.4142135623730852
  0
VERTEX
  5
1D3C
  8
0
 10
-4.400000000001028
 20
-32.499999999999091
 30
0.0
  0
VERTEX
  5
1D3D
  8
0
 10
-16.89999999999921
 20
-32.499999999999552
 30
0.0
 42
-0.4142135623731053
  0
VERTEX
  5
1D3E
  8
0
 10
-17.39999999999921
 20
-31.999999999999549
 30
0.0
  0
VERTEX
  5
1D3F
  8
0
 10
-17.400000000000119
 20
-27.999999999999091
 30
0.0
 42
0.4142135623730655
  0
VERTEX
  5
1D40
  8
0
 10
-17.900000000000119
 20
-27.499999999999091
 30
0.0
  0
VERTEX
  5
1D41
  8
0
 10
-23.03382064488417
 20
-27.499999999999091
 30
0.0
  0
VERTEX
  5
1D42
  8
0
 10
-23.03382064488417
 20
-28.999999999999091
 30
0.0
  0
VERTEX
  5
1D43
  8
0
 10
-19.399999999999661
 20
-28.999999999999549
 30
0.0
 42
-0.4142135623729824
  0
VERTEX
  5
1D44
  8
0
 10
-18.899999999999661
 20
-29.499999999999549
 30
0.0
  0
VERTEX
  5
1D45
  8
0
 10
-18.8999999999983
 20
-32.000000000000448
 30
0.0
 42
-0.4142135623731982
  0
VERTEX
  5
1D46
  8
0
 10
-19.3999999999983
 20
-32.500000000000462
 30
0.0
  0
VERTEX
  5
1D47
  8
0
 10
-37.377457514065128
 20
-32.499999999999091
 30
0.0
 42
-0.2840790438404103
  0
VERTEX
  5
1D48
  8
0
 10
-37.824671109564889
 20
-32.223606797749198
 30
0.0
  0
VERTEX
  5
1D49
  8
0
 10
-41.574671109562608
 20
-24.723606797752382
 30
0.0
 42
-0.5575365158350297
  0
VERTEX
  5
1D4A
  8
0
 10
-41.127457514062847
 20
-24.000000000002281
 30
0.0
  0
VERTEX
  5
1D4B
  8
0
 10
-38.527600844166066
 20
-24.00000000000318
 30
0.0
  0
VERTEX
  5
1D4C
  8
0
 10
-38.527600844164262
 20
-22.500000000002728
 30
0.0
  0
VERTEX
  5
1D4D
  8
0
 10
-49.400000000001938
 20
-22.50000000000318
 30
0.0
 42
-0.4142135623731073
  0
VERTEX
  5
1D4E
  8
0
 10
-49.900000000001931
 20
-22.00000000000319
 30
0.0
  0
VERTEX
  5
1D4F
  8
0
 10
-49.9000000000024
 20
-20.646446609407121
 30
0.0
 42
0.1989123673796139
  0
VERTEX
  5
1D50
  8
0
 10
-50.04644660940906
 20
-20.292893218813791
 30
0.0
  0
VERTEX
  5
1D51
  8
0
 10
-57.253553390597091
 20
-13.08578643762803
 30
0.0
 42
-0.1989123673797151
  0
VERTEX
  5
1D52
  8
0
 10
-57.40000000000375
 20
-12.7322330470347
 30
0.0
  0
VERTEX
  5
1D53
  8
0
 10
-57.400000000001931
 20
24.646446609405071
 30
0.0
 42
-0.4142135623731039
  0
VERTEX
  5
1D54
  8
0
 10
-56.900000000001938
 20
25.146446609405078
 30
0.0
  0
VERTEX
  5
1D55
  8
0
 10
-56.400000000001477
 20
25.14644660940462
 30
0.0
 42
-0.4142135623730508
  0
VERTEX
  5
1D56
  8
0
 10
-55.900000000001491
 20
24.64644660940462
 30
0.0
  0
VERTEX
  5
1D57
  8
0
 10
-55.900000000001938
 20
20.896446609405071
 30
0.0
  0
SEQEND
  5
1D58
  8
0
  0
ENDSEC
  0
EOF
