  0
SECTION
  2
HEADER
  9
$ACADVER
  1
AC1009
  9
$INSBASE
 10
0.0
 20
0.0
 30
0.0
  9
$EXTMIN
 10
-105.02693489106029
 20
-86.546495678766632
 30
-0.0015258207003583
  9
$EXTMAX
 10
203.03725400224789
 20
252.62218822111129
 30
0.0000000349246037
  9
$LIMMIN
 10
0.0
 20
0.0
  9
$LIMMAX
 10
420.0
 20
297.0
  9
$ORTHOMODE
 70
     0
  9
$REGENMODE
 70
     1
  9
$FILLMODE
 70
     1
  9
$QTEXTMODE
 70
     0
  9
$MIRRTEXT
 70
     0
  9
$DRAGMODE
 70
     2
  9
$LTSCALE
 40
1.0
  9
$OSMODE
 70
     0
  9
$ATTMODE
 70
     1
  9
$TEXTSIZE
 40
2.5
  9
$TRACEWID
 40
1.0
  9
$TEXTSTYLE
  7
ARIAL
  9
$CLAYER
  8
0
  9
$CELTYPE
  6
CONTINUOUS
  9
$CECOLOR
 62
   256
  9
$DIMSCALE
 40
2.0
  9
$DIMASZ
 40
2.0
  9
$DIMEXO
 40
2.0
  9
$DIMDLI
 40
6.0
  9
$DIMRND
 40
0.0
  9
$DIMDLE
 40
1.5
  9
$DIMEXE
 40
1.5
  9
$DIMTP
 40
0.0
  9
$DIMTM
 40
0.0
  9
$DIMTXT
 40
2.0
  9
$DIMCEN
 40
2.0
  9
$DIMTSZ
 40
0.0
  9
$DIMTOL
 70
     0
  9
$DIMLIM
 70
     0
  9
$DIMTIH
 70
     0
  9
$DIMTOH
 70
     0
  9
$DIMSE1
 70
     0
  9
$DIMSE2
 70
     0
  9
$DIMTAD
 70
     0
  9
$DIMZIN
 70
     0
  9
$DIMBLK
  1
ARCHTICK
  9
$DIMASO
 70
     1
  9
$DIMSHO
 70
     1
  9
$DIMPOST
  1

  9
$DIMAPOST
  1

  9
$DIMALT
 70
     0
  9
$DIMALTD
 70
     2
  9
$DIMALTF
 40
0.0394
  9
$DIMLFAC
 40
1.0
  9
$DIMTOFL
 70
     1
  9
$DIMTVP
 40
0.0
  9
$DIMTIX
 70
     1
  9
$DIMSOXD
 70
     0
  9
$DIMSAH
 70
     0
  9
$DIMBLK1
  1

  9
$DIMBLK2
  1

  9
$DIMSTYLE
  2
1_TO_2_LEADER
  9
$DIMCLRD
 70
     0
  9
$DIMCLRE
 70
     0
  9
$DIMCLRT
 70
     0
  9
$DIMTFAC
 40
1.0
  9
$DIMGAP
 40
1.0
  9
$LUNITS
 70
     2
  9
$LUPREC
 70
     1
  9
$SKETCHINC
 40
1.0
  9
$FILLETRAD
 40
0.0
  9
$AUNITS
 70
     1
  9
$AUPREC
 70
     4
  9
$MENU
  1
.
  9
$ELEVATION
 40
0.0
  9
$PELEVATION
 40
0.0
  9
$THICKNESS
 40
0.0
  9
$LIMCHECK
 70
     0
  9
$BLIPMODE
 70
     0
  9
$CHAMFERA
 40
0.0
  9
$CHAMFERB
 40
0.0
  9
$SKPOLY
 70
     0
  9
$TDCREATE
 40
2455492.3865162041
  9
$TDUPDATE
 40
2455936.50839765
  9
$TDINDWG
 40
0.1859568287
  9
$TDUSRTIMER
 40
0.1859560995
  9
$USRTIMER
 70
     1
  9
$ANGBASE
 50
0.0
  9
$ANGDIR
 70
     0
  9
$PDMODE
 70
     0
  9
$PDSIZE
 40
0.0
  9
$PLINEWID
 40
0.0
  9
$COORDS
 70
     1
  9
$SPLFRAME
 70
     0
  9
$SPLINETYPE
 70
     6
  9
$SPLINESEGS
 70
     8
  9
$ATTDIA
 70
     0
  9
$ATTREQ
 70
     1
  9
$HANDLING
 70
     1
  9
$HANDSEED
  5
1612
  9
$SURFTAB1
 70
     6
  9
$SURFTAB2
 70
     6
  9
$SURFTYPE
 70
     6
  9
$SURFU
 70
     6
  9
$SURFV
 70
     6
  9
$UCSNAME
  2

  9
$UCSORG
 10
0.0
 20
0.0
 30
0.0
  9
$UCSXDIR
 10
1.0
 20
0.0
 30
0.0
  9
$UCSYDIR
 10
0.0
 20
1.0
 30
0.0
  9
$PUCSNAME
  2

  9
$PUCSORG
 10
0.0
 20
0.0
 30
0.0
  9
$PUCSXDIR
 10
1.0
 20
0.0
 30
0.0
  9
$PUCSYDIR
 10
0.0
 20
1.0
 30
0.0
  9
$USERI1
 70
     0
  9
$USERI2
 70
     0
  9
$USERI3
 70
     0
  9
$USERI4
 70
     0
  9
$USERI5
 70
     0
  9
$USERR1
 40
0.0
  9
$USERR2
 40
0.0
  9
$USERR3
 40
0.0
  9
$USERR4
 40
0.0
  9
$USERR5
 40
0.0
  9
$WORLDVIEW
 70
     1
  9
$SHADEDGE
 70
     3
  9
$SHADEDIF
 70
    70
  9
$TILEMODE
 70
     1
  9
$MAXACTVP
 70
    64
  9
$PLIMCHECK
 70
     0
  9
$PEXTMIN
 10
0.0
 20
0.0
 30
0.0
  9
$PEXTMAX
 10
0.0
 20
0.0
 30
0.0
  9
$PLIMMIN
 10
0.0
 20
0.0
  9
$PLIMMAX
 10
12.0
 20
9.0
  9
$UNITMODE
 70
     0
  9
$VISRETAIN
 70
     1
  9
$PLINEGEN
 70
     0
  9
$PSLTSCALE
 70
     1
  0
ENDSEC
  0
SECTION
  2
TABLES
  0
TABLE
  2
VPORT
 70
     1
  0
VPORT
  2
*ACTIVE
 70
     0
 10
0.0
 20
0.0
 11
1.0
 21
1.0
 12
-7.8747081451036101
 22
-480.53946482270499
 13
0.0
 23
0.0
 14
1.0
 24
1.0
 15
10.0
 25
10.0
 16
0.0
 26
0.0
 36
1.0
 17
56.879867700697403
 27
563.57731109387737
 37
0.0
 40
341.20777418384512
 41
1.61283851554664
 42
50.0
 43
0.0
 44
0.0
 50
0.0
 51
0.0
 71
     0
 72
  1000
 73
     1
 74
     3
 75
     0
 76
     0
 77
     0
 78
     0
  0
ENDTAB
  0
TABLE
  2
LTYPE
 70
     1
  0
LTYPE
  2
CONTINUOUS
 70
     0
  3
Solid line
 72
    65
 73
     0
 40
0.0
  0
ENDTAB
  0
TABLE
  2
LAYER
 70
    10
  0
LAYER
  2
0
 70
     0
 62
     7
  6
CONTINUOUS
  0
ENDTAB
  0
TABLE
  2
STYLE
 70
     2
  0
STYLE
  2
STANDARD
 70
     0
 40
0.0
 41
1.0
 50
0.0
 71
     0
 42
2.5
  3
txt
  4

  0
STYLE
  2
ARIAL
 70
     0
 40
0.0
 41
1.0
 50
0.0
 71
     0
 42
2.5
  3
txt
  4

  0
ENDTAB
  0
TABLE
  2
VIEW
 70
     1
  0
ENDTAB
  0
TABLE
  2
UCS
 70
     0
  0
ENDTAB
  0
TABLE
  2
APPID
 70
    30
  0
APPID
  2
ACAD
 70
     0
  0
APPID
  2
ACAD_PSEXT
 70
     0
  0
APPID
  2
ACADANNOPO
 70
     0
  0
APPID
  2
ACADANNOTATIVE
 70
     0
  0
APPID
  2
ACAD_DSTYLE_DIMJAG
 70
     0
  0
APPID
  2
ACAD_DSTYLE_DIMTALN
 70
     0
  0
APPID
  2
ACAD_MLEADERVER
 70
     0
  0
APPID
  2
RAK
 70
     0
  0
APPID
  2
ACAD_EXEMPT_FROM_CAD_STANDARDS
 70
     0
  0
APPID
  2
ACDBBLOCKREPETAG
 70
     0
  0
APPID
  2
ACDBDYNAMICBLOCKGUID
 70
     0
  0
APPID
  2
GRADIENTCOLOR1ACI
 70
     0
  0
APPID
  2
GRADIENTCOLOR2ACI
 70
     0
  0
APPID
  2
ACAD_DSTYLE_DIMEXT_ENABLED
 70
     0
  0
APPID
  2
ACAD_DSTYLE_DIMEXT_LENGTH
 70
     0
  0
APPID
  2
GENIUS_GENODEF_13
 70
     0
  0
APPID
  2
GENIUS_GENSCREG_15
 70
     0
  0
APPID
  2
GENIUS_GENOBJ-N-SDF_13
 70
     0
  0
APPID
  2
GENIUS_GENCFG_13
 70
     0
  0
APPID
  2
GENIUS_GENCFG0_13
 70
     0
  0
APPID
  2
ADESKUNDERLAYLAYEROVERRIDEDATA
 70
     0
  0
APPID
  2
ACAECLAYERSTANDARD
 70
     0
  0
APPID
  2
ACCMTRANSPARENCY
 70
     0
  0
APPID
  2
URBANX
 70
     0
  0
APPID
  2
ACAD_NAV_VCDISPLAY
 70
     0
  0
APPID
  2
ACAD_DSTYLE_DIMJOGGED_JOGA
 70
     0
  0
APPID
  2
PE_URL
 70
     0
  0
APPID
  2
ACADANNOAV
 70
     0
  0
APPID
  2
ACAUTHENVIRON
 70
     0
  0
APPID
  2
ACDBDYNAMICBLOCKTRUENAME
 70
     0
  0
ENDTAB
  0
TABLE
  2
DIMSTYLE
 70
     1
  0
DIMSTYLE
  2
1_TO_2_LEADER
 70
     0
  3

  4

  5
ARCHTICK
  6

  7

 40
2.0
 41
2.0
 42
2.0
 43
6.0
 44
1.5
 45
0.0
 46
1.5
 47
0.0
 48
0.0
140
2.0
141
2.0
142
0.0
143
0.0394
144
1.0
145
0.0
146
1.0
147
1.0
 71
     0
 72
     0
 73
     0
 74
     0
 75
     0
 76
     0
 77
     0
 78
     0
170
     0
171
     2
172
     1
173
     0
174
     1
175
     0
176
     0
177
     0
178
     0
  0
ENDTAB
  0
ENDSEC
  0
SECTION
  2
BLOCKS
  0
BLOCK
  8
0
  2
$MODEL_SPACE
 70
     0
 10
0.0
 20
0.0
 30
0.0
  3
$MODEL_SPACE
  1

  0
ENDBLK
  5
21
  8
0
  0
BLOCK
 67
     1
  8
0
  2
$PAPER_SPACE
 70
     0
 10
0.0
 20
0.0
 30
0.0
  3
$PAPER_SPACE
  1

  0
ENDBLK
  5
13D0
 67
     1
  8
0
  0
BLOCK
  8
0
  2
_ARCHTICK
 70
     0
 10
0.0
 20
0.0
 30
0.0
  3
_ARCHTICK
  1

  0
POLYLINE
  5
3C9
  8
0
  6
BYBLOCK
 62
     0
 66
     1
 10
0.0
 20
0.0
 30
0.0
 40
0.15
 41
0.15
  0
VERTEX
  5
1471
  8
0
  6
BYBLOCK
 62
     0
 10
-0.5
 20
-0.5
 30
0.0
  0
VERTEX
  5
1472
  8
0
  6
BYBLOCK
 62
     0
 10
0.5
 20
0.5
 30
0.0
  0
SEQEND
  5
1473
  8
0
  6
BYBLOCK
 62
     0
  0
ENDBLK
  5
3CB
  8
0
  0
BLOCK
  8
0
  2
*U8
 70
     1
 10
0.0
 20
0.0
 30
0.0
  3
*U8
  1

  0
TEXT
  5
147C
  8
0
  6
CONTINUOUS
 10
72.896998635742975
 20
-84.462486425308853
 30
0.0
 40
7.0
  1
Jamb Detail
  7
ARIAL
  0
ENDBLK
  5
147E
  8
0
  0
BLOCK
  8
0
  2
*U9
 70
     1
 10
0.0
 20
0.0
 30
0.0
  3
*U9
  1

  0
SOLID
  5
1485
  8
0
  6
CONTINUOUS
 10
-50.836941858103692
 20
177.78000614635559
 30
0.0
 11
-50.400000000002152
 21
173.74843991757021
 31
0.0
 12
-52.120858372406992
 22
177.4203727746046
 32
0.0
 13
-52.120858372406992
 23
177.4203727746046
 33
0.0
  0
POLYLINE
  5
1486
  8
0
  6
CONTINUOUS
 66
     1
 10
0.0
 20
0.0
 30
0.0
  0
VERTEX
  5
1487
  8
0
  6
CONTINUOUS
 10
-51.478900115255328
 20
177.6001894604801
 30
0.0
  0
VERTEX
  5
1488
  8
0
  6
CONTINUOUS
 10
-59.0
 20
204.45104676755039
 30
0.0
  0
VERTEX
  5
1489
  8
0
  6
CONTINUOUS
 10
-63.0
 20
204.45104676755039
 30
0.0
  0
SEQEND
  5
148A
  8
0
  6
CONTINUOUS
  0
ENDBLK
  5
148C
  8
0
  0
BLOCK
  8
0
  2
*U10
 70
     1
 10
0.0
 20
0.0
 30
0.0
  3
*U10
  1

  0
TEXT
  5
148E
  8
0
  6
CONTINUOUS
 10
-105.0109140518417
 20
203.03904131052451
 30
0.0
 40
4.0
  1
ST 900 cladding
  7
ARIAL
  0
ENDBLK
  5
1490
  8
0
  0
BLOCK
  8
0
  2
*U11
 70
     1
 10
0.0
 20
0.0
 30
0.0
  3
*U11
  1

  0
SOLID
  5
1492
  8
0
  6
CONTINUOUS
 10
-42.632715171361099
 20
51.570446943654588
 30
0.0
 11
-40.759239877582289
 21
47.973985520527002
 31
0.0
 12
-43.697866157576598
 22
50.768430014692399
 32
0.0
 13
-43.697866157576598
 23
50.768430014692399
 33
0.0
  0
POLYLINE
  5
1493
  8
0
  6
CONTINUOUS
 66
     1
 10
0.0
 20
0.0
 30
0.0
  0
VERTEX
  5
1494
  8
0
  6
CONTINUOUS
 10
-43.165290664468849
 20
51.169438479173493
 30
0.0
  0
VERTEX
  5
1495
  8
0
  6
CONTINUOUS
 10
-59.0
 20
72.199363978379395
 30
0.0
  0
VERTEX
  5
1496
  8
0
  6
CONTINUOUS
 10
-63.0
 20
72.199363978379395
 30
0.0
  0
SEQEND
  5
1497
  8
0
  6
CONTINUOUS
  0
ENDBLK
  5
1499
  8
0
  0
BLOCK
  8
0
  2
*U12
 70
     1
 10
0.0
 20
0.0
 30
0.0
  3
*U12
  1

  0
TEXT
  5
149B
  8
0
  6
CONTINUOUS
 10
-99.1036834924966
 20
70.787358521353482
 30
0.0
 40
4.0
  1
Jamb flashing
  7
ARIAL
  0
ENDBLK
  5
149D
  8
0
  0
BLOCK
  8
0
  2
*U13
 70
     1
 10
0.0
 20
0.0
 30
0.0
  3
*U13
  1

  0
SOLID
  5
149F
  8
0
  6
CONTINUOUS
 10
-53.657866233487667
 20
-30.62733779799883
 30
0.0
 11
-51.40000000000132
 21
-27.258883476484801
 31
0.0
 12
-52.443347738213582
 22
-31.17754012661527
 32
0.0
 13
-52.443347738213582
 23
-31.17754012661527
 33
0.0
  0
POLYLINE
  5
14A0
  8
0
  6
CONTINUOUS
 66
     1
 10
0.0
 20
0.0
 30
0.0
  0
VERTEX
  5
14A1
  8
0
  6
CONTINUOUS
 10
-53.050606985850621
 20
-30.902438962307059
 30
0.0
  0
VERTEX
  5
14A2
  8
0
  6
CONTINUOUS
 10
-59.0
 20
-44.03514937723525
 30
0.0
  0
VERTEX
  5
14A3
  8
0
  6
CONTINUOUS
 10
-63.0
 20
-44.03514937723525
 30
0.0
  0
SEQEND
  5
14A4
  8
0
  6
CONTINUOUS
  0
ENDBLK
  5
14A6
  8
0
  0
BLOCK
  8
0
  2
*U14
 70
     1
 10
0.0
 20
0.0
 30
0.0
  3
*U14
  1

  0
TEXT
  5
14A8
  8
0
  6
CONTINUOUS
 10
-103.74761255115961
 20
-46.002407221710008
 30
0.0
 40
4.0
  1
Window section
  7
ARIAL
  0
ENDBLK
  5
14AA
  8
0
  0
ENDSEC
  0
SECTION
  2
ENTITIES
  0
POLYLINE
  5
30B
  8
0
 66
     1
 10
0.0
 20
0.0
 30
0.0
  0
VERTEX
  5
1462
  8
0
 10
-3.000000000000056
 20
69.000000000002217
 30
0.0
  0
VERTEX
  5
1463
  8
0
 10
-3.000000000000135
 20
249.8692691057212
 30
0.0
  0
SEQEND
  5
1464
  8
0
  0
POLYLINE
  5
30C
  8
0
 66
     1
 10
0.0
 20
0.0
 30
0.0
  0
VERTEX
  5
1465
  8
0
 10
199.99999999999989
 20
69.000000000002203
 30
0.0
  0
VERTEX
  5
1466
  8
0
 10
199.99999999999989
 20
249.86926910572129
 30
0.0
  0
SEQEND
  5
1467
  8
0
  0
POLYLINE
  5
32C
  8
0
 66
     1
 10
0.0
 20
0.0
 30
0.0
 40
0.5
 41
0.5
  0
VERTEX
  5
1468
  8
0
 10
-30.153941177280942
 20
53.53716719852553
 30
0.0
  0
VERTEX
  5
1469
  8
0
 10
-51.364538577883657
 20
42.410803842528487
 30
0.0
 42
0.2734109161190322
  0
VERTEX
  5
146A
  8
0
 10
-52.400000000001299
 20
40.658757800959741
 30
0.0
  0
VERTEX
  5
146B
  8
0
 10
-52.40000000000132
 20
-5.9999999999992069
 30
0.0
 42
0.4142135623730951
  0
VERTEX
  5
146C
  8
0
 10
-50.40000000000132
 20
-7.9999999999992069
 30
0.0
  0
VERTEX
  5
146D
  8
0
 10
52.661123979147007
 20
-7.9999999999992069
 30
0.0
 42
-1.0
  0
VERTEX
  5
146E
  8
0
 10
52.661123979147007
 20
-9.9999999999992077
 30
0.0
  0
VERTEX
  5
146F
  8
0
 10
42.661123979147007
 20
-9.9999999999992077
 30
0.0
  0
SEQEND
  5
1470
  8
0
  0
POLYLINE
  5
453
  8
0
  6
CONTINUOUS
 66
     1
 10
0.0
 20
0.0
 30
0.0
  0
VERTEX
  5
1474
  8
0
  6
CONTINUOUS
 10
-17.10433105027202
 20
249.86926910572129
 30
0.0
  0
VERTEX
  5
1475
  8
0
  6
CONTINUOUS
 10
90.947834474864237
 20
249.86926910572129
 30
0.0
  0
VERTEX
  5
1476
  8
0
  6
CONTINUOUS
 10
91.947834474864237
 20
247.12179168626699
 30
0.0
  0
VERTEX
  5
1477
  8
0
  6
CONTINUOUS
 10
93.947834474864223
 20
252.6167465251761
 30
0.0
  0
VERTEX
  5
1478
  8
0
  6
CONTINUOUS
 10
94.947834474864237
 20
249.86926910572129
 30
0.0
  0
VERTEX
  5
1479
  8
0
  6
CONTINUOUS
 10
202.99999999999989
 20
249.86926910572129
 30
0.0
  0
SEQEND
  5
147A
  8
0
  6
CONTINUOUS
  0
POLYLINE
  5
68A
  8
0
 10
-53.130572862876164
 20
19.086183776805338
 30
0.0
 66
     1
 70
     8
  0
VERTEX
  8
0
  5
1590
 10
-53.1306
 20
19.0862
 30
0.000000
  70
    32
  0
VERTEX
  8
0
  5
1591
 10
-53.1976
 20
19.1421
 30
0.000000
  70
    32
  0
VERTEX
  8
0
  5
1592
 10
-53.2691
 20
19.1929
 30
0.000000
  70
    32
  0
VERTEX
  8
0
  5
1593
 10
-53.3447
 20
19.2383
 30
0.000000
  70
    32
  0
VERTEX
  8
0
  5
1594
 10
-53.4245
 20
19.2783
 30
0.000000
  70
    32
  0
VERTEX
  8
0
  5
1595
 10
-53.5081
 20
19.3128
 30
0.000000
  70
    32
  0
VERTEX
  8
0
  5
1596
 10
-53.5953
 20
19.3416
 30
0.000000
  70
    32
  0
VERTEX
  8
0
  5
1597
 10
-53.6860
 20
19.3649
 30
0.000000
  70
    32
  0
VERTEX
  8
0
  5
1598
 10
-53.7799
 20
19.3823
 30
0.000000
  70
    32
  0
VERTEX
  8
0
  5
1599
 10
-53.8768
 20
19.3940
 30
0.000000
  70
    32
  0
VERTEX
  8
0
  5
159A
 10
-53.9765
 20
19.3999
 30
0.000000
  70
    32
  0
VERTEX
  8
0
  5
159B
 10
-54.0787
 20
19.4000
 30
0.000000
  70
    32
  0
VERTEX
  8
0
  5
159C
 10
-54.1832
 20
19.3943
 30
0.000000
  70
    32
  0
VERTEX
  8
0
  5
159D
 10
-54.2897
 20
19.3828
 30
0.000000
  70
    32
  0
VERTEX
  8
0
  5
159E
 10
-54.3980
 20
19.3655
 30
0.000000
  70
    32
  0
VERTEX
  8
0
  5
159F
 10
-54.5078
 20
19.3425
 30
0.000000
  70
    32
  0
VERTEX
  8
0
  5
15A0
 10
-54.6189
 20
19.3138
 30
0.000000
  70
    32
  0
VERTEX
  8
0
  5
15A1
 10
-54.7309
 20
19.2795
 30
0.000000
  70
    32
  0
VERTEX
  8
0
  5
15A2
 10
-54.8436
 20
19.2397
 30
0.000000
  70
    32
  0
VERTEX
  8
0
  5
15A3
 10
-54.9568
 20
19.1944
 30
0.000000
  70
    32
  0
VERTEX
  8
0
  5
15A4
 10
-55.0702
 20
19.1439
 30
0.000000
  70
    32
  0
VERTEX
  8
0
  5
15A5
 10
-55.1834
 20
19.0881
 30
0.000000
  70
    32
  0
VERTEX
  8
0
  5
15A6
 10
-55.2962
 20
19.0273
 30
0.000000
  70
    32
  0
VERTEX
  8
0
  5
15A7
 10
-55.4085
 20
18.9615
 30
0.000000
  70
    32
  0
VERTEX
  8
0
  5
15A8
 10
-55.5197
 20
18.8910
 30
0.000000
  70
    32
  0
VERTEX
  8
0
  5
15A9
 10
-55.6298
 20
18.8160
 30
0.000000
  70
    32
  0
VERTEX
  8
0
  5
15AA
 10
-55.7385
 20
18.7365
 30
0.000000
  70
    32
  0
VERTEX
  8
0
  5
15AB
 10
-55.8454
 20
18.6528
 30
0.000000
  70
    32
  0
VERTEX
  8
0
  5
15AC
 10
-55.9503
 20
18.5650
 30
0.000000
  70
    32
  0
VERTEX
  8
0
  5
15AD
 10
-56.0530
 20
18.4735
 30
0.000000
  70
    32
  0
VERTEX
  8
0
  5
15AE
 10
-56.1533
 20
18.3784
 30
0.000000
  70
    32
  0
VERTEX
  8
0
  5
15AF
 10
-56.2508
 20
18.2800
 30
0.000000
  70
    32
  0
VERTEX
  8
0
  5
15B0
 10
-56.3454
 20
18.1784
 30
0.000000
  70
    32
  0
VERTEX
  8
0
  5
15B1
 10
-56.4368
 20
18.0740
 30
0.000000
  70
    32
  0
VERTEX
  8
0
  5
15B2
 10
-56.5248
 20
17.9669
 30
0.000000
  70
    32
  0
VERTEX
  8
0
  5
15B3
 10
-56.6092
 20
17.8575
 30
0.000000
  70
    32
  0
VERTEX
  8
0
  5
15B4
 10
-56.6897
 20
17.7460
 30
0.000000
  70
    32
  0
VERTEX
  8
0
  5
15B5
 10
-56.7663
 20
17.6326
 30
0.000000
  70
    32
  0
VERTEX
  8
0
  5
15B6
 10
-56.8386
 20
17.5177
 30
0.000000
  70
    32
  0
VERTEX
  8
0
  5
15B7
 10
-56.9066
 20
17.4016
 30
0.000000
  70
    32
  0
VERTEX
  8
0
  5
15B8
 10
-56.9701
 20
17.2844
 30
0.000000
  70
    32
  0
VERTEX
  8
0
  5
15B9
 10
-57.0289
 20
17.1665
 30
0.000000
  70
    32
  0
VERTEX
  8
0
  5
15BA
 10
-57.0828
 20
17.0482
 30
0.000000
  70
    32
  0
VERTEX
  8
0
  5
15BB
 10
-57.1318
 20
16.9297
 30
0.000000
  70
    32
  0
VERTEX
  8
0
  5
15BC
 10
-57.1758
 20
16.8114
 30
0.000000
  70
    32
  0
VERTEX
  8
0
  5
15BD
 10
-57.2145
 20
16.6934
 30
0.000000
  70
    32
  0
VERTEX
  8
0
  5
15BE
 10
-57.2480
 20
16.5762
 30
0.000000
  70
    32
  0
VERTEX
  8
0
  5
15BF
 10
-57.2761
 20
16.4600
 30
0.000000
  70
    32
  0
VERTEX
  8
0
  5
15C0
 10
-57.2988
 20
16.3451
 30
0.000000
  70
    32
  0
VERTEX
  8
0
  5
15C1
 10
-57.3160
 20
16.2317
 30
0.000000
  70
    32
  0
VERTEX
  8
0
  5
15C2
 10
-57.3277
 20
16.1201
 30
0.000000
  70
    32
  0
VERTEX
  8
0
  5
15C3
 10
-57.3339
 20
16.0106
 30
0.000000
  70
    32
  0
VERTEX
  8
0
  5
15C4
 10
-57.3345
 20
15.9035
 30
0.000000
  70
    32
  0
VERTEX
  8
0
  5
15C5
 10
-57.3295
 20
15.7989
 30
0.000000
  70
    32
  0
VERTEX
  8
0
  5
15C6
 10
-57.3190
 20
15.6973
 30
0.000000
  70
    32
  0
VERTEX
  8
0
  5
15C7
 10
-57.3029
 20
15.5987
 30
0.000000
  70
    32
  0
VERTEX
  8
0
  5
15C8
 10
-57.2814
 20
15.5035
 30
0.000000
  70
    32
  0
VERTEX
  8
0
  5
15C9
 10
-57.2544
 20
15.4119
 30
0.000000
  70
    32
  0
VERTEX
  8
0
  5
15CA
 10
-57.2221
 20
15.3240
 30
0.000000
  70
    32
  0
VERTEX
  8
0
  5
15CB
 10
-57.1845
 20
15.2402
 30
0.000000
  70
    32
  0
VERTEX
  8
0
  5
15CC
 10
-57.1416
 20
15.1605
 30
0.000000
  70
    32
  0
VERTEX
  8
0
  5
15CD
 10
-57.0937
 20
15.0853
 30
0.000000
  70
    32
  0
VERTEX
  8
0
  5
15CE
 10
-57.0408
 20
15.0147
 30
0.000000
  70
    32
  0
VERTEX
  8
0
  5
15CF
 10
-56.9831
 20
14.9488
 30
0.000000
  70
    32
  0
VERTEX
  8
0
  5
15D0
 10
-56.9206
 20
14.8878
 30
0.000000
  70
    32
  0
VERTEX
  8
0
  5
15D1
 10
-56.8535
 20
14.8318
 30
0.000000
  70
    32
  0
VERTEX
  8
0
  5
15D2
 10
-56.7821
 20
14.7811
 30
0.000000
  70
    32
  0
VERTEX
  8
0
  5
15D3
 10
-56.7064
 20
14.7357
 30
0.000000
  70
    32
  0
VERTEX
  8
0
  5
15D4
 10
-56.6267
 20
14.6957
 30
0.000000
  70
    32
  0
VERTEX
  8
0
  5
15D5
 10
-56.5431
 20
14.6612
 30
0.000000
  70
    32
  0
VERTEX
  8
0
  5
15D6
 10
-56.4559
 20
14.6323
 30
0.000000
  70
    32
  0
VERTEX
  8
0
  5
15D7
 10
-56.3652
 20
14.6091
 30
0.000000
  70
    32
  0
VERTEX
  8
0
  5
15D8
 10
-56.2713
 20
14.5916
 30
0.000000
  70
    32
  0
VERTEX
  8
0
  5
15D9
 10
-56.1743
 20
14.5799
 30
0.000000
  70
    32
  0
VERTEX
  8
0
  5
15DA
 10
-56.0747
 20
14.5740
 30
0.000000
  70
    32
  0
VERTEX
  8
0
  5
15DB
 10
-55.9725
 20
14.5739
 30
0.000000
  70
    32
  0
VERTEX
  8
0
  5
15DC
 10
-55.8680
 20
14.5796
 30
0.000000
  70
    32
  0
VERTEX
  8
0
  5
15DD
 10
-55.7614
 20
14.5911
 30
0.000000
  70
    32
  0
VERTEX
  8
0
  5
15DE
 10
-55.6532
 20
14.6084
 30
0.000000
  70
    32
  0
VERTEX
  8
0
  5
15DF
 10
-55.5434
 20
14.6315
 30
0.000000
  70
    32
  0
VERTEX
  8
0
  5
15E0
 10
-55.4323
 20
14.6602
 30
0.000000
  70
    32
  0
VERTEX
  8
0
  5
15E1
 10
-55.3203
 20
14.6945
 30
0.000000
  70
    32
  0
VERTEX
  8
0
  5
15E2
 10
-55.2075
 20
14.7343
 30
0.000000
  70
    32
  0
VERTEX
  8
0
  5
15E3
 10
-55.0943
 20
14.7795
 30
0.000000
  70
    32
  0
VERTEX
  8
0
  5
15E4
 10
-54.9810
 20
14.8301
 30
0.000000
  70
    32
  0
VERTEX
  8
0
  5
15E5
 10
-54.8678
 20
14.8859
 30
0.000000
  70
    32
  0
VERTEX
  8
0
  5
15E6
 10
-54.7549
 20
14.9467
 30
0.000000
  70
    32
  0
VERTEX
  8
0
  5
15E7
 10
-54.6427
 20
15.0124
 30
0.000000
  70
    32
  0
VERTEX
  8
0
  5
15E8
 10
-54.5314
 20
15.0829
 30
0.000000
  70
    32
  0
VERTEX
  8
0
  5
15E9
 10
-54.4213
 20
15.1580
 30
0.000000
  70
    32
  0
VERTEX
  8
0
  5
15EA
 10
-54.3127
 20
15.2375
 30
0.000000
  70
    32
  0
VERTEX
  8
0
  5
15EB
 10
-54.2058
 20
15.3212
 30
0.000000
  70
    32
  0
VERTEX
  8
0
  5
15EC
 10
-54.1008
 20
15.4089
 30
0.000000
  70
    32
  0
VERTEX
  8
0
  5
15ED
 10
-53.9981
 20
15.5004
 30
0.000000
  70
    32
  0
VERTEX
  8
0
  5
15EE
 10
-53.8979
 20
15.5955
 30
0.000000
  70
    32
  0
VERTEX
  8
0
  5
15EF
 10
-53.8003
 20
15.6940
 30
0.000000
  70
    32
  0
VERTEX
  8
0
  5
15F0
 10
-53.7058
 20
15.7956
 30
0.000000
  70
    32
  0
VERTEX
  8
0
  5
15F1
 10
-53.6144
 20
15.9000
 30
0.000000
  70
    32
  0
VERTEX
  8
0
  5
15F2
 10
-53.5264
 20
16.0070
 30
0.000000
  70
    32
  0
VERTEX
  8
0
  5
15F3
 10
-53.4420
 20
16.1165
 30
0.000000
  70
    32
  0
VERTEX
  8
0
  5
15F4
 10
-53.3614
 20
16.2280
 30
0.000000
  70
    32
  0
VERTEX
  8
0
  5
15F5
 10
-53.2849
 20
16.3413
 30
0.000000
  70
    32
  0
VERTEX
  8
0
  5
15F6
 10
-53.2125
 20
16.4562
 30
0.000000
  70
    32
  0
VERTEX
  8
0
  5
15F7
 10
-53.1445
 20
16.5724
 30
0.000000
  70
    32
  0
VERTEX
  8
0
  5
15F8
 10
-53.0810
 20
16.6896
 30
0.000000
  70
    32
  0
VERTEX
  8
0
  5
15F9
 10
-53.0223
 20
16.8075
 30
0.000000
  70
    32
  0
VERTEX
  8
0
  5
15FA
 10
-52.9683
 20
16.9258
 30
0.000000
  70
    32
  0
VERTEX
  8
0
  5
15FB
 10
-52.9193
 20
17.0443
 30
0.000000
  70
    32
  0
VERTEX
  8
0
  5
15FC
 10
-52.8754
 20
17.1626
 30
0.000000
  70
    32
  0
VERTEX
  8
0
  5
15FD
 10
-52.8366
 20
17.2805
 30
0.000000
  70
    32
  0
VERTEX
  8
0
  5
15FE
 10
-52.8032
 20
17.3977
 30
0.000000
  70
    32
  0
VERTEX
  8
0
  5
15FF
 10
-52.7751
 20
17.5139
 30
0.000000
  70
    32
  0
VERTEX
  8
0
  5
1600
 10
-52.7524
 20
17.6289
 30
0.000000
  70
    32
  0
VERTEX
  8
0
  5
1601
 10
-52.7351
 20
17.7423
 30
0.000000
  70
    32
  0
VERTEX
  8
0
  5
1602
 10
-52.7234
 20
17.8539
 30
0.000000
  70
    32
  0
VERTEX
  8
0
  5
1603
 10
-52.7173
 20
17.9633
 30
0.000000
  70
    32
  0
VERTEX
  8
0
  5
1604
 10
-52.7167
 20
18.0705
 30
0.000000
  70
    32
  0
VERTEX
  8
0
  5
1605
 10
-52.7217
 20
18.1750
 30
0.000000
  70
    32
  0
VERTEX
  8
0
  5
1606
 10
-52.7322
 20
18.2767
 30
0.000000
  70
    32
  0
VERTEX
  8
0
  5
1607
 10
-52.7482
 20
18.3752
 30
0.000000
  70
    32
  0
VERTEX
  8
0
  5
1608
 10
-52.7698
 20
18.4705
 30
0.000000
  70
    32
  0
VERTEX
  8
0
  5
1609
 10
-52.7967
 20
18.5621
 30
0.000000
  70
    32
  0
VERTEX
  8
0
  5
160A
 10
-52.8291
 20
18.6499
 30
0.000000
  70
    32
  0
VERTEX
  8
0
  5
160B
 10
-52.8667
 20
18.7338
 30
0.000000
  70
    32
  0
VERTEX
  8
0
  5
160C
 10
-52.9095
 20
18.8134
 30
0.000000
  70
    32
  0
VERTEX
  8
0
  5
160D
 10
-52.9574
 20
18.8886
 30
0.000000
  70
    32
  0
VERTEX
  8
0
  5
160E
 10
-53.0103
 20
18.9593
 30
0.000000
  70
    32
  0
VERTEX
  8
0
  5
160F
 10
-53.0681
 20
19.0252
 30
0.000000
  70
    32
  0
VERTEX
  8
0
  5
1610
 10
-53.1306
 20
19.0862
 30
0.000000
  70
    32
  0
SEQEND
  8
0
  5
1611
  0
INSERT
  5
7A5
  8
0
  6
CONTINUOUS
  2
*U8
 10
0.0
 20
0.0
 30
0.0
  0
INSERT
  5
FD4
  8
0
  6
CONTINUOUS
  2
*U9
 10
0.0
 20
0.0
 30
0.0
  0
INSERT
  5
FD5
  8
0
  6
CONTINUOUS
  2
*U10
 10
0.0
 20
0.0
 30
0.0
  0
INSERT
  5
FD6
  8
0
  6
CONTINUOUS
  2
*U11
 10
0.0
 20
0.0
 30
0.0
  0
INSERT
  5
FD7
  8
0
  6
CONTINUOUS
  2
*U12
 10
0.0
 20
0.0
 30
0.0
  0
INSERT
  5
FD8
  8
0
  6
CONTINUOUS
  2
*U13
 10
0.0
 20
0.0
 30
0.0
  0
INSERT
  5
FD9
  8
0
  6
CONTINUOUS
  2
*U14
 10
0.0
 20
0.0
 30
0.0
  0
POLYLINE
  5
13C1
  8
0
 66
     1
 10
0.0
 20
0.0
 30
0.0
  0
VERTEX
  5
14AB
  8
0
 10
-10.40000000000038
 20
249.86926910572129
 30
0.0
  0
VERTEX
  5
14AC
  8
0
 10
-10.40000000000038
 20
236.36976026112939
 30
0.0
 42
0.1989123673809068
  0
VERTEX
  5
14AD
  8
0
 10
-9.8435028842548729
 20
235.02625737687461
 30
0.0
  0
VERTEX
  5
14AE
  8
0
 10
-8.7221825406948721
 20
233.90493703331489
 30
0.0
 42
-0.1989123673809753
  0
VERTEX
  5
14AF
  8
0
 10
-8.4000000000003805
 20
233.1271195740112
 30
0.0
  0
VERTEX
  5
14B0
  8
0
 10
-8.4000000000003823
 20
212.1418579255641
 30
0.0
 42
-0.2752443783859134
  0
VERTEX
  5
14B1
  8
0
 10
-8.9760885366056993
 20
211.17463676237409
 30
0.0
  0
VERTEX
  5
14B2
  8
0
 10
-43.333065885943888
 20
192.5646073648158
 30
0.0
 42
0.2179885364318384
  0
VERTEX
  5
14B3
  8
0
 10
-44.534293601122798
 20
190.9683333136685
 30
0.0
 42
0.1083459900687948
  0
VERTEX
  5
14B4
  8
0
 10
-44.534293601122791
 20
156.52854652147181
 30
0.0
 42
0.2179885364315707
  0
VERTEX
  5
14B5
  8
0
 10
-43.333065885943917
 20
154.93227247032431
 30
0.0
  0
VERTEX
  5
14B6
  8
0
 10
-8.9760885366056975
 20
136.32224307276559
 30
0.0
 42
-0.2752443783858574
  0
VERTEX
  5
14B7
  8
0
 10
-8.4000000000003912
 20
135.3550219095753
 30
0.0
  0
VERTEX
  5
14B8
  8
0
 10
-8.4000000000003947
 20
114.3697602611295
 30
0.0
 42
-0.1989123673809765
  0
VERTEX
  5
14B9
  8
0
 10
-8.7221825406948792
 20
113.5919428018249
 30
0.0
  0
VERTEX
  5
14BA
  8
0
 10
-9.8435028842566972
 20
112.4706224582646
 30
0.0
 42
0.1989123673807836
  0
VERTEX
  5
14BB
  8
0
 10
-10.400000000000389
 20
111.1271195740088
 30
0.0
  0
VERTEX
  5
14BC
  8
0
 10
-10.4000000000004
 20
86.369760261129429
 30
0.0
 42
0.198912367380899
  0
VERTEX
  5
14BD
  8
0
 10
-9.8435028842548817
 20
85.026257376874725
 30
0.0
  0
VERTEX
  5
14BE
  8
0
 10
-8.7221825406948721
 20
83.904937033314937
 30
0.0
 42
-0.1989123673809606
  0
VERTEX
  5
14BF
  8
0
 10
-8.4000000000003947
 20
83.127119574011274
 30
0.0
  0
VERTEX
  5
14C0
  8
0
 10
-8.4000000000003983
 20
62.141857925564217
 30
0.0
 42
-0.2752443783858996
  0
VERTEX
  5
14C1
  8
0
 10
-8.9760885366057082
 20
61.17463676237427
 30
0.0
  0
VERTEX
  5
14C2
  8
0
 10
-43.333065885943888
 20
42.564607364815643
 30
0.0
 42
0.2179885364318407
  0
VERTEX
  5
14C3
  8
0
 10
-44.534293601122798
 20
40.968333313668467
 30
0.0
 42
0.1083459900687973
  0
VERTEX
  5
14C4
  8
0
 10
-44.534293601120979
 20
6.5285465214718226
 30
0.0
 42
0.2179885364315783
  0
VERTEX
  5
14C5
  8
0
 10
-43.333065885943888
 20
4.9322724703242757
 30
0.0
  0
VERTEX
  5
14C6
  8
0
 10
-36.847886413474811
 20
1.4194669227363601
 30
0.0
 42
0.1247468062797016
  0
VERTEX
  5
14C7
  8
0
 10
-35.942948431250301
 20
1.1901216591562589
 30
0.0
  0
VERTEX
  5
14C8
  8
0
 10
-33.553873984467671
 20
1.190121659156117
 30
0.0
 42
-0.1247468062797042
  0
VERTEX
  5
14C9
  8
0
 10
-33.029962521072633
 20
1.057342822346681
 30
0.0
  0
VERTEX
  5
14CA
  8
0
 10
-28.96777108874889
 20
-1.143010870162231
 30
0.0
  0
VERTEX
  5
14CB
  8
0
 10
-28.77725782933236
 20
-0.7912940835475433
 30
0.0
  0
VERTEX
  5
14CC
  8
0
 10
-32.839449261656092
 20
1.409059608961283
 30
0.0
 42
0.1247468062802504
  0
VERTEX
  5
14CD
  8
0
 10
-33.553873984467693
 20
1.5901216591561229
 30
0.0
  0
VERTEX
  5
14CE
  8
0
 10
-35.942948431248482
 20
1.5901216591562219
 30
0.0
 42
-0.1247468062802483
  0
VERTEX
  5
14CF
  8
0
 10
-36.657373154058263
 20
1.771183709351047
 30
0.0
  0
VERTEX
  5
14D0
  8
0
 10
-43.142552626527362
 20
5.283989256938324
 30
0.0
 42
-0.2179885364323241
  0
VERTEX
  5
14D1
  8
0
 10
-44.143575722508871
 20
6.614217632895202
 30
0.0
 42
-0.1083459900687948
  0
VERTEX
  5
14D2
  8
0
 10
-44.143575722508871
 20
40.882662202244269
 30
0.0
 42
-0.2179885364323189
  0
VERTEX
  5
14D3
  8
0
 10
-43.142552626527362
 20
42.212890578200962
 30
0.0
  0
VERTEX
  5
14D4
  8
0
 10
-8.7855752771891602
 20
60.822919975759064
 30
0.0
 42
0.2752443783855282
  0
VERTEX
  5
14D5
  8
0
 10
-8.0000000000007532
 20
62.141857925564217
 30
0.0
  0
VERTEX
  5
14D6
  8
0
 10
-8.0000000000007585
 20
83.127119574010038
 30
0.0
 42
0.1989123673796428
  0
VERTEX
  5
14D7
  8
0
 10
-8.4393398282198504
 20
84.187779745789797
 30
0.0
  0
VERTEX
  5
14D8
  8
0
 10
-9.5606601717816702
 20
85.309100089349684
 30
0.0
 42
-0.1989123673796438
  0
VERTEX
  5
14D9
  8
0
 10
-10.00000000000076
 20
86.369760261129457
 30
0.0
  0
VERTEX
  5
14DA
  8
0
 10
-10.00000000000076
 20
111.12711957401
 30
0.0
 42
-0.1989123673796395
  0
VERTEX
  5
14DB
  8
0
 10
-9.5606601717816684
 20
112.1877797457897
 30
0.0
  0
VERTEX
  5
14DC
  8
0
 10
-8.4393398282198486
 20
113.3091000893497
 30
0.0
 42
0.1989123673796414
  0
VERTEX
  5
14DD
  8
0
 10
-8.0000000000007514
 20
114.3697602611294
 30
0.0
  0
VERTEX
  5
14DE
  8
0
 10
-8.0000000000007496
 20
135.3550219095751
 30
0.0
 42
0.2752443783855278
  0
VERTEX
  5
14DF
  8
0
 10
-8.7855752771891495
 20
136.67395985938029
 30
0.0
  0
VERTEX
  5
14E0
  8
0
 10
-43.142552626527348
 20
155.2839892569385
 30
0.0
 42
-0.217988536432322
  0
VERTEX
  5
14E1
  8
0
 10
-44.143575722508857
 20
156.61421763289519
 30
0.0
 42
-0.1083459900687947
  0
VERTEX
  5
14E2
  8
0
 10
-44.143575722508849
 20
190.88266220224429
 30
0.0
 42
-0.2179885364323208
  0
VERTEX
  5
14E3
  8
0
 10
-43.142552626527348
 20
192.21289057820101
 30
0.0
  0
VERTEX
  5
14E4
  8
0
 10
-8.7855752771891442
 20
210.82291997575899
 30
0.0
 42
0.2752443783855289
  0
VERTEX
  5
14E5
  8
0
 10
-8.0000000000007532
 20
212.1418579255641
 30
0.0
  0
VERTEX
  5
14E6
  8
0
 10
-8.0000000000007514
 20
233.12711957401001
 30
0.0
 42
0.1989123673796432
  0
VERTEX
  5
14E7
  8
0
 10
-8.4393398282198415
 20
234.18777974578981
 30
0.0
  0
VERTEX
  5
14E8
  8
0
 10
-9.5606601717816542
 20
235.3091000893497
 30
0.0
 42
-0.1989123673796438
  0
VERTEX
  5
14E9
  8
0
 10
-10.000000000000741
 20
236.36976026112939
 30
0.0
  0
VERTEX
  5
14EA
  8
0
 10
-10.00000000000075
 20
249.86926910572129
 30
0.0
  0
SEQEND
  5
14EB
  8
0
  0
POLYLINE
  5
13C2
  8
0
 66
     1
 10
0.0
 20
0.0
 30
0.0
 70
     1
  0
VERTEX
  5
14EC
  8
0
 10
199.99999999999989
 20
-19.499999999999488
 30
0.0
  0
VERTEX
  5
14ED
  8
0
 10
199.9999999999998
 20
-38.499999999999261
 30
0.0
  0
VERTEX
  5
14EE
  8
0
 10
-2.4000000000006159
 20
-38.499999999999211
 30
0.0
  0
VERTEX
  5
14EF
  8
0
 10
-2.4000000000006159
 20
-19.499999999999201
 30
0.0
  0
SEQEND
  5
14F0
  8
0
  0
POLYLINE
  5
13C3
  8
0
 66
     1
 10
0.0
 20
0.0
 30
0.0
 70
     1
 40
0.5
 41
0.5
  0
VERTEX
  5
14F1
  8
0
 10
199.74999999999989
 20
-19.749999999999488
 30
0.0
  0
VERTEX
  5
14F2
  8
0
 10
199.7499999999998
 20
-38.249999999999261
 30
0.0
  0
VERTEX
  5
14F3
  8
0
 10
-2.1500000000006732
 20
-38.249999999999211
 30
0.0
  0
VERTEX
  5
14F4
  8
0
 10
-2.1500000000006159
 20
-19.749999999999201
 30
0.0
  0
SEQEND
  5
14F5
  8
0
  0
ARC
  5
13C4
  8
0
 10
4.825229100742944
 20
70.897056288742647
 30
0.0
 40
103.10517195596169
 50
266.26011971109688
 51
298.16456858978171
  0
ARC
  5
13C5
  8
0
 10
4.3435311200038589
 20
57.041067023907772
 30
0.0
 40
132.50026943152761
 50
314.16884310634742
 51
324.4480529100241
  0
ARC
  5
13C6
  8
0
 10
9.1408158944433637
 20
59.917892910802721
 30
0.0
 40
159.61885085592559
 50
322.16075166631401
 51
329.95503176579001
  0
ARC
  5
13C7
  8
0
 10
7.1813609211432938
 20
49.369530328776591
 30
0.0
 40
203.97502670602469
 50
334.6380936614101
 51
340.117743064477
  0
ARC
  5
13C8
  8
0
 10
11.193849914576861
 20
100.3685095758315
 30
0.0
 40
143.0605774984721
 50
284.71478706487159
 51
302.71371874455281
  0
POLYLINE
  5
13C9
  8
0
 66
     1
 10
0.0
 20
0.0
 30
0.0
  0
VERTEX
  5
14F6
  8
0
 10
1.849999999999369
 20
-19.499999999999201
 30
0.0
  0
VERTEX
  5
14F7
  8
0
 10
47.532319777238143
 20
-37.999999999999211
 30
0.0
  0
SEQEND
  5
14F8
  8
0
  0
POLYLINE
  5
13CA
  8
0
 66
     1
 10
0.0
 20
0.0
 30
0.0
  0
VERTEX
  5
14F9
  8
0
 10
67.7772405487882
 20
-19.999999999999201
 30
0.0
  0
VERTEX
  5
14FA
  8
0
 10
181.92038294117771
 20
-38.499999999999488
 30
0.0
  0
SEQEND
  5
14FB
  8
0
  0
POLYLINE
  5
13CB
  8
0
 66
     1
 10
0.0
 20
0.0
 30
0.0
 70
     1
  0
VERTEX
  5
14FC
  8
0
 10
21.99999999999994
 20
60.000000000002217
 30
0.0
  0
VERTEX
  5
14FD
  8
0
 10
21.99999999999994
 20
69.000000000002217
 30
0.0
 42
0.4142135623730951
  0
VERTEX
  5
14FE
  8
0
 10
18.99999999999994
 20
72.000000000002217
 30
0.0
  0
VERTEX
  5
14FF
  8
0
 10
-0.0000000000000568
 20
72.000000000002217
 30
0.0
 42
0.4142135623730951
  0
VERTEX
  5
1500
  8
0
 10
-3.000000000000056
 20
69.000000000002217
 30
0.0
  0
VERTEX
  5
1501
  8
0
 10
-3.000000000000056
 20
0.0000000000003926
 30
0.0
 42
0.4142135623730951
  0
VERTEX
  5
1502
  8
0
 10
-0.0000000000000568
 20
-2.999999999999607
 30
0.0
  0
VERTEX
  5
1503
  8
0
 10
55.179174768728842
 20
-2.9999999999977911
 30
0.0
 42
0.1343354352701982
  0
VERTEX
  5
1504
  8
0
 10
56.706488164417749
 20
-2.582114209584299
 30
0.0
  0
VERTEX
  5
1505
  8
0
 10
68.818511835582228
 20
3.1321142095861672
 30
0.0
 42
-0.1343354352701658
  0
VERTEX
  5
1506
  8
0
 10
70.345825231270226
 20
3.5500000000014791
 30
0.0
  0
VERTEX
  5
1507
  8
0
 10
78.679540122764081
 20
3.5500000000032972
 30
0.0
 42
-0.130324888025067
  0
VERTEX
  5
1508
  8
0
 10
80.165955554808036
 20
3.1558720543038592
 30
0.0
  0
VERTEX
  5
1509
  8
0
 10
92.809044445194047
 20
-2.6058720542983562
 30
0.0
 42
0.1303248880250286
  0
VERTEX
  5
150A
  8
0
 10
94.295459877237533
 20
-2.9999999999977942
 30
0.0
  0
VERTEX
  5
150B
  8
0
 10
102.7045401227641
 20
-2.9999999999977951
 30
0.0
 42
0.1303248880249852
  0
VERTEX
  5
150C
  8
0
 10
104.1909555548076
 20
-2.6058720542983571
 30
0.0
  0
VERTEX
  5
150D
  8
0
 10
116.8340444451955
 20
3.155872054302038
 30
0.0
 42
-0.1303248880250239
  0
VERTEX
  5
150E
  8
0
 10
118.3204598772394
 20
3.550000000001476
 30
0.0
  0
VERTEX
  5
150F
  8
0
 10
126.65417476873191
 20
3.5500000000014751
 30
0.0
 42
-0.1343354352702374
  0
VERTEX
  5
1510
  8
0
 10
128.18148816442081
 20
3.132114209589802
 30
0.0
  0
VERTEX
  5
1511
  8
0
 10
140.2935118355812
 20
-2.5821142095843039
 30
0.0
 42
0.1343354352702762
  0
VERTEX
  5
1512
  8
0
 10
141.82082523127059
 20
-2.9999999999977969
 30
0.0
  0
VERTEX
  5
1513
  8
0
 10
196.99999999999989
 20
-2.9999999999978
 30
0.0
 42
0.4142135623730951
  0
VERTEX
  5
1514
  8
0
 10
199.99999999999989
 20
0.0000000000021991
 30
0.0
  0
VERTEX
  5
1515
  8
0
 10
199.99999999999989
 20
69.000000000002203
 30
0.0
 42
0.4142135623730951
  0
VERTEX
  5
1516
  8
0
 10
196.99999999999989
 20
72.000000000002203
 30
0.0
  0
VERTEX
  5
1517
  8
0
 10
177.99999999999989
 20
72.000000000002203
 30
0.0
 42
0.4142135623730951
  0
VERTEX
  5
1518
  8
0
 10
174.99999999999989
 20
69.000000000002203
 30
0.0
  0
VERTEX
  5
1519
  8
0
 10
174.99999999999949
 20
60.000000000002203
 30
0.0
  0
VERTEX
  5
151A
  8
0
 10
176.14999999999961
 20
60.000000000002203
 30
0.0
  0
VERTEX
  5
151B
  8
0
 10
176.14999999999961
 20
69.000000000002203
 30
0.0
 42
-0.4142135623732102
  0
VERTEX
  5
151C
  8
0
 10
177.99999999999989
 20
70.850000000002566
 30
0.0
  0
VERTEX
  5
151D
  8
0
 10
196.99999999999989
 20
70.850000000000747
 30
0.0
 42
-0.4142135623731383
  0
VERTEX
  5
151E
  8
0
 10
198.8499999999998
 20
69.000000000002203
 30
0.0
  0
VERTEX
  5
151F
  8
0
 10
198.85000000000031
 20
0.0000000000021991
 30
0.0
 42
-0.4142135623732102
  0
VERTEX
  5
1520
  8
0
 10
196.99999999999989
 20
-1.849999999998164
 30
0.0
  0
VERTEX
  5
1521
  8
0
 10
141.8208252312692
 20
-1.8499999999981609
 30
0.0
 42
-0.1408425027255955
  0
VERTEX
  5
1522
  8
0
 10
140.83861889025951
 20
-1.567727879342399
 30
0.0
  0
VERTEX
  5
1523
  8
0
 10
128.7167991051723
 20
4.1511221649292773
 30
0.0
 42
0.1307776883162581
  0
VERTEX
  5
1524
  8
0
 10
126.65417476873191
 20
4.7000000000029312
 30
0.0
  0
VERTEX
  5
1525
  8
0
 10
118.3204598772394
 20
4.7000000000029321
 30
0.0
 42
0.1268679712255803
  0
VERTEX
  5
1526
  8
0
 10
116.31347547580469
 20
4.182425307203105
 30
0.0
  0
VERTEX
  5
1527
  8
0
 10
103.6608011658458
 20
-1.583687095824257
 30
0.0
 42
-0.1366468976977215
  0
VERTEX
  5
1528
  8
0
 10
102.7045401227641
 20
-1.849999999998158
 30
0.0
  0
VERTEX
  5
1529
  8
0
 10
94.295459877237533
 20
-1.849999999998158
 30
0.0
 42
-0.1366468976977103
  0
VERTEX
  5
152A
  8
0
 10
93.339198834156321
 20
-1.583687095824257
 30
0.0
  0
VERTEX
  5
152B
  8
0
 10
80.686524524197864
 20
4.1824253072067448
 30
0.0
 42
0.1268679712254794
  0
VERTEX
  5
152C
  8
0
 10
78.679540122763626
 20
4.7000000000029329
 30
0.0
  0
VERTEX
  5
152D
  8
0
 10
70.345825231268861
 20
4.6999999999992959
 30
0.0
 42
0.1307776883162657
  0
VERTEX
  5
152E
  8
0
 10
68.283200894831168
 20
4.151122164927461
 30
0.0
  0
VERTEX
  5
152F
  8
0
 10
56.161381109739921
 20
-1.5677278793423941
 30
0.0
 42
-0.1408425027257099
  0
VERTEX
  5
1530
  8
0
 10
55.179174768728842
 20
-1.8499999999981549
 30
0.0
  0
VERTEX
  5
1531
  8
0
 10
-0.0000000000000568
 20
-1.849999999999971
 30
0.0
 42
-0.4142135623731383
  0
VERTEX
  5
1532
  8
0
 10
-1.849999999999965
 20
0.0000000000003926
 30
0.0
  0
VERTEX
  5
1533
  8
0
 10
-1.85000000000042
 20
69.000000000002217
 30
0.0
 42
-0.4142135623732102
  0
VERTEX
  5
1534
  8
0
 10
-0.0000000000000568
 20
70.850000000002581
 30
0.0
  0
VERTEX
  5
1535
  8
0
 10
18.99999999999994
 20
70.850000000000762
 30
0.0
 42
-0.4142135623731383
  0
VERTEX
  5
1536
  8
0
 10
20.849999999999849
 20
69.000000000002217
 30
0.0
  0
VERTEX
  5
1537
  8
0
 10
20.849999999999849
 20
60.000000000002217
 30
0.0
  0
SEQEND
  5
1538
  8
0
  0
POLYLINE
  5
13CC
  8
0
 66
     1
 10
0.0
 20
0.0
 30
0.0
 70
   129
1001
ACDBBLOCKREPETAG
1070
     1
1071
        0
1005
13CC
  0
VERTEX
  5
1539
  8
0
 10
-54.400000000001079
 20
20.896446609404979
 30
0.0
  0
VERTEX
  5
153A
  8
0
 10
-54.40000000000154
 20
26.146446609404979
 30
0.0
 42
0.4142135623730951
  0
VERTEX
  5
153B
  8
0
 10
-54.90000000000154
 20
26.646446609404979
 30
0.0
  0
VERTEX
  5
153C
  8
0
 10
-58.40000000000154
 20
26.646446609404521
 30
0.0
 42
0.4142135623730784
  0
VERTEX
  5
153D
  8
0
 10
-58.90000000000154
 20
26.146446609404521
 30
0.0
  0
VERTEX
  5
153E
  8
0
 10
-58.900000000001988
 20
-13.35355339059525
 30
0.0
 42
0.1989123673796969
  0
VERTEX
  5
153F
  8
0
 10
-58.753553390595329
 20
-13.70710678118858
 30
0.0
  0
VERTEX
  5
1540
  8
0
 10
-51.546446609409116
 20
-20.914213562373892
 30
0.0
 42
-0.1989123673796435
  0
VERTEX
  5
1541
  8
0
 10
-51.40000000000245
 20
-21.267766952967222
 30
0.0
  0
VERTEX
  5
1542
  8
0
 10
-51.400000000000183
 20
-33.250000000002373
 30
0.0
  0
VERTEX
  5
1543
  8
0
 10
-49.900000000000169
 20
-33.250000000002373
 30
0.0
  0
VERTEX
  5
1544
  8
0
 10
-49.900000000002002
 20
-24.500000000001918
 30
0.0
 42
-0.4142135623731409
  0
VERTEX
  5
1545
  8
0
 10
-49.400000000002002
 20
-24.000000000001918
 30
0.0
  0
VERTEX
  5
1546
  8
0
 10
-43.922542485940163
 20
-24.000000000001918
 30
0.0
 42
-0.2840790438403827
  0
VERTEX
  5
1547
  8
0
 10
-43.475328890440409
 20
-24.276393202251811
 30
0.0
  0
VERTEX
  5
1548
  8
0
 10
-38.751722092689391
 20
-33.723606797749753
 30
0.0
 42
0.2840790438403819
  0
VERTEX
  5
1549
  8
0
 10
-38.30450849718963
 20
-33.999999999999652
 30
0.0
  0
VERTEX
  5
154A
  8
0
 10
-19.39999999999926
 20
-33.99999999999919
 30
0.0
 42
-0.414213562373126
  0
VERTEX
  5
154B
  8
0
 10
-18.89999999999927
 20
-34.49999999999919
 30
0.0
  0
VERTEX
  5
154C
  8
0
 10
-18.900000000001079
 20
-44.500000000000092
 30
0.0
 42
-0.4142135623730571
  0
VERTEX
  5
154D
  8
0
 10
-19.400000000001079
 20
-45.000000000000092
 30
0.0
  0
VERTEX
  5
154E
  8
0
 10
-22.400000000000169
 20
-45.000000000000092
 30
0.0
 42
0.4142135623730062
  0
VERTEX
  5
154F
  8
0
 10
-22.90000000000018
 20
-45.500000000000099
 30
0.0
  0
VERTEX
  5
1550
  8
0
 10
-22.90000000000154
 20
-48.000000000000547
 30
0.0
  0
VERTEX
  5
1551
  8
0
 10
-21.400000000001079
 20
-48.000000000001918
 30
0.0
  0
VERTEX
  5
1552
  8
0
 10
-21.40000000000018
 20
-46.999999999998742
 30
0.0
 42
-0.4142135623728287
  0
VERTEX
  5
1553
  8
0
 10
-20.90000000000018
 20
-46.49999999999919
 30
0.0
  0
VERTEX
  5
1554
  8
0
 10
-19.400000000000631
 20
-46.49999999999919
 30
0.0
 42
-0.4142135623730951
  0
VERTEX
  5
1555
  8
0
 10
-18.900000000000631
 20
-46.99999999999919
 30
0.0
  0
VERTEX
  5
1556
  8
0
 10
-18.900000000000631
 20
-51.99999999999919
 30
0.0
 42
-0.4142135623730951
  0
VERTEX
  5
1557
  8
0
 10
-19.400000000000631
 20
-52.49999999999919
 30
0.0
  0
VERTEX
  5
1558
  8
0
 10
-20.900000000000631
 20
-52.49999999999919
 30
0.0
 42
-0.4142135623730951
  0
VERTEX
  5
1559
  8
0
 10
-21.400000000000631
 20
-51.99999999999919
 30
0.0
  0
VERTEX
  5
155A
  8
0
 10
-21.400000000000631
 20
-50.999999999999652
 30
0.0
  0
VERTEX
  5
155B
  8
0
 10
-22.900000000000631
 20
-50.99999999999828
 30
0.0
  0
VERTEX
  5
155C
  8
0
 10
-22.900000000001089
 20
-53.500000000001002
 30
0.0
 42
0.4142135623731676
  0
VERTEX
  5
155D
  8
0
 10
-22.400000000001089
 20
-54.000000000001009
 30
0.0
  0
VERTEX
  5
155E
  8
0
 10
-17.900000000000631
 20
-53.99999999999919
 30
0.0
 42
0.4142135623729752
  0
VERTEX
  5
155F
  8
0
 10
-17.400000000000631
 20
-53.49999999999919
 30
0.0
  0
VERTEX
  5
1560
  8
0
 10
-17.399999999999721
 20
-34.49999999999919
 30
0.0
 42
-0.4142135623730715
  0
VERTEX
  5
1561
  8
0
 10
-16.899999999999721
 20
-33.99999999999919
 30
0.0
  0
VERTEX
  5
1562
  8
0
 10
-4.4000000000006301
 20
-33.999999999998742
 30
0.0
 42
-0.4142135623731053
  0
VERTEX
  5
1563
  8
0
 10
-3.9000000000006301
 20
-34.499999999998742
 30
0.0
  0
VERTEX
  5
1564
  8
0
 10
-3.9000000000001762
 20
-39.499999999998742
 30
0.0
 42
0.414213562373072
  0
VERTEX
  5
1565
  8
0
 10
-3.4000000000001762
 20
-39.999999999998742
 30
0.0
  0
VERTEX
  5
1566
  8
0
 10
1.849999999999369
 20
-39.999999999999638
 30
0.0
  0
VERTEX
  5
1567
  8
0
 10
1.849999999999369
 20
-38.49999999999919
 30
0.0
  0
VERTEX
  5
1568
  8
0
 10
-2.4000000000006301
 20
-38.49999999999919
 30
0.0
  0
VERTEX
  5
1569
  8
0
 10
-2.4000000000006301
 20
-19.49999999999871
 30
0.0
  0
VERTEX
  5
156A
  8
0
 10
6.849999999999369
 20
-19.49999999999919
 30
0.0
  0
VERTEX
  5
156B
  8
0
 10
6.849999999999369
 20
-17.99999999999919
 30
0.0
  0
VERTEX
  5
156C
  8
0
 10
-3.4000000000006301
 20
-17.99999999999919
 30
0.0
 42
0.4142135623731081
  0
VERTEX
  5
156D
  8
0
 10
-3.9000000000006301
 20
-18.49999999999919
 30
0.0
  0
VERTEX
  5
156E
  8
0
 10
-3.9000000000010848
 20
-31.999999999998739
 30
0.0
 42
-0.4142135623730852
  0
VERTEX
  5
156F
  8
0
 10
-4.4000000000010848
 20
-32.499999999998742
 30
0.0
  0
VERTEX
  5
1570
  8
0
 10
-16.89999999999926
 20
-32.49999999999919
 30
0.0
 42
-0.4142135623731053
  0
VERTEX
  5
1571
  8
0
 10
-17.39999999999926
 20
-31.99999999999919
 30
0.0
  0
VERTEX
  5
1572
  8
0
 10
-17.400000000000169
 20
-27.999999999998739
 30
0.0
 42
0.4142135623730655
  0
VERTEX
  5
1573
  8
0
 10
-17.900000000000169
 20
-27.499999999998739
 30
0.0
  0
VERTEX
  5
1574
  8
0
 10
-23.03382064488423
 20
-27.499999999998739
 30
0.0
  0
VERTEX
  5
1575
  8
0
 10
-23.03382064488423
 20
-28.999999999998739
 30
0.0
  0
VERTEX
  5
1576
  8
0
 10
-19.399999999999721
 20
-28.99999999999919
 30
0.0
 42
-0.4142135623729824
  0
VERTEX
  5
1577
  8
0
 10
-18.899999999999721
 20
-29.49999999999919
 30
0.0
  0
VERTEX
  5
1578
  8
0
 10
-18.899999999998361
 20
-32.000000000000099
 30
0.0
 42
-0.4142135623731982
  0
VERTEX
  5
1579
  8
0
 10
-19.399999999998361
 20
-32.500000000000099
 30
0.0
  0
VERTEX
  5
157A
  8
0
 10
-37.377457514065192
 20
-32.499999999998742
 30
0.0
 42
-0.2840790438404103
  0
VERTEX
  5
157B
  8
0
 10
-37.824671109564953
 20
-32.223606797748843
 30
0.0
  0
VERTEX
  5
157C
  8
0
 10
-41.574671109562672
 20
-24.72360679775203
 30
0.0
 42
-0.5575365158350297
  0
VERTEX
  5
157D
  8
0
 10
-41.127457514062911
 20
-24.000000000001918
 30
0.0
  0
VERTEX
  5
157E
  8
0
 10
-38.52760084416613
 20
-24.000000000002832
 30
0.0
  0
VERTEX
  5
157F
  8
0
 10
-38.527600844164311
 20
-22.50000000000238
 30
0.0
  0
VERTEX
  5
1580
  8
0
 10
-49.400000000002002
 20
-22.500000000002832
 30
0.0
 42
-0.4142135623731073
  0
VERTEX
  5
1581
  8
0
 10
-49.900000000002002
 20
-22.000000000002832
 30
0.0
  0
VERTEX
  5
1582
  8
0
 10
-49.90000000000245
 20
-20.64644660940677
 30
0.0
 42
0.1989123673796139
  0
VERTEX
  5
1583
  8
0
 10
-50.046446609409109
 20
-20.292893218813429
 30
0.0
  0
VERTEX
  5
1584
  8
0
 10
-57.253553390597141
 20
-13.08578643762767
 30
0.0
 42
-0.1989123673797151
  0
VERTEX
  5
1585
  8
0
 10
-57.400000000003821
 20
-12.73223304703434
 30
0.0
  0
VERTEX
  5
1586
  8
0
 10
-57.400000000002002
 20
24.64644660940543
 30
0.0
 42
-0.4142135623731039
  0
VERTEX
  5
1587
  8
0
 10
-56.900000000002002
 20
25.14644660940543
 30
0.0
  0
VERTEX
  5
1588
  8
0
 10
-56.40000000000154
 20
25.146446609404968
 30
0.0
 42
-0.4142135623730508
  0
VERTEX
  5
1589
  8
0
 10
-55.90000000000154
 20
24.646446609404979
 30
0.0
  0
VERTEX
  5
158A
  8
0
 10
-55.900000000001988
 20
20.89644660940543
 30
0.0
  0
SEQEND
  5
158B
  8
0
  0
LINE
  5
13D2
  8
0
 10
-57.310887551713101
 20
15.64300519282591
 30
0.0
 11
-53.608464473209942
 21
19.34542827132907
 31
0.0
1001
GRADIENTCOLOR1ACI
1070
     5
1001
GRADIENTCOLOR2ACI
1070
     2
1001
ACAD
1010
0.0
1020
0.0
1030
0.0
  0
LINE
  5
13D3
  8
0
 10
-56.132141599095398
 20
14.57668711517624
 30
0.0
 11
-52.716581121065701
 21
17.992247593205938
 31
0.0
1001
GRADIENTCOLOR1ACI
1070
     5
1001
GRADIENTCOLOR2ACI
1070
     2
1001
ACAD
1010
0.0
1020
0.0
1030
0.0
  0
ENDSEC
  0
EOF
