  0
SECTION
  2
HEADER
  9
$ACADVER
  1
AC1009
  9
$INSBASE
 10
0.0
 20
0.0
 30
0.0
  9
$EXTMIN
 10
-120.0273926198081
 20
-288.52557149117592
 30
-0.0015258207003583
  9
$EXTMAX
 10
204.007171262806
 20
133.07642689897281
 30
0.0000000349246037
  9
$LIMMIN
 10
0.0
 20
0.0
  9
$LIMMAX
 10
420.0
 20
297.0
  9
$ORTHOMODE
 70
     0
  9
$REGENMODE
 70
     1
  9
$FILLMODE
 70
     1
  9
$QTEXTMODE
 70
     0
  9
$MIRRTEXT
 70
     0
  9
$DRAGMODE
 70
     2
  9
$LTSCALE
 40
1.0
  9
$OSMODE
 70
     0
  9
$ATTMODE
 70
     1
  9
$TEXTSIZE
 40
2.5
  9
$TRACEWID
 40
1.0
  9
$TEXTSTYLE
  7
ARIAL
  9
$CLAYER
  8
0
  9
$CELTYPE
  6
CONTINUOUS
  9
$CECOLOR
 62
   256
  9
$DIMSCALE
 40
2.0
  9
$DIMASZ
 40
2.0
  9
$DIMEXO
 40
2.0
  9
$DIMDLI
 40
6.0
  9
$DIMRND
 40
0.0
  9
$DIMDLE
 40
1.5
  9
$DIMEXE
 40
1.5
  9
$DIMTP
 40
0.0
  9
$DIMTM
 40
0.0
  9
$DIMTXT
 40
2.0
  9
$DIMCEN
 40
2.0
  9
$DIMTSZ
 40
0.0
  9
$DIMTOL
 70
     0
  9
$DIMLIM
 70
     0
  9
$DIMTIH
 70
     0
  9
$DIMTOH
 70
     0
  9
$DIMSE1
 70
     0
  9
$DIMSE2
 70
     0
  9
$DIMTAD
 70
     0
  9
$DIMZIN
 70
     0
  9
$DIMBLK
  1
ARCHTICK
  9
$DIMASO
 70
     1
  9
$DIMSHO
 70
     1
  9
$DIMPOST
  1

  9
$DIMAPOST
  1

  9
$DIMALT
 70
     0
  9
$DIMALTD
 70
     2
  9
$DIMALTF
 40
0.0394
  9
$DIMLFAC
 40
1.0
  9
$DIMTOFL
 70
     1
  9
$DIMTVP
 40
0.0
  9
$DIMTIX
 70
     1
  9
$DIMSOXD
 70
     0
  9
$DIMSAH
 70
     0
  9
$DIMBLK1
  1

  9
$DIMBLK2
  1

  9
$DIMSTYLE
  2
1_TO_2_LEADER
  9
$DIMCLRD
 70
     0
  9
$DIMCLRE
 70
     0
  9
$DIMCLRT
 70
     0
  9
$DIMTFAC
 40
1.0
  9
$DIMGAP
 40
1.0
  9
$LUNITS
 70
     2
  9
$LUPREC
 70
     1
  9
$SKETCHINC
 40
1.0
  9
$FILLETRAD
 40
0.0
  9
$AUNITS
 70
     1
  9
$AUPREC
 70
     4
  9
$MENU
  1
.
  9
$ELEVATION
 40
0.0
  9
$PELEVATION
 40
0.0
  9
$THICKNESS
 40
0.0
  9
$LIMCHECK
 70
     0
  9
$BLIPMODE
 70
     0
  9
$CHAMFERA
 40
0.0
  9
$CHAMFERB
 40
0.0
  9
$SKPOLY
 70
     0
  9
$TDCREATE
 40
2455492.3865162041
  9
$TDUPDATE
 40
2455936.5075595141
  9
$TDINDWG
 40
0.1366011343
  9
$TDUSRTIMER
 40
0.1366004051
  9
$USRTIMER
 70
     1
  9
$ANGBASE
 50
0.0
  9
$ANGDIR
 70
     0
  9
$PDMODE
 70
     0
  9
$PDSIZE
 40
0.0
  9
$PLINEWID
 40
0.0
  9
$COORDS
 70
     1
  9
$SPLFRAME
 70
     0
  9
$SPLINETYPE
 70
     6
  9
$SPLINESEGS
 70
     8
  9
$ATTDIA
 70
     0
  9
$ATTREQ
 70
     1
  9
$HANDLING
 70
     1
  9
$HANDSEED
  5
16A9
  9
$SURFTAB1
 70
     6
  9
$SURFTAB2
 70
     6
  9
$SURFTYPE
 70
     6
  9
$SURFU
 70
     6
  9
$SURFV
 70
     6
  9
$UCSNAME
  2

  9
$UCSORG
 10
0.0
 20
0.0
 30
0.0
  9
$UCSXDIR
 10
1.0
 20
0.0
 30
0.0
  9
$UCSYDIR
 10
0.0
 20
1.0
 30
0.0
  9
$PUCSNAME
  2

  9
$PUCSORG
 10
0.0
 20
0.0
 30
0.0
  9
$PUCSXDIR
 10
1.0
 20
0.0
 30
0.0
  9
$PUCSYDIR
 10
0.0
 20
1.0
 30
0.0
  9
$USERI1
 70
     0
  9
$USERI2
 70
     0
  9
$USERI3
 70
     0
  9
$USERI4
 70
     0
  9
$USERI5
 70
     0
  9
$USERR1
 40
0.0
  9
$USERR2
 40
0.0
  9
$USERR3
 40
0.0
  9
$USERR4
 40
0.0
  9
$USERR5
 40
0.0
  9
$WORLDVIEW
 70
     1
  9
$SHADEDGE
 70
     3
  9
$SHADEDIF
 70
    70
  9
$TILEMODE
 70
     1
  9
$MAXACTVP
 70
    64
  9
$PLIMCHECK
 70
     0
  9
$PEXTMIN
 10
0.0
 20
0.0
 30
0.0
  9
$PEXTMAX
 10
0.0
 20
0.0
 30
0.0
  9
$PLIMMIN
 10
0.0
 20
0.0
  9
$PLIMMAX
 10
12.0
 20
9.0
  9
$UNITMODE
 70
     0
  9
$VISRETAIN
 70
     1
  9
$PLINEGEN
 70
     0
  9
$PSLTSCALE
 70
     1
  0
ENDSEC
  0
SECTION
  2
TABLES
  0
TABLE
  2
VPORT
 70
     1
  0
VPORT
  2
*ACTIVE
 70
     0
 10
0.0
 20
0.0
 11
1.0
 21
1.0
 12
-14.88997837919845
 22
-641.30188338997891
 13
0.0
 23
0.0
 14
1.0
 24
1.0
 15
10.0
 25
10.0
 16
0.0
 26
0.0
 36
1.0
 17
56.879867700697403
 27
563.57731109387737
 37
0.0
 40
424.13667974319571
 41
1.6128385155466389
 42
50.0
 43
0.0
 44
0.0
 50
0.0
 51
0.0
 71
     0
 72
  1000
 73
     1
 74
     3
 75
     0
 76
     0
 77
     0
 78
     0
  0
ENDTAB
  0
TABLE
  2
LTYPE
 70
     1
  0
LTYPE
  2
CONTINUOUS
 70
     0
  3
Solid line
 72
    65
 73
     0
 40
0.0
  0
ENDTAB
  0
TABLE
  2
LAYER
 70
    10
  0
LAYER
  2
0
 70
     0
 62
     7
  6
CONTINUOUS
  0
ENDTAB
  0
TABLE
  2
STYLE
 70
     2
  0
STYLE
  2
STANDARD
 70
     0
 40
0.0
 41
1.0
 50
0.0
 71
     0
 42
2.5
  3
txt
  4

  0
STYLE
  2
ARIAL
 70
     0
 40
0.0
 41
1.0
 50
0.0
 71
     0
 42
2.5
  3
txt
  4

  0
ENDTAB
  0
TABLE
  2
VIEW
 70
     1
  0
ENDTAB
  0
TABLE
  2
UCS
 70
     0
  0
ENDTAB
  0
TABLE
  2
APPID
 70
    27
  0
APPID
  2
ACAD
 70
     0
  0
APPID
  2
ACAD_PSEXT
 70
     0
  0
APPID
  2
ACADANNOPO
 70
     0
  0
APPID
  2
ACADANNOTATIVE
 70
     0
  0
APPID
  2
ACAD_DSTYLE_DIMJAG
 70
     0
  0
APPID
  2
ACAD_DSTYLE_DIMTALN
 70
     0
  0
APPID
  2
ACAD_MLEADERVER
 70
     0
  0
APPID
  2
RAK
 70
     0
  0
APPID
  2
ACAD_EXEMPT_FROM_CAD_STANDARDS
 70
     0
  0
APPID
  2
ACDBBLOCKREPETAG
 70
     0
  0
APPID
  2
ACDBDYNAMICBLOCKGUID
 70
     0
  0
APPID
  2
GRADIENTCOLOR1ACI
 70
     0
  0
APPID
  2
GRADIENTCOLOR2ACI
 70
     0
  0
APPID
  2
ACAD_DSTYLE_DIMEXT_ENABLED
 70
     0
  0
APPID
  2
ACAD_DSTYLE_DIMEXT_LENGTH
 70
     0
  0
APPID
  2
GENIUS_GENODEF_13
 70
     0
  0
APPID
  2
GENIUS_GENSCREG_15
 70
     0
  0
APPID
  2
GENIUS_GENOBJ-N-SDF_13
 70
     0
  0
APPID
  2
GENIUS_GENCFG_13
 70
     0
  0
APPID
  2
GENIUS_GENCFG0_13
 70
     0
  0
APPID
  2
ADESKUNDERLAYLAYEROVERRIDEDATA
 70
     0
  0
APPID
  2
ACAECLAYERSTANDARD
 70
     0
  0
APPID
  2
ACCMTRANSPARENCY
 70
     0
  0
APPID
  2
URBANX
 70
     0
  0
APPID
  2
ACAD_NAV_VCDISPLAY
 70
     0
  0
APPID
  2
ACAD_DSTYLE_DIMJOGGED_JOGA
 70
     0
  0
APPID
  2
PE_URL
 70
     0
  0
ENDTAB
  0
TABLE
  2
DIMSTYLE
 70
     1
  0
DIMSTYLE
  2
1_TO_2_LEADER
 70
     0
  3

  4

  5
ARCHTICK
  6

  7

 40
2.0
 41
2.0
 42
2.0
 43
6.0
 44
1.5
 45
0.0
 46
1.5
 47
0.0
 48
0.0
140
2.0
141
2.0
142
0.0
143
0.0394
144
1.0
145
0.0
146
1.0
147
1.0
 71
     0
 72
     0
 73
     0
 74
     0
 75
     0
 76
     0
 77
     0
 78
     0
170
     0
171
     2
172
     1
173
     0
174
     1
175
     0
176
     0
177
     0
178
     0
  0
ENDTAB
  0
ENDSEC
  0
SECTION
  2
BLOCKS
  0
BLOCK
  8
0
  2
$MODEL_SPACE
 70
     0
 10
0.0
 20
0.0
 30
0.0
  3
$MODEL_SPACE
  1

  0
ENDBLK
  5
21
  8
0
  0
BLOCK
 67
     1
  8
0
  2
$PAPER_SPACE
 70
     0
 10
0.0
 20
0.0
 30
0.0
  3
$PAPER_SPACE
  1

  0
ENDBLK
  5
1486
 67
     1
  8
0
  0
BLOCK
  8
0
  2
_ARCHTICK
 70
     0
 10
0.0
 20
0.0
 30
0.0
  3
_ARCHTICK
  1

  0
POLYLINE
  5
3C9
  8
0
  6
BYBLOCK
 62
     0
 66
     1
 10
0.0
 20
0.0
 30
0.0
 40
0.15
 41
0.15
  0
VERTEX
  5
1518
  8
0
  6
BYBLOCK
 62
     0
 10
-0.5
 20
-0.5
 30
0.0
  0
VERTEX
  5
1519
  8
0
  6
BYBLOCK
 62
     0
 10
0.5
 20
0.5
 30
0.0
  0
SEQEND
  5
151A
  8
0
  6
BYBLOCK
 62
     0
  0
ENDBLK
  5
3CB
  8
0
  0
BLOCK
  8
0
  2
*U7
 70
     1
 10
0.0
 20
0.0
 30
0.0
  3
*U7
  1

  0
TEXT
  5
1547
  8
0
  6
CONTINUOUS
 10
47.647339699862833
 20
-286.43539898382761
 30
0.0
 40
7.0
  1
Sill Detail (for windows)
  7
ARIAL
  0
ENDBLK
  5
1549
  8
0
  0
BLOCK
  8
0
  2
*U8
 70
     1
 10
0.0
 20
0.0
 30
0.0
  3
*U8
  1

  0
SOLID
  5
1550
  8
0
  6
CONTINUOUS
 10
-54.071424507842949
 20
30.30977441903698
 30
0.0
 11
-51.40000000000132
 21
27.258883476484701
 31
0.0
 12
-54.916501326625209
 22
29.278453446626049
 32
0.0
 13
-54.916501326625209
 23
29.278453446626049
 33
0.0
  0
POLYLINE
  5
1551
  8
0
  6
CONTINUOUS
 66
     1
 10
0.0
 20
0.0
 30
0.0
  0
VERTEX
  5
1552
  8
0
  6
CONTINUOUS
 10
-54.493962917234079
 20
29.794113932831522
 30
0.0
  0
VERTEX
  5
1553
  8
0
  6
CONTINUOUS
 10
-74.0
 20
45.77759551220629
 30
0.0
  0
VERTEX
  5
1554
  8
0
  6
CONTINUOUS
 10
-78.0
 20
45.77759551220629
 30
0.0
  0
SEQEND
  5
1555
  8
0
  6
CONTINUOUS
  0
ENDBLK
  5
1557
  8
0
  0
BLOCK
  8
0
  2
*U9
 70
     1
 10
0.0
 20
0.0
 30
0.0
  3
*U9
  1

  0
TEXT
  5
1559
  8
0
  6
CONTINUOUS
 10
-118.74761255115961
 20
43.810337667731517
 30
0.0
 40
4.0
  1
Window section
  7
ARIAL
  0
ENDBLK
  5
155B
  8
0
  0
BLOCK
  8
0
  2
*U10
 70
     1
 10
0.0
 20
0.0
 30
0.0
  3
*U10
  1

  0
SOLID
  5
155D
  8
0
  6
CONTINUOUS
 10
-55.151631521611208
 20
-65.401878945859934
 30
0.0
 11
-52.400000000001349
 21
-68.380631774432231
 31
0.0
 12
-55.96897668106115
 22
-66.455313646304873
 32
0.0
 13
-55.96897668106115
 23
-66.455313646304873
 33
0.0
  0
POLYLINE
  5
155E
  8
0
  6
CONTINUOUS
 66
     1
 10
0.0
 20
0.0
 30
0.0
  0
VERTEX
  5
155F
  8
0
  6
CONTINUOUS
 10
-55.560304101336179
 20
-65.928596296082404
 30
0.0
  0
VERTEX
  5
1560
  8
0
  6
CONTINUOUS
 10
-74.0
 20
-51.621495743826088
 30
0.0
  0
VERTEX
  5
1561
  8
0
  6
CONTINUOUS
 10
-78.0
 20
-51.621495743826088
 30
0.0
  0
SEQEND
  5
1562
  8
0
  6
CONTINUOUS
  0
ENDBLK
  5
1564
  8
0
  0
BLOCK
  8
0
  2
*U11
 70
     1
 10
0.0
 20
0.0
 30
0.0
  3
*U11
  1

  0
TEXT
  5
1566
  8
0
  6
CONTINUOUS
 10
-107.8908594815825
 20
-53.033501200852008
 30
0.0
 40
4.0
  1
Sill flashing
  7
ARIAL
  0
ENDBLK
  5
1568
  8
0
  0
BLOCK
  8
0
  2
*U12
 70
     1
 10
0.0
 20
0.0
 30
0.0
  3
*U12
  1

  0
SOLID
  5
156A
  8
0
  6
CONTINUOUS
 10
-52.49284766080406
 20
-141.57710174801579
 30
0.0
 11
-50.400000000002223
 21
-145.0504910312838
 31
0.0
 12
-53.506225392631407
 22
-142.44361392358769
 32
0.0
 13
-53.506225392631407
 23
-142.44361392358769
 33
0.0
  0
POLYLINE
  5
156B
  8
0
  6
CONTINUOUS
 66
     1
 10
0.0
 20
0.0
 30
0.0
  0
VERTEX
  5
156C
  8
0
  6
CONTINUOUS
 10
-52.999536526717733
 20
-142.01035783580181
 30
0.0
  0
VERTEX
  5
156D
  8
0
  6
CONTINUOUS
 10
-74.0
 20
-117.4505159295601
 30
0.0
  0
VERTEX
  5
156E
  8
0
  6
CONTINUOUS
 10
-78.0
 20
-117.4505159295601
 30
0.0
  0
SEQEND
  5
156F
  8
0
  6
CONTINUOUS
  0
ENDBLK
  5
1571
  8
0
  0
BLOCK
  8
0
  2
*U13
 70
     1
 10
0.0
 20
0.0
 30
0.0
  3
*U13
  1

  0
TEXT
  5
1573
  8
0
  6
CONTINUOUS
 10
-120.0109140518417
 20
-118.862521386586
 30
0.0
 40
4.0
  1
ST 900 cladding
  7
ARIAL
  0
ENDBLK
  5
1575
  8
0
  0
BLOCK
  8
0
  2
*U14
 70
     1
 10
0.0
 20
0.0
 30
0.0
  3
*U14
  1

  0
SOLID
  5
1577
  8
0
  6
CONTINUOUS
 10
-6.1371798827532791
 20
-192.82783559171119
 30
0.0
 11
-3.0000000000001261
 21
-195.3973777353028
 31
0.0
 12
-6.8009676113368744
 22
-193.9841935073928
 32
0.0
 13
-6.8009676113368744
 23
-193.9841935073928
 33
0.0
  0
POLYLINE
  5
1578
  8
0
  6
CONTINUOUS
 66
     1
 10
0.0
 20
0.0
 30
0.0
  0
VERTEX
  5
1579
  8
0
  6
CONTINUOUS
 10
-6.4690737470450772
 20
-193.406014549552
 30
0.0
  0
VERTEX
  5
157A
  8
0
  6
CONTINUOUS
 10
-74.0
 20
-154.6410270498375
 30
0.0
  0
VERTEX
  5
157B
  8
0
  6
CONTINUOUS
 10
-78.0
 20
-154.6410270498375
 30
0.0
  0
SEQEND
  5
157C
  8
0
  6
CONTINUOUS
  0
ENDBLK
  5
157E
  8
0
  0
BLOCK
  8
0
  2
*U15
 70
     1
 10
0.0
 20
0.0
 30
0.0
  3
*U15
  1

  0
TEXT
  5
1580
  8
0
  6
CONTINUOUS
 10
-103.99181446111859
 20
-156.60692063783199
 30
0.0
 40
4.0
  1
 Structure
  7
ARIAL
  0
ENDBLK
  5
1582
  8
0
  0
ENDSEC
  0
SECTION
  2
ENTITIES
  0
POLYLINE
  5
672
  8
0
 66
     1
 10
0.0
 20
0.0
 30
0.0
  0
VERTEX
  5
151B
  8
0
 10
-3.000000000000056
 20
-69.000000000002274
 30
0.0
  0
VERTEX
  5
151C
  8
0
 10
-3.000000000000135
 20
-249.86926910572129
 30
0.0
  0
SEQEND
  5
151D
  8
0
  0
POLYLINE
  5
673
  8
0
 66
     1
 10
0.0
 20
0.0
 30
0.0
  0
VERTEX
  5
151E
  8
0
 10
199.99999999999989
 20
-69.000000000002274
 30
0.0
  0
VERTEX
  5
151F
  8
0
 10
199.99999999999989
 20
-249.8692691057214
 30
0.0
  0
SEQEND
  5
1520
  8
0
  0
POLYLINE
  5
677
  8
0
 66
     1
 10
0.0
 20
0.0
 30
0.0
  0
VERTEX
  5
1521
  8
0
 10
199.99999999999989
 20
5.9999999999990896
 30
0.0
  0
VERTEX
  5
1522
  8
0
 10
199.99999999999989
 20
130.3284056409459
 30
0.0
  0
SEQEND
  5
1523
  8
0
  0
POLYLINE
  5
678
  8
0
 66
     1
 10
0.0
 20
0.0
 30
0.0
  0
VERTEX
  5
1524
  8
0
 10
-3.0000000000000639
 20
39.999999999998749
 30
0.0
  0
VERTEX
  5
1525
  8
0
 10
-3.0000000000000799
 20
130.3284056409459
 30
0.0
  0
SEQEND
  5
1526
  8
0
  0
POLYLINE
  5
679
  8
0
 66
     1
 10
0.0
 20
0.0
 30
0.0
  0
VERTEX
  5
1527
  8
0
 10
-3.0000000000000582
 20
5.9999999999990896
 30
0.0
  0
VERTEX
  5
1528
  8
0
 10
-3.00000000000006
 20
17.999999999999091
 30
0.0
  0
SEQEND
  5
1529
  8
0
  0
POLYLINE
  5
67A
  8
0
 66
     1
 10
0.0
 20
0.0
 30
0.0
  0
VERTEX
  5
152A
  8
0
 10
-48.417745958600463
 20
-249.8692691057214
 30
0.0
  0
VERTEX
  5
152B
  8
0
 10
-48.41774595860047
 20
-40.231712956846422
 30
0.0
  0
VERTEX
  5
152C
  8
0
 10
-10.01774595859907
 20
-40.231712956846422
 30
0.0
  0
VERTEX
  5
152D
  8
0
 10
-10.017745958599059
 20
-249.8692691057214
 30
0.0
  0
SEQEND
  5
152E
  8
0
  0
POLYLINE
  5
67D
  8
0
 66
     1
 10
0.0
 20
0.0
 30
0.0
 40
0.5
 41
0.5
  0
VERTEX
  5
152F
  8
0
 10
-30.153941177280981
 20
-112.900435683686
 30
0.0
  0
VERTEX
  5
1530
  8
0
 10
-51.3645385778837
 20
-101.774072327689
 30
0.0
 42
-0.2734109161190322
  0
VERTEX
  5
1531
  8
0
 10
-52.400000000001349
 20
-100.02202628612029
 30
0.0
  0
VERTEX
  5
1532
  8
0
 10
-52.400000000001349
 20
1.9984942017965741
 30
0.0
 42
-0.4028966236718241
  0
VERTEX
  5
1533
  8
0
 10
-50.47756543913097
 20
3.9969895364553159
 30
0.0
  0
VERTEX
  5
1534
  8
0
 10
52.661123979146993
 20
11.999999999999091
 30
0.0
 42
1.0
  0
VERTEX
  5
1535
  8
0
 10
52.661123979146993
 20
13.999999999999091
 30
0.0
  0
VERTEX
  5
1536
  8
0
 10
42.661123979146993
 20
13.224053504199899
 30
0.0
  0
SEQEND
  5
1537
  8
0
  0
POLYLINE
  5
67E
  8
0
 10
-53.130572862876235
 20
-14.14185401765304
 30
0.0
 66
     1
 70
     8
  0
VERTEX
  8
0
  5
1627
 10
-53.1306
 20
-14.1419
 30
0.000000
  70
    32
  0
VERTEX
  8
0
  5
1628
 10
-53.1976
 20
-14.0859
 30
0.000000
  70
    32
  0
VERTEX
  8
0
  5
1629
 10
-53.2691
 20
-14.0352
 30
0.000000
  70
    32
  0
VERTEX
  8
0
  5
162A
 10
-53.3447
 20
-13.9898
 30
0.000000
  70
    32
  0
VERTEX
  8
0
  5
162B
 10
-53.4245
 20
-13.9498
 30
0.000000
  70
    32
  0
VERTEX
  8
0
  5
162C
 10
-53.5081
 20
-13.9153
 30
0.000000
  70
    32
  0
VERTEX
  8
0
  5
162D
 10
-53.5953
 20
-13.8864
 30
0.000000
  70
    32
  0
VERTEX
  8
0
  5
162E
 10
-53.6860
 20
-13.8632
 30
0.000000
  70
    32
  0
VERTEX
  8
0
  5
162F
 10
-53.7799
 20
-13.8457
 30
0.000000
  70
    32
  0
VERTEX
  8
0
  5
1630
 10
-53.8768
 20
-13.8340
 30
0.000000
  70
    32
  0
VERTEX
  8
0
  5
1631
 10
-53.9765
 20
-13.8281
 30
0.000000
  70
    32
  0
VERTEX
  8
0
  5
1632
 10
-54.0787
 20
-13.8280
 30
0.000000
  70
    32
  0
VERTEX
  8
0
  5
1633
 10
-54.1832
 20
-13.8337
 30
0.000000
  70
    32
  0
VERTEX
  8
0
  5
1634
 10
-54.2897
 20
-13.8452
 30
0.000000
  70
    32
  0
VERTEX
  8
0
  5
1635
 10
-54.3980
 20
-13.8625
 30
0.000000
  70
    32
  0
VERTEX
  8
0
  5
1636
 10
-54.5078
 20
-13.8855
 30
0.000000
  70
    32
  0
VERTEX
  8
0
  5
1637
 10
-54.6189
 20
-13.9142
 30
0.000000
  70
    32
  0
VERTEX
  8
0
  5
1638
 10
-54.7309
 20
-13.9485
 30
0.000000
  70
    32
  0
VERTEX
  8
0
  5
1639
 10
-54.8436
 20
-13.9884
 30
0.000000
  70
    32
  0
VERTEX
  8
0
  5
163A
 10
-54.9568
 20
-14.0336
 30
0.000000
  70
    32
  0
VERTEX
  8
0
  5
163B
 10
-55.0702
 20
-14.0842
 30
0.000000
  70
    32
  0
VERTEX
  8
0
  5
163C
 10
-55.1834
 20
-14.1399
 30
0.000000
  70
    32
  0
VERTEX
  8
0
  5
163D
 10
-55.2962
 20
-14.2008
 30
0.000000
  70
    32
  0
VERTEX
  8
0
  5
163E
 10
-55.4085
 20
-14.2665
 30
0.000000
  70
    32
  0
VERTEX
  8
0
  5
163F
 10
-55.5197
 20
-14.3370
 30
0.000000
  70
    32
  0
VERTEX
  8
0
  5
1640
 10
-55.6298
 20
-14.4121
 30
0.000000
  70
    32
  0
VERTEX
  8
0
  5
1641
 10
-55.7385
 20
-14.4916
 30
0.000000
  70
    32
  0
VERTEX
  8
0
  5
1642
 10
-55.8454
 20
-14.5753
 30
0.000000
  70
    32
  0
VERTEX
  8
0
  5
1643
 10
-55.9503
 20
-14.6630
 30
0.000000
  70
    32
  0
VERTEX
  8
0
  5
1644
 10
-56.0530
 20
-14.7545
 30
0.000000
  70
    32
  0
VERTEX
  8
0
  5
1645
 10
-56.1533
 20
-14.8496
 30
0.000000
  70
    32
  0
VERTEX
  8
0
  5
1646
 10
-56.2508
 20
-14.9481
 30
0.000000
  70
    32
  0
VERTEX
  8
0
  5
1647
 10
-56.3454
 20
-15.0496
 30
0.000000
  70
    32
  0
VERTEX
  8
0
  5
1648
 10
-56.4368
 20
-15.1541
 30
0.000000
  70
    32
  0
VERTEX
  8
0
  5
1649
 10
-56.5248
 20
-15.2611
 30
0.000000
  70
    32
  0
VERTEX
  8
0
  5
164A
 10
-56.6092
 20
-15.3705
 30
0.000000
  70
    32
  0
VERTEX
  8
0
  5
164B
 10
-56.6897
 20
-15.4821
 30
0.000000
  70
    32
  0
VERTEX
  8
0
  5
164C
 10
-56.7663
 20
-15.5954
 30
0.000000
  70
    32
  0
VERTEX
  8
0
  5
164D
 10
-56.8386
 20
-15.7103
 30
0.000000
  70
    32
  0
VERTEX
  8
0
  5
164E
 10
-56.9066
 20
-15.8265
 30
0.000000
  70
    32
  0
VERTEX
  8
0
  5
164F
 10
-56.9701
 20
-15.9437
 30
0.000000
  70
    32
  0
VERTEX
  8
0
  5
1650
 10
-57.0289
 20
-16.0616
 30
0.000000
  70
    32
  0
VERTEX
  8
0
  5
1651
 10
-57.0828
 20
-16.1799
 30
0.000000
  70
    32
  0
VERTEX
  8
0
  5
1652
 10
-57.1318
 20
-16.2983
 30
0.000000
  70
    32
  0
VERTEX
  8
0
  5
1653
 10
-57.1758
 20
-16.4167
 30
0.000000
  70
    32
  0
VERTEX
  8
0
  5
1654
 10
-57.2145
 20
-16.5346
 30
0.000000
  70
    32
  0
VERTEX
  8
0
  5
1655
 10
-57.2480
 20
-16.6518
 30
0.000000
  70
    32
  0
VERTEX
  8
0
  5
1656
 10
-57.2761
 20
-16.7680
 30
0.000000
  70
    32
  0
VERTEX
  8
0
  5
1657
 10
-57.2988
 20
-16.8830
 30
0.000000
  70
    32
  0
VERTEX
  8
0
  5
1658
 10
-57.3160
 20
-16.9964
 30
0.000000
  70
    32
  0
VERTEX
  8
0
  5
1659
 10
-57.3277
 20
-17.1079
 30
0.000000
  70
    32
  0
VERTEX
  8
0
  5
165A
 10
-57.3339
 20
-17.2174
 30
0.000000
  70
    32
  0
VERTEX
  8
0
  5
165B
 10
-57.3345
 20
-17.3246
 30
0.000000
  70
    32
  0
VERTEX
  8
0
  5
165C
 10
-57.3295
 20
-17.4291
 30
0.000000
  70
    32
  0
VERTEX
  8
0
  5
165D
 10
-57.3190
 20
-17.5308
 30
0.000000
  70
    32
  0
VERTEX
  8
0
  5
165E
 10
-57.3029
 20
-17.6293
 30
0.000000
  70
    32
  0
VERTEX
  8
0
  5
165F
 10
-57.2814
 20
-17.7245
 30
0.000000
  70
    32
  0
VERTEX
  8
0
  5
1660
 10
-57.2544
 20
-17.8162
 30
0.000000
  70
    32
  0
VERTEX
  8
0
  5
1661
 10
-57.2221
 20
-17.9040
 30
0.000000
  70
    32
  0
VERTEX
  8
0
  5
1662
 10
-57.1845
 20
-17.9879
 30
0.000000
  70
    32
  0
VERTEX
  8
0
  5
1663
 10
-57.1416
 20
-18.0675
 30
0.000000
  70
    32
  0
VERTEX
  8
0
  5
1664
 10
-57.0937
 20
-18.1427
 30
0.000000
  70
    32
  0
VERTEX
  8
0
  5
1665
 10
-57.0408
 20
-18.2134
 30
0.000000
  70
    32
  0
VERTEX
  8
0
  5
1666
 10
-56.9831
 20
-18.2793
 30
0.000000
  70
    32
  0
VERTEX
  8
0
  5
1667
 10
-56.9206
 20
-18.3403
 30
0.000000
  70
    32
  0
VERTEX
  8
0
  5
1668
 10
-56.8535
 20
-18.3962
 30
0.000000
  70
    32
  0
VERTEX
  8
0
  5
1669
 10
-56.7821
 20
-18.4469
 30
0.000000
  70
    32
  0
VERTEX
  8
0
  5
166A
 10
-56.7064
 20
-18.4924
 30
0.000000
  70
    32
  0
VERTEX
  8
0
  5
166B
 10
-56.6267
 20
-18.5324
 30
0.000000
  70
    32
  0
VERTEX
  8
0
  5
166C
 10
-56.5431
 20
-18.5668
 30
0.000000
  70
    32
  0
VERTEX
  8
0
  5
166D
 10
-56.4559
 20
-18.5957
 30
0.000000
  70
    32
  0
VERTEX
  8
0
  5
166E
 10
-56.3652
 20
-18.6189
 30
0.000000
  70
    32
  0
VERTEX
  8
0
  5
166F
 10
-56.2713
 20
-18.6364
 30
0.000000
  70
    32
  0
VERTEX
  8
0
  5
1670
 10
-56.1743
 20
-18.6481
 30
0.000000
  70
    32
  0
VERTEX
  8
0
  5
1671
 10
-56.0747
 20
-18.6540
 30
0.000000
  70
    32
  0
VERTEX
  8
0
  5
1672
 10
-55.9725
 20
-18.6541
 30
0.000000
  70
    32
  0
VERTEX
  8
0
  5
1673
 10
-55.8680
 20
-18.6484
 30
0.000000
  70
    32
  0
VERTEX
  8
0
  5
1674
 10
-55.7614
 20
-18.6369
 30
0.000000
  70
    32
  0
VERTEX
  8
0
  5
1675
 10
-55.6532
 20
-18.6196
 30
0.000000
  70
    32
  0
VERTEX
  8
0
  5
1676
 10
-55.5434
 20
-18.5966
 30
0.000000
  70
    32
  0
VERTEX
  8
0
  5
1677
 10
-55.4323
 20
-18.5679
 30
0.000000
  70
    32
  0
VERTEX
  8
0
  5
1678
 10
-55.3203
 20
-18.5336
 30
0.000000
  70
    32
  0
VERTEX
  8
0
  5
1679
 10
-55.2075
 20
-18.4938
 30
0.000000
  70
    32
  0
VERTEX
  8
0
  5
167A
 10
-55.0943
 20
-18.4485
 30
0.000000
  70
    32
  0
VERTEX
  8
0
  5
167B
 10
-54.9810
 20
-18.3979
 30
0.000000
  70
    32
  0
VERTEX
  8
0
  5
167C
 10
-54.8678
 20
-18.3422
 30
0.000000
  70
    32
  0
VERTEX
  8
0
  5
167D
 10
-54.7549
 20
-18.2814
 30
0.000000
  70
    32
  0
VERTEX
  8
0
  5
167E
 10
-54.6427
 20
-18.2156
 30
0.000000
  70
    32
  0
VERTEX
  8
0
  5
167F
 10
-54.5314
 20
-18.1451
 30
0.000000
  70
    32
  0
VERTEX
  8
0
  5
1680
 10
-54.4213
 20
-18.0700
 30
0.000000
  70
    32
  0
VERTEX
  8
0
  5
1681
 10
-54.3127
 20
-17.9905
 30
0.000000
  70
    32
  0
VERTEX
  8
0
  5
1682
 10
-54.2058
 20
-17.9068
 30
0.000000
  70
    32
  0
VERTEX
  8
0
  5
1683
 10
-54.1008
 20
-17.8191
 30
0.000000
  70
    32
  0
VERTEX
  8
0
  5
1684
 10
-53.9981
 20
-17.7276
 30
0.000000
  70
    32
  0
VERTEX
  8
0
  5
1685
 10
-53.8979
 20
-17.6325
 30
0.000000
  70
    32
  0
VERTEX
  8
0
  5
1686
 10
-53.8003
 20
-17.5341
 30
0.000000
  70
    32
  0
VERTEX
  8
0
  5
1687
 10
-53.7058
 20
-17.4325
 30
0.000000
  70
    32
  0
VERTEX
  8
0
  5
1688
 10
-53.6144
 20
-17.3280
 30
0.000000
  70
    32
  0
VERTEX
  8
0
  5
1689
 10
-53.5264
 20
-17.2210
 30
0.000000
  70
    32
  0
VERTEX
  8
0
  5
168A
 10
-53.4420
 20
-17.1116
 30
0.000000
  70
    32
  0
VERTEX
  8
0
  5
168B
 10
-53.3614
 20
-17.0001
 30
0.000000
  70
    32
  0
VERTEX
  8
0
  5
168C
 10
-53.2849
 20
-16.8867
 30
0.000000
  70
    32
  0
VERTEX
  8
0
  5
168D
 10
-53.2125
 20
-16.7718
 30
0.000000
  70
    32
  0
VERTEX
  8
0
  5
168E
 10
-53.1445
 20
-16.6556
 30
0.000000
  70
    32
  0
VERTEX
  8
0
  5
168F
 10
-53.0810
 20
-16.5385
 30
0.000000
  70
    32
  0
VERTEX
  8
0
  5
1690
 10
-53.0223
 20
-16.4206
 30
0.000000
  70
    32
  0
VERTEX
  8
0
  5
1691
 10
-52.9683
 20
-16.3022
 30
0.000000
  70
    32
  0
VERTEX
  8
0
  5
1692
 10
-52.9193
 20
-16.1838
 30
0.000000
  70
    32
  0
VERTEX
  8
0
  5
1693
 10
-52.8754
 20
-16.0654
 30
0.000000
  70
    32
  0
VERTEX
  8
0
  5
1694
 10
-52.8366
 20
-15.9475
 30
0.000000
  70
    32
  0
VERTEX
  8
0
  5
1695
 10
-52.8032
 20
-15.8303
 30
0.000000
  70
    32
  0
VERTEX
  8
0
  5
1696
 10
-52.7751
 20
-15.7141
 30
0.000000
  70
    32
  0
VERTEX
  8
0
  5
1697
 10
-52.7524
 20
-15.5992
 30
0.000000
  70
    32
  0
VERTEX
  8
0
  5
1698
 10
-52.7351
 20
-15.4858
 30
0.000000
  70
    32
  0
VERTEX
  8
0
  5
1699
 10
-52.7234
 20
-15.3742
 30
0.000000
  70
    32
  0
VERTEX
  8
0
  5
169A
 10
-52.7173
 20
-15.2647
 30
0.000000
  70
    32
  0
VERTEX
  8
0
  5
169B
 10
-52.7167
 20
-15.1576
 30
0.000000
  70
    32
  0
VERTEX
  8
0
  5
169C
 10
-52.7217
 20
-15.0530
 30
0.000000
  70
    32
  0
VERTEX
  8
0
  5
169D
 10
-52.7322
 20
-14.9514
 30
0.000000
  70
    32
  0
VERTEX
  8
0
  5
169E
 10
-52.7482
 20
-14.8528
 30
0.000000
  70
    32
  0
VERTEX
  8
0
  5
169F
 10
-52.7698
 20
-14.7576
 30
0.000000
  70
    32
  0
VERTEX
  8
0
  5
16A0
 10
-52.7967
 20
-14.6659
 30
0.000000
  70
    32
  0
VERTEX
  8
0
  5
16A1
 10
-52.8291
 20
-14.5781
 30
0.000000
  70
    32
  0
VERTEX
  8
0
  5
16A2
 10
-52.8667
 20
-14.4943
 30
0.000000
  70
    32
  0
VERTEX
  8
0
  5
16A3
 10
-52.9095
 20
-14.4146
 30
0.000000
  70
    32
  0
VERTEX
  8
0
  5
16A4
 10
-52.9574
 20
-14.3394
 30
0.000000
  70
    32
  0
VERTEX
  8
0
  5
16A5
 10
-53.0103
 20
-14.2687
 30
0.000000
  70
    32
  0
VERTEX
  8
0
  5
16A6
 10
-53.0681
 20
-14.2028
 30
0.000000
  70
    32
  0
VERTEX
  8
0
  5
16A7
 10
-53.1306
 20
-14.1419
 30
0.000000
  70
    32
  0
SEQEND
  8
0
  5
16A8
  0
POLYLINE
  5
68B
  8
0
  6
CONTINUOUS
 66
     1
 10
0.0
 20
0.0
 30
0.0
  0
VERTEX
  5
1538
  8
0
  6
CONTINUOUS
 10
203.9999999999996
 20
-249.8692691057214
 30
0.0
  0
VERTEX
  5
1539
  8
0
  6
CONTINUOUS
 10
76.799999999998363
 20
-249.8692691057214
 30
0.0
  0
VERTEX
  5
153A
  8
0
  6
CONTINUOUS
 10
75.799999999998477
 20
-247.12179168626631
 30
0.0
  0
VERTEX
  5
153B
  8
0
  6
CONTINUOUS
 10
73.799999999998477
 20
-252.61674652517581
 30
0.0
  0
VERTEX
  5
153C
  8
0
  6
CONTINUOUS
 10
72.799999999998363
 20
-249.8692691057214
 30
0.0
  0
VERTEX
  5
153D
  8
0
  6
CONTINUOUS
 10
-54.400000000002493
 20
-249.8692691057214
 30
0.0
  0
SEQEND
  5
153E
  8
0
  6
CONTINUOUS
  0
POLYLINE
  5
68C
  8
0
  6
CONTINUOUS
 66
     1
 10
0.0
 20
0.0
 30
0.0
  0
VERTEX
  5
153F
  8
0
  6
CONTINUOUS
 10
203.99999999999969
 20
130.3284056409459
 30
0.0
  0
VERTEX
  5
1540
  8
0
  6
CONTINUOUS
 10
100.4999999999994
 20
130.3284056409459
 30
0.0
  0
VERTEX
  5
1541
  8
0
  6
CONTINUOUS
 10
99.499999999999346
 20
133.075883060401
 30
0.0
  0
VERTEX
  5
1542
  8
0
  6
CONTINUOUS
 10
97.499999999999361
 20
127.5809282214915
 30
0.0
  0
VERTEX
  5
1543
  8
0
  6
CONTINUOUS
 10
96.499999999999474
 20
130.3284056409459
 30
0.0
  0
VERTEX
  5
1544
  8
0
  6
CONTINUOUS
 10
-7.0000000000002736
 20
130.3284056409459
 30
0.0
  0
SEQEND
  5
1545
  8
0
  6
CONTINUOUS
  0
INSERT
  5
7A6
  8
0
  6
CONTINUOUS
  2
*U7
 10
0.0
 20
0.0
 30
0.0
  0
INSERT
  5
10A1
  8
0
  6
CONTINUOUS
  2
*U8
 10
0.0
 20
0.0
 30
0.0
  0
INSERT
  5
10A2
  8
0
  6
CONTINUOUS
  2
*U9
 10
0.0
 20
0.0
 30
0.0
  0
INSERT
  5
10A3
  8
0
  6
CONTINUOUS
  2
*U10
 10
0.0
 20
0.0
 30
0.0
  0
INSERT
  5
10A4
  8
0
  6
CONTINUOUS
  2
*U11
 10
0.0
 20
0.0
 30
0.0
  0
INSERT
  5
10A5
  8
0
  6
CONTINUOUS
  2
*U12
 10
0.0
 20
0.0
 30
0.0
  0
INSERT
  5
10A6
  8
0
  6
CONTINUOUS
  2
*U13
 10
0.0
 20
0.0
 30
0.0
  0
INSERT
  5
10A7
  8
0
  6
CONTINUOUS
  2
*U14
 10
0.0
 20
0.0
 30
0.0
  0
INSERT
  5
10A8
  8
0
  6
CONTINUOUS
  2
*U15
 10
0.0
 20
0.0
 30
0.0
  0
POLYLINE
  5
1478
  8
0
 66
     1
 10
0.0
 20
0.0
 30
0.0
 70
     1
  0
VERTEX
  5
1583
  8
0
 10
199.99999999999989
 20
19.499999999999311
 30
0.0
  0
VERTEX
  5
1584
  8
0
 10
199.9999999999998
 20
38.499999999999091
 30
0.0
  0
VERTEX
  5
1585
  8
0
 10
-2.4000000000006301
 20
38.499999999999091
 30
0.0
  0
VERTEX
  5
1586
  8
0
 10
-2.4000000000006301
 20
19.499999999999091
 30
0.0
  0
SEQEND
  5
1587
  8
0
  0
POLYLINE
  5
1479
  8
0
 66
     1
 10
0.0
 20
0.0
 30
0.0
 70
     1
 40
0.5
 41
0.5
  0
VERTEX
  5
1588
  8
0
 10
199.74999999999989
 20
19.749999999999321
 30
0.0
  0
VERTEX
  5
1589
  8
0
 10
199.7499999999998
 20
38.249999999999091
 30
0.0
  0
VERTEX
  5
158A
  8
0
 10
-2.1500000000006869
 20
38.249999999999091
 30
0.0
  0
VERTEX
  5
158B
  8
0
 10
-2.1500000000006301
 20
19.749999999999091
 30
0.0
  0
SEQEND
  5
158C
  8
0
  0
ARC
  5
147A
  8
0
 10
4.8252291007429164
 20
-70.89705628874276
 30
0.0
 40
103.10517195596169
 50
61.835431410218291
 51
93.739880288903066
  0
ARC
  5
147B
  8
0
 10
4.3435311200038313
 20
-57.041067023907878
 30
0.0
 40
132.50026943152761
 50
35.551947089975918
 51
45.831156893652562
  0
ARC
  5
147C
  8
0
 10
9.1408158944433353
 20
-59.917892910802841
 30
0.0
 40
159.61885085592559
 50
30.04496823421001
 51
37.839248333686008
  0
ARC
  5
147D
  8
0
 10
7.1813609211432663
 20
-49.369530328776712
 30
0.0
 40
203.97502670602469
 50
19.882256935523021
 51
25.36190633858989
  0
ARC
  5
147E
  8
0
 10
11.19384991457683
 20
-100.36850957583169
 30
0.0
 40
143.0605774984721
 50
57.28628125544715
 51
75.285212935128413
  0
POLYLINE
  5
147F
  8
0
 66
     1
 10
0.0
 20
0.0
 30
0.0
  0
VERTEX
  5
158D
  8
0
 10
1.8499999999993539
 20
19.499999999999091
 30
0.0
  0
VERTEX
  5
158E
  8
0
 10
47.532319777238143
 20
37.999999999999091
 30
0.0
  0
SEQEND
  5
158F
  8
0
  0
POLYLINE
  5
1480
  8
0
 66
     1
 10
0.0
 20
0.0
 30
0.0
  0
VERTEX
  5
1590
  8
0
 10
67.777240548788171
 20
19.999999999999091
 30
0.0
  0
VERTEX
  5
1591
  8
0
 10
181.92038294117771
 20
38.499999999999318
 30
0.0
  0
SEQEND
  5
1592
  8
0
  0
POLYLINE
  5
1481
  8
0
 66
     1
 10
0.0
 20
0.0
 30
0.0
 70
     1
  0
VERTEX
  5
1593
  8
0
 10
21.99999999999994
 20
-60.000000000002231
 30
0.0
  0
VERTEX
  5
1594
  8
0
 10
21.999999999999918
 20
-69.000000000002231
 30
0.0
 42
-0.4142135623730951
  0
VERTEX
  5
1595
  8
0
 10
18.999999999999911
 20
-72.000000000002231
 30
0.0
  0
VERTEX
  5
1596
  8
0
 10
-0.0000000000000853
 20
-72.000000000002231
 30
0.0
 42
-0.4142135623730951
  0
VERTEX
  5
1597
  8
0
 10
-3.0000000000000848
 20
-69.000000000002231
 30
0.0
  0
VERTEX
  5
1598
  8
0
 10
-3.000000000000056
 20
-0.0000000000004095
 30
0.0
 42
-0.4142135623730951
  0
VERTEX
  5
1599
  8
0
 10
-0.0000000000000568
 20
2.9999999999995892
 30
0.0
  0
VERTEX
  5
159A
  8
0
 10
55.179174768728842
 20
2.9999999999977578
 30
0.0
 42
-0.1343354352701982
  0
VERTEX
  5
159B
  8
0
 10
56.706488164417749
 20
2.5821142095842649
 30
0.0
  0
VERTEX
  5
159C
  8
0
 10
68.818511835582228
 20
-3.132114209586204
 30
0.0
 42
0.1343354352701658
  0
VERTEX
  5
159D
  8
0
 10
70.345825231270226
 20
-3.5500000000015168
 30
0.0
  0
VERTEX
  5
159E
  8
0
 10
78.679540122764081
 20
-3.550000000003338
 30
0.0
 42
0.130324888025067
  0
VERTEX
  5
159F
  8
0
 10
80.165955554808036
 20
-3.1558720543039001
 30
0.0
  0
VERTEX
  5
15A0
  8
0
 10
92.809044445194047
 20
2.6058720542983118
 30
0.0
 42
-0.1303248880250286
  0
VERTEX
  5
15A1
  8
0
 10
94.295459877237533
 20
2.9999999999977489
 30
0.0
  0
VERTEX
  5
15A2
  8
0
 10
102.7045401227641
 20
2.9999999999977471
 30
0.0
 42
-0.1303248880249852
  0
VERTEX
  5
15A3
  8
0
 10
104.1909555548076
 20
2.6058720542983091
 30
0.0
  0
VERTEX
  5
15A4
  8
0
 10
116.8340444451955
 20
-3.1558720543020891
 30
0.0
 42
0.1303248880250239
  0
VERTEX
  5
15A5
  8
0
 10
118.3204598772394
 20
-3.5500000000015279
 30
0.0
  0
VERTEX
  5
15A6
  8
0
 10
126.65417476873191
 20
-3.5500000000015302
 30
0.0
 42
0.1343354352702374
  0
VERTEX
  5
15A7
  8
0
 10
128.18148816442081
 20
-3.1321142095898562
 30
0.0
  0
VERTEX
  5
15A8
  8
0
 10
140.2935118355812
 20
2.5821142095842462
 30
0.0
 42
-0.1343354352702762
  0
VERTEX
  5
15A9
  8
0
 10
141.82082523127059
 20
2.9999999999977391
 30
0.0
  0
VERTEX
  5
15AA
  8
0
 10
196.99999999999989
 20
2.9999999999977272
 30
0.0
 42
-0.4142135623730951
  0
VERTEX
  5
15AB
  8
0
 10
199.99999999999989
 20
-0.0000000000022737
 30
0.0
  0
VERTEX
  5
15AC
  8
0
 10
199.99999999999989
 20
-69.000000000002274
 30
0.0
 42
-0.4142135623730951
  0
VERTEX
  5
15AD
  8
0
 10
196.99999999999989
 20
-72.000000000002274
 30
0.0
  0
VERTEX
  5
15AE
  8
0
 10
177.99999999999989
 20
-72.000000000002274
 30
0.0
 42
-0.4142135623730951
  0
VERTEX
  5
15AF
  8
0
 10
174.99999999999989
 20
-69.000000000002274
 30
0.0
  0
VERTEX
  5
15B0
  8
0
 10
174.99999999999949
 20
-60.000000000002267
 30
0.0
  0
VERTEX
  5
15B1
  8
0
 10
176.14999999999961
 20
-60.000000000002267
 30
0.0
  0
VERTEX
  5
15B2
  8
0
 10
176.14999999999961
 20
-69.000000000002274
 30
0.0
 42
0.4142135623732102
  0
VERTEX
  5
15B3
  8
0
 10
177.99999999999989
 20
-70.850000000002623
 30
0.0
  0
VERTEX
  5
15B4
  8
0
 10
196.99999999999989
 20
-70.850000000000819
 30
0.0
 42
0.4142135623731383
  0
VERTEX
  5
15B5
  8
0
 10
198.8499999999998
 20
-69.000000000002274
 30
0.0
  0
VERTEX
  5
15B6
  8
0
 10
198.85000000000031
 20
-0.0000000000022733
 30
0.0
 42
0.4142135623732102
  0
VERTEX
  5
15B7
  8
0
 10
196.99999999999989
 20
1.8499999999980901
 30
0.0
  0
VERTEX
  5
15B8
  8
0
 10
141.8208252312692
 20
1.8499999999981021
 30
0.0
 42
0.1408425027255955
  0
VERTEX
  5
15B9
  8
0
 10
140.83861889025951
 20
1.567727879342341
 30
0.0
  0
VERTEX
  5
15BA
  8
0
 10
128.7167991051723
 20
-4.1511221649293306
 30
0.0
 42
-0.1307776883162581
  0
VERTEX
  5
15BB
  8
0
 10
126.65417476873191
 20
-4.7000000000029853
 30
0.0
  0
VERTEX
  5
15BC
  8
0
 10
118.3204598772394
 20
-4.7000000000029827
 30
0.0
 42
-0.1268679712255803
  0
VERTEX
  5
15BD
  8
0
 10
116.31347547580469
 20
-4.1824253072031556
 30
0.0
  0
VERTEX
  5
15BE
  8
0
 10
103.6608011658458
 20
1.58368709582421
 30
0.0
 42
0.1366468976977215
  0
VERTEX
  5
15BF
  8
0
 10
102.7045401227641
 20
1.8499999999981109
 30
0.0
  0
VERTEX
  5
15C0
  8
0
 10
94.295459877237533
 20
1.8499999999981129
 30
0.0
 42
0.1366468976977103
  0
VERTEX
  5
15C1
  8
0
 10
93.339198834156321
 20
1.583687095824212
 30
0.0
  0
VERTEX
  5
15C2
  8
0
 10
80.686524524197864
 20
-4.1824253072067856
 30
0.0
 42
-0.1268679712254794
  0
VERTEX
  5
15C3
  8
0
 10
78.679540122763626
 20
-4.7000000000029738
 30
0.0
  0
VERTEX
  5
15C4
  8
0
 10
70.345825231268861
 20
-4.699999999999334
 30
0.0
 42
-0.1307776883162657
  0
VERTEX
  5
15C5
  8
0
 10
68.283200894831168
 20
-4.1511221649274992
 30
0.0
  0
VERTEX
  5
15C6
  8
0
 10
56.161381109739921
 20
1.5677278793423599
 30
0.0
 42
0.1408425027257099
  0
VERTEX
  5
15C7
  8
0
 10
55.179174768728842
 20
1.849999999998122
 30
0.0
  0
VERTEX
  5
15C8
  8
0
 10
-0.0000000000000568
 20
1.849999999999953
 30
0.0
 42
0.4142135623731383
  0
VERTEX
  5
15C9
  8
0
 10
-1.849999999999965
 20
-0.0000000000004099
 30
0.0
  0
VERTEX
  5
15CA
  8
0
 10
-1.8500000000004491
 20
-69.000000000002231
 30
0.0
 42
0.4142135623732102
  0
VERTEX
  5
15CB
  8
0
 10
-0.0000000000000853
 20
-70.850000000002595
 30
0.0
  0
VERTEX
  5
15CC
  8
0
 10
18.999999999999911
 20
-70.850000000000776
 30
0.0
 42
0.4142135623731383
  0
VERTEX
  5
15CD
  8
0
 10
20.849999999999831
 20
-69.000000000002231
 30
0.0
  0
VERTEX
  5
15CE
  8
0
 10
20.849999999999849
 20
-60.000000000002231
 30
0.0
  0
SEQEND
  5
15CF
  8
0
  0
POLYLINE
  5
1482
  8
0
 66
     1
 10
0.0
 20
0.0
 30
0.0
 70
     1
1001
ACDBBLOCKREPETAG
1070
     1
1071
        0
1005
1482
  0
VERTEX
  5
15D0
  8
0
 10
-54.400000000001093
 20
-20.896446609405071
 30
0.0
  0
VERTEX
  5
15D1
  8
0
 10
-54.40000000000154
 20
-26.146446609405078
 30
0.0
 42
-0.4142135623730951
  0
VERTEX
  5
15D2
  8
0
 10
-54.90000000000154
 20
-26.646446609405078
 30
0.0
  0
VERTEX
  5
15D3
  8
0
 10
-58.400000000001548
 20
-26.64644660940462
 30
0.0
 42
-0.4142135623730784
  0
VERTEX
  5
15D4
  8
0
 10
-58.900000000001548
 20
-26.14644660940462
 30
0.0
  0
VERTEX
  5
15D5
  8
0
 10
-58.900000000001988
 20
13.35355339059516
 30
0.0
 42
-0.1989123673796969
  0
VERTEX
  5
15D6
  8
0
 10
-58.753553390595329
 20
13.707106781188489
 30
0.0
  0
VERTEX
  5
15D7
  8
0
 10
-51.546446609409116
 20
20.914213562373799
 30
0.0
 42
0.1989123673796435
  0
VERTEX
  5
15D8
  8
0
 10
-51.40000000000245
 20
21.267766952967129
 30
0.0
  0
VERTEX
  5
15D9
  8
0
 10
-51.400000000000183
 20
33.250000000002281
 30
0.0
  0
VERTEX
  5
15DA
  8
0
 10
-49.900000000000169
 20
33.250000000002281
 30
0.0
  0
VERTEX
  5
15DB
  8
0
 10
-49.900000000002002
 20
24.50000000000183
 30
0.0
 42
0.4142135623731409
  0
VERTEX
  5
15DC
  8
0
 10
-49.400000000002002
 20
24.00000000000183
 30
0.0
  0
VERTEX
  5
15DD
  8
0
 10
-43.922542485940163
 20
24.00000000000183
 30
0.0
 42
0.2840790438403827
  0
VERTEX
  5
15DE
  8
0
 10
-43.475328890440409
 20
24.276393202251722
 30
0.0
  0
VERTEX
  5
15DF
  8
0
 10
-38.751722092689391
 20
33.72360679774966
 30
0.0
 42
-0.2840790438403819
  0
VERTEX
  5
15E0
  8
0
 10
-38.30450849718963
 20
33.999999999999552
 30
0.0
  0
VERTEX
  5
15E1
  8
0
 10
-19.39999999999926
 20
33.999999999999091
 30
0.0
 42
0.414213562373126
  0
VERTEX
  5
15E2
  8
0
 10
-18.89999999999927
 20
34.499999999999091
 30
0.0
  0
VERTEX
  5
15E3
  8
0
 10
-18.900000000001079
 20
44.5
 30
0.0
 42
0.4142135623730571
  0
VERTEX
  5
15E4
  8
0
 10
-19.400000000001079
 20
45.0
 30
0.0
  0
VERTEX
  5
15E5
  8
0
 10
-22.400000000000169
 20
45.0
 30
0.0
 42
-0.4142135623730062
  0
VERTEX
  5
15E6
  8
0
 10
-22.90000000000018
 20
45.499999999999993
 30
0.0
  0
VERTEX
  5
15E7
  8
0
 10
-22.90000000000154
 20
48.000000000000462
 30
0.0
  0
VERTEX
  5
15E8
  8
0
 10
-21.400000000001079
 20
48.000000000001812
 30
0.0
  0
VERTEX
  5
15E9
  8
0
 10
-21.40000000000018
 20
46.999999999998629
 30
0.0
 42
0.4142135623728287
  0
VERTEX
  5
15EA
  8
0
 10
-20.90000000000018
 20
46.499999999999083
 30
0.0
  0
VERTEX
  5
15EB
  8
0
 10
-19.400000000000631
 20
46.499999999999083
 30
0.0
 42
0.4142135623730951
  0
VERTEX
  5
15EC
  8
0
 10
-18.900000000000631
 20
46.999999999999091
 30
0.0
  0
VERTEX
  5
15ED
  8
0
 10
-18.900000000000631
 20
51.999999999999091
 30
0.0
 42
0.4142135623730951
  0
VERTEX
  5
15EE
  8
0
 10
-19.400000000000631
 20
52.499999999999091
 30
0.0
  0
VERTEX
  5
15EF
  8
0
 10
-20.900000000000631
 20
52.499999999999091
 30
0.0
 42
0.4142135623730951
  0
VERTEX
  5
15F0
  8
0
 10
-21.400000000000631
 20
51.999999999999091
 30
0.0
  0
VERTEX
  5
15F1
  8
0
 10
-21.400000000000631
 20
50.999999999999552
 30
0.0
  0
VERTEX
  5
15F2
  8
0
 10
-22.900000000000631
 20
50.999999999998181
 30
0.0
  0
VERTEX
  5
15F3
  8
0
 10
-22.900000000001079
 20
53.500000000000909
 30
0.0
 42
-0.4142135623731676
  0
VERTEX
  5
15F4
  8
0
 10
-22.400000000001079
 20
54.000000000000902
 30
0.0
  0
VERTEX
  5
15F5
  8
0
 10
-17.900000000000631
 20
53.999999999999091
 30
0.0
 42
-0.4142135623729752
  0
VERTEX
  5
15F6
  8
0
 10
-17.400000000000631
 20
53.499999999999091
 30
0.0
  0
VERTEX
  5
15F7
  8
0
 10
-17.399999999999721
 20
34.499999999999091
 30
0.0
 42
0.4142135623730715
  0
VERTEX
  5
15F8
  8
0
 10
-16.899999999999721
 20
33.999999999999091
 30
0.0
  0
VERTEX
  5
15F9
  8
0
 10
-4.4000000000006301
 20
33.999999999998643
 30
0.0
 42
0.4142135623731053
  0
VERTEX
  5
15FA
  8
0
 10
-3.900000000000631
 20
34.499999999998643
 30
0.0
  0
VERTEX
  5
15FB
  8
0
 10
-3.9000000000001762
 20
39.499999999998643
 30
0.0
 42
-0.414213562373072
  0
VERTEX
  5
15FC
  8
0
 10
-3.4000000000001762
 20
39.999999999998643
 30
0.0
  0
VERTEX
  5
15FD
  8
0
 10
1.849999999999369
 20
39.999999999999552
 30
0.0
  0
VERTEX
  5
15FE
  8
0
 10
1.849999999999369
 20
38.499999999999091
 30
0.0
  0
VERTEX
  5
15FF
  8
0
 10
-2.4000000000006301
 20
38.499999999999091
 30
0.0
  0
VERTEX
  5
1600
  8
0
 10
-2.4000000000006332
 20
19.4999999999986
 30
0.0
  0
VERTEX
  5
1601
  8
0
 10
6.8499999999993673
 20
19.499999999999091
 30
0.0
  0
VERTEX
  5
1602
  8
0
 10
6.8499999999993673
 20
17.999999999999091
 30
0.0
  0
VERTEX
  5
1603
  8
0
 10
-3.4000000000006332
 20
17.999999999999091
 30
0.0
 42
-0.4142135623731081
  0
VERTEX
  5
1604
  8
0
 10
-3.9000000000006332
 20
18.499999999999091
 30
0.0
  0
VERTEX
  5
1605
  8
0
 10
-3.9000000000010862
 20
31.999999999998639
 30
0.0
 42
0.4142135623730852
  0
VERTEX
  5
1606
  8
0
 10
-4.4000000000010857
 20
32.499999999998643
 30
0.0
  0
VERTEX
  5
1607
  8
0
 10
-16.89999999999926
 20
32.499999999999091
 30
0.0
 42
0.4142135623731053
  0
VERTEX
  5
1608
  8
0
 10
-17.39999999999926
 20
31.999999999999091
 30
0.0
  0
VERTEX
  5
1609
  8
0
 10
-17.400000000000169
 20
27.999999999998639
 30
0.0
 42
-0.4142135623730655
  0
VERTEX
  5
160A
  8
0
 10
-17.900000000000169
 20
27.499999999998639
 30
0.0
  0
VERTEX
  5
160B
  8
0
 10
-23.03382064488423
 20
27.499999999998639
 30
0.0
  0
VERTEX
  5
160C
  8
0
 10
-23.03382064488423
 20
28.999999999998629
 30
0.0
  0
VERTEX
  5
160D
  8
0
 10
-19.399999999999721
 20
28.999999999999091
 30
0.0
 42
0.4142135623729824
  0
VERTEX
  5
160E
  8
0
 10
-18.899999999999721
 20
29.499999999999091
 30
0.0
  0
VERTEX
  5
160F
  8
0
 10
-18.899999999998361
 20
32.0
 30
0.0
 42
0.4142135623731982
  0
VERTEX
  5
1610
  8
0
 10
-19.399999999998361
 20
32.5
 30
0.0
  0
VERTEX
  5
1611
  8
0
 10
-37.377457514065192
 20
32.499999999998643
 30
0.0
 42
0.2840790438404103
  0
VERTEX
  5
1612
  8
0
 10
-37.824671109564953
 20
32.223606797748751
 30
0.0
  0
VERTEX
  5
1613
  8
0
 10
-41.574671109562672
 20
24.723606797751941
 30
0.0
 42
0.5575365158350297
  0
VERTEX
  5
1614
  8
0
 10
-41.127457514062911
 20
24.00000000000183
 30
0.0
  0
VERTEX
  5
1615
  8
0
 10
-38.52760084416613
 20
24.000000000002728
 30
0.0
  0
VERTEX
  5
1616
  8
0
 10
-38.527600844164311
 20
22.500000000002281
 30
0.0
  0
VERTEX
  5
1617
  8
0
 10
-49.400000000002002
 20
22.500000000002739
 30
0.0
 42
0.4142135623731073
  0
VERTEX
  5
1618
  8
0
 10
-49.900000000002002
 20
22.000000000002739
 30
0.0
  0
VERTEX
  5
1619
  8
0
 10
-49.90000000000245
 20
20.64644660940667
 30
0.0
 42
-0.1989123673796139
  0
VERTEX
  5
161A
  8
0
 10
-50.046446609409109
 20
20.29289321881334
 30
0.0
  0
VERTEX
  5
161B
  8
0
 10
-57.253553390597141
 20
13.085786437627579
 30
0.0
 42
0.1989123673797151
  0
VERTEX
  5
161C
  8
0
 10
-57.400000000003821
 20
12.732233047034249
 30
0.0
  0
VERTEX
  5
161D
  8
0
 10
-57.400000000002002
 20
-24.646446609405519
 30
0.0
 42
0.4142135623731039
  0
VERTEX
  5
161E
  8
0
 10
-56.900000000002002
 20
-25.14644660940553
 30
0.0
  0
VERTEX
  5
161F
  8
0
 10
-56.400000000001548
 20
-25.146446609405071
 30
0.0
 42
0.4142135623730508
  0
VERTEX
  5
1620
  8
0
 10
-55.900000000001548
 20
-24.646446609405071
 30
0.0
  0
VERTEX
  5
1621
  8
0
 10
-55.900000000002002
 20
-20.896446609405519
 30
0.0
  0
SEQEND
  5
1622
  8
0
  0
LINE
  5
1488
  8
0
 10
-57.310887551713172
 20
-17.585032601632459
 30
0.0
 11
-53.608464473210013
 21
-13.8826095231293
 31
0.0
1001
GRADIENTCOLOR1ACI
1070
     5
1001
GRADIENTCOLOR2ACI
1070
     2
1001
ACAD
1010
0.0
1020
0.0
1030
0.0
  0
LINE
  5
1489
  8
0
 10
-56.132141599095462
 20
-18.651350679282132
 30
0.0
 11
-52.716581121065751
 21
-15.23579020125243
 31
0.0
1001
GRADIENTCOLOR1ACI
1070
     5
1001
GRADIENTCOLOR2ACI
1070
     2
1001
ACAD
1010
0.0
1020
0.0
1030
0.0
  0
ENDSEC
  0
EOF
