  0
SECTION
  2
HEADER
  9
$ACADVER
  1
AC1009
  9
$INSBASE
 10
0.0
 20
0.0
 30
0.0
  9
$EXTMIN
 10
-452.58723871415822
 20
-94.085890354416264
 30
-0.0015258207003583
  9
$EXTMAX
 10
280.52875880735928
 20
239.34545269069091
 30
0.0000000349246037
  9
$LIMMIN
 10
0.0
 20
0.0
  9
$LIMMAX
 10
12.0
 20
9.0
  9
$ORTHOMODE
 70
     0
  9
$REGENMODE
 70
     1
  9
$FILLMODE
 70
     1
  9
$QTEXTMODE
 70
     0
  9
$MIRRTEXT
 70
     0
  9
$DRAGMODE
 70
     2
  9
$LTSCALE
 40
0.5
  9
$OSMODE
 70
     0
  9
$ATTMODE
 70
     1
  9
$TEXTSIZE
 40
20.0
  9
$TRACEWID
 40
0.05
  9
$TEXTSTYLE
  7
TEXT_NOTE
  9
$CLAYER
  8
0
  9
$CELTYPE
  6
CONTINUOUS
  9
$CECOLOR
 62
   256
  9
$DIMSCALE
 40
5.0
  9
$DIMASZ
 40
3.0
  9
$DIMEXO
 40
1.5
  9
$DIMDLI
 40
3.75
  9
$DIMRND
 40
0.0
  9
$DIMDLE
 40
0.0
  9
$DIMEXE
 40
1.0
  9
$DIMTP
 40
0.0
  9
$DIMTM
 40
0.000000001
  9
$DIMTXT
 40
2.0
  9
$DIMCEN
 40
0.0
  9
$DIMTSZ
 40
0.0
  9
$DIMTOL
 70
     0
  9
$DIMLIM
 70
     0
  9
$DIMTIH
 70
     0
  9
$DIMTOH
 70
     0
  9
$DIMSE1
 70
     0
  9
$DIMSE2
 70
     0
  9
$DIMTAD
 70
     1
  9
$DIMZIN
 70
     8
  9
$DIMBLK
  1

  9
$DIMASO
 70
     1
  9
$DIMSHO
 70
     1
  9
$DIMPOST
  1

  9
$DIMAPOST
  1

  9
$DIMALT
 70
     0
  9
$DIMALTD
 70
     3
  9
$DIMALTF
 40
0.03937007874016
  9
$DIMLFAC
 40
1.0
  9
$DIMTOFL
 70
     1
  9
$DIMTVP
 40
0.0
  9
$DIMTIX
 70
     0
  9
$DIMSOXD
 70
     0
  9
$DIMSAH
 70
     0
  9
$DIMBLK1
  1

  9
$DIMBLK2
  1

  9
$DIMSTYLE
  2
DL1DS10
  9
$DIMCLRD
 70
     6
  9
$DIMCLRE
 70
     6
  9
$DIMCLRT
 70
     2
  9
$DIMTFAC
 40
0.8
  9
$DIMGAP
 40
1.0
  9
$LUNITS
 70
     2
  9
$LUPREC
 70
     1
  9
$SKETCHINC
 40
0.1
  9
$FILLETRAD
 40
0.0
  9
$AUNITS
 70
     1
  9
$AUPREC
 70
     4
  9
$MENU
  1
.
  9
$ELEVATION
 40
0.0
  9
$PELEVATION
 40
0.0
  9
$THICKNESS
 40
0.0
  9
$LIMCHECK
 70
     0
  9
$BLIPMODE
 70
     0
  9
$CHAMFERA
 40
0.0
  9
$CHAMFERB
 40
0.0
  9
$SKPOLY
 70
     0
  9
$TDCREATE
 40
2452152.6952596069
  9
$TDUPDATE
 40
2455936.524718496
  9
$TDINDWG
 40
19.3284557986
  9
$TDUSRTIMER
 40
19.3284557986
  9
$USRTIMER
 70
     1
  9
$ANGBASE
 50
0.0
  9
$ANGDIR
 70
     0
  9
$PDMODE
 70
     0
  9
$PDSIZE
 40
0.0
  9
$PLINEWID
 40
0.0
  9
$COORDS
 70
     1
  9
$SPLFRAME
 70
     0
  9
$SPLINETYPE
 70
     6
  9
$SPLINESEGS
 70
     8
  9
$ATTDIA
 70
     0
  9
$ATTREQ
 70
     1
  9
$HANDLING
 70
     1
  9
$HANDSEED
  5
7D2
  9
$SURFTAB1
 70
     6
  9
$SURFTAB2
 70
     6
  9
$SURFTYPE
 70
     6
  9
$SURFU
 70
     6
  9
$SURFV
 70
     6
  9
$UCSNAME
  2

  9
$UCSORG
 10
0.0
 20
0.0
 30
0.0
  9
$UCSXDIR
 10
1.0
 20
0.0
 30
0.0
  9
$UCSYDIR
 10
0.0
 20
1.0
 30
0.0
  9
$PUCSNAME
  2

  9
$PUCSORG
 10
0.0
 20
0.0
 30
0.0
  9
$PUCSXDIR
 10
1.0
 20
0.0
 30
0.0
  9
$PUCSYDIR
 10
0.0
 20
1.0
 30
0.0
  9
$USERI1
 70
     0
  9
$USERI2
 70
     0
  9
$USERI3
 70
     0
  9
$USERI4
 70
     0
  9
$USERI5
 70
     0
  9
$USERR1
 40
0.0
  9
$USERR2
 40
0.0
  9
$USERR3
 40
0.0
  9
$USERR4
 40
0.0
  9
$USERR5
 40
0.0
  9
$WORLDVIEW
 70
     1
  9
$SHADEDGE
 70
     3
  9
$SHADEDIF
 70
    70
  9
$TILEMODE
 70
     1
  9
$MAXACTVP
 70
    48
  9
$PLIMCHECK
 70
     0
  9
$PEXTMIN
 10
0.0
 20
0.0
 30
0.0
  9
$PEXTMAX
 10
0.0
 20
0.0
 30
0.0
  9
$PLIMMIN
 10
0.0
 20
0.0
  9
$PLIMMAX
 10
12.0
 20
9.0
  9
$UNITMODE
 70
     0
  9
$VISRETAIN
 70
     1
  9
$PLINEGEN
 70
     1
  9
$PSLTSCALE
 70
     1
  0
ENDSEC
  0
SECTION
  2
TABLES
  0
TABLE
  2
VPORT
 70
     1
  0
VPORT
  2
*ACTIVE
 70
     0
 10
0.0
 20
0.0
 11
1.0
 21
1.0
 12
-86.029239953399497
 22
72.629781168137299
 13
0.0
 23
0.0
 14
1.0
 24
1.0
 15
50.0
 25
50.0
 16
0.0
 26
0.0
 36
1.0
 17
0.0
 27
0.0
 37
0.0
 40
456.24453836664628
 41
1.6128385155466389
 42
50.0
 43
0.0
 44
0.0
 50
0.0
 51
0.0
 71
     0
 72
 20000
 73
     1
 74
     3
 75
     0
 76
     0
 77
     0
 78
     0
  0
ENDTAB
  0
TABLE
  2
LTYPE
 70
     3
  0
LTYPE
  2
CONTINUOUS
 70
     0
  3
Solid line
 72
    65
 73
     0
 40
0.0
  0
LTYPE
  2
CORB-14_BARGE_OUTRIGGER$0$
 70
     0
  3
____ _ ____ _ ____ _ ____ _ ____ _ ____ _ ____ 
 72
    65
 73
     4
 40
50.799999999999997
 49
31.75
 49
-6.3499999999999988
 49
6.3499999999999988
 49
-6.3499999999999988
  0
LTYPE
  2
CORB-14_BARGE_OUTRIGGER$00
 70
     0
  3
__ __ __ __ __ __ __ __ __ __ __ __ __ __ __ __
 72
    65
 73
     2
 40
9.5249999999999986
 49
6.3499999999999988
 49
-3.1749999999999989
  0
ENDTAB
  0
TABLE
  2
LAYER
 70
     3
  0
LAYER
  2
0
 70
     0
 62
     7
  6
CONTINUOUS
  0
ENDTAB
  0
TABLE
  2
STYLE
 70
     6
  0
STYLE
  2
STANDARD
 70
     0
 40
0.0
 41
1.0
 50
0.0
 71
     0
 42
1.5
  3
romans.shx
  4

  0
STYLE
  2
TEXT_NOTE
 70
     0
 40
0.0
 41
1.0
 50
0.0
 71
     0
 42
20.0
  3
txt
  4

  0
STYLE
  2
CORB-14_BARGE_OUTRIGGER$0$
 70
     0
 40
0.0
 41
1.0
 50
0.0
 71
     0
 42
20.0
  3
txt
  4

  0
STYLE
  2
CORB-14_BARGE_OUTRIGGER$00
 70
     0
 40
0.0
 41
1.0
 50
0.0
 71
     0
 42
20.0
  3
txt
  4

  0
ENDTAB
  0
TABLE
  2
VIEW
 70
     3
  0
VIEW
  2
09
 70
     0
 40
2970.0
 10
19050.0
 20
1485.0
 41
2100.0
 11
0.0
 21
0.0
 31
1.0
 12
0.0
 22
0.0
 32
0.0
 42
50.0
 43
0.0
 44
0.0
 50
0.0
 71
     0
  0
VIEW
  2
COMM-04
 70
     1
 40
477.26027331217421
 10
194.21746115522001
 20
180.60494410563541
 41
755.81685306636155
 11
0.0
 21
0.0
 31
1.0
 12
0.0
 22
0.0
 32
0.0
 42
50.0
 43
0.0
 44
0.0
 50
0.0
 71
     0
  0
ENDTAB
  0
TABLE
  2
UCS
 70
     0
  0
ENDTAB
  0
TABLE
  2
APPID
 70
    26
  0
APPID
  2
ACAD
 70
     0
  0
APPID
  2
RAK
 70
     0
  0
APPID
  2
GENIUS_GENODEF_13
 70
     0
  0
APPID
  2
GENIUS_GENREC_14
 70
     0
  0
APPID
  2
GENIUS_GENOBJ-N-REC_13
 70
     0
  0
APPID
  2
ACAD_EXEMPT_FROM_CAD_STANDARDS
 70
     0
  0
APPID
  2
ACAD_MLEADERVER
 70
     0
  0
APPID
  2
ACAD_DSTYLE_DIMEXT_ENABLED
 70
     0
  0
APPID
  2
ACAD_DSTYLE_DIMEXT_LENGTH
 70
     0
  0
APPID
  2
GENIUS_GENSCREG_15
 70
     0
  0
APPID
  2
GENIUS_GENOBJ-N-SDF_13
 70
     0
  0
APPID
  2
PE_URL
 70
     0
  0
APPID
  2
GENIUS_GENCFG_13
 70
     0
  0
APPID
  2
GENIUS_GENCFG0_13
 70
     0
  0
APPID
  2
ACAD_PSEXT
 70
     0
  0
APPID
  2
ACAECLAYERSTANDARD
 70
     0
  0
APPID
  2
ACDBDYNAMICBLOCKGUID
 70
     0
  0
APPID
  2
ACCMTRANSPARENCY
 70
     0
  0
APPID
  2
ACADANNOPO
 70
     0
  0
APPID
  2
ADESKUNDERLAYLAYEROVERRIDEDATA
 70
     0
  0
APPID
  2
URBANX
 70
     0
  0
APPID
  2
GRADIENTCOLOR1ACI
 70
     0
  0
APPID
  2
GRADIENTCOLOR2ACI
 70
     0
  0
APPID
  2
ACAD_NAV_VCDISPLAY
 70
     0
  0
APPID
  2
ACADANNOTATIVE
 70
     0
  0
APPID
  2
ACAD_DSTYLE_DIMJOGGED_JOGA
 70
     0
  0
ENDTAB
  0
TABLE
  2
DIMSTYLE
 70
     6
  0
DIMSTYLE
  2
DL1DS10
 70
     0
  3

  4

  5

  6

  7

 40
10.0
 41
3.0
 42
1.5
 43
3.75
 44
1.0
 45
0.0
 46
0.0
 47
0.0
 48
0.000000001
140
2.0
141
0.0
142
0.0
143
0.03937007874016
144
1.0
145
0.0
146
0.8
147
1.0
 71
     0
 72
     0
 73
     0
 74
     0
 75
     0
 76
     0
 77
     1
 78
     8
170
     0
171
     3
172
     1
173
     0
174
     0
175
     0
176
     6
177
     6
178
     2
  0
DIMSTYLE
  2
CORB-14_BARGE_OUTRIGGER$0$
 70
     0
  3

  4

  5
CORB-14_BARGE_OUTRIGGER$0$
  6

  7

 40
5.0
 41
2.0
 42
2.0
 43
6.0
 44
1.5
 45
0.0
 46
1.5
 47
0.0
 48
0.0
140
2.0
141
2.0
142
0.0
143
0.0394
144
1.0
145
0.0
146
1.0
147
1.0
 71
     0
 72
     0
 73
     0
 74
     0
 75
     0
 76
     0
 77
     0
 78
     0
170
     0
171
     2
172
     1
173
     0
174
     1
175
     0
176
     0
177
     0
178
     0
  0
ENDTAB
  0
ENDSEC
  0
SECTION
  2
BLOCKS
  0
BLOCK
  8
0
  2
$MODEL_SPACE
 70
     0
 10
0.0
 20
0.0
 30
0.0
  3
$MODEL_SPACE
  1

  0
ENDBLK
  5
D
  8
0
  0
BLOCK
 67
     1
  8
0
  2
$PAPER_SPACE
 70
     0
 10
0.0
 20
0.0
 30
0.0
  3
$PAPER_SPACE
  1

  0
ENDBLK
  5
68B
 67
     1
  8
0
  0
BLOCK
  8
0
  2
CORB-14_BARGE_OUTRIGGER$0$
 70
     0
 10
0.0
 20
0.0
 30
0.0
  3
CORB-14_BARGE_OUTRIGGER$0$
  1

  0
POLYLINE
  5
57C
  8
0
  6
BYBLOCK
 62
     0
 66
     1
 10
0.0
 20
0.0
 30
0.0
 40
0.15
 41
0.15
  0
VERTEX
  5
72A
  8
0
  6
BYBLOCK
 62
     0
 10
-0.5
 20
-0.5
 30
0.0
  0
VERTEX
  5
72B
  8
0
  6
BYBLOCK
 62
     0
 10
0.5
 20
0.5
 30
0.0
  0
SEQEND
  5
72C
  8
0
  6
BYBLOCK
 62
     0
  0
ENDBLK
  5
57D
  8
0
  0
BLOCK
  8
0
  2
*U5
 70
     1
 10
0.0
 20
0.0
 30
0.0
  3
*U5
  1

  0
SOLID
  5
73B
  8
0
  6
CONTINUOUS
 10
148.6429584530986
 20
94.258197534307897
 30
0.0
 11
145.83670427765171
 21
104.0
 31
0.0
 12
151.65077254059619
 22
95.694917940706432
 32
0.0
 13
151.65077254059619
 23
95.694917940706432
 33
0.0
  0
POLYLINE
  5
73C
  8
0
  6
CONTINUOUS
 66
     1
 10
0.0
 20
0.0
 30
0.0
  0
VERTEX
  5
73D
  8
0
  6
CONTINUOUS
 10
150.1468654968474
 20
94.976557737507164
 30
0.0
  0
VERTEX
  5
73E
  8
0
  6
CONTINUOUS
 10
195.34009107574269
 20
0.363284375292108
 30
0.0
  0
VERTEX
  5
73F
  8
0
  6
CONTINUOUS
 10
205.34009107574281
 20
0.363284375292108
 30
0.0
  0
SEQEND
  5
740
  8
0
  6
CONTINUOUS
  0
ENDBLK
  5
742
  8
0
  0
BLOCK
  8
0
  2
*U6
 70
     1
 10
0.0
 20
0.0
 30
0.0
  3
*U6
  1

  0
TEXT
  5
744
  8
0
  6
CONTINUOUS
 10
209.26232845637031
 20
-3.166729267272693
 30
0.0
 40
10.0
  1
Ply sarking
  7
CORB-14_BARGE_OUTRIGGER$0$
  0
ENDBLK
  5
746
  8
0
  0
BLOCK
  8
0
  2
*U7
 70
     1
 10
0.0
 20
0.0
 30
0.0
  3
*U7
  1

  0
SOLID
  5
748
  8
0
  6
CONTINUOUS
 10
-178.75759456737839
 20
105.51274670060209
 30
0.0
 11
-175.1841085088017
 21
115.0
 31
0.0
 12
-175.48748614278571
 22
104.866602751842
 32
0.0
 13
-175.48748614278571
 23
104.866602751842
 33
0.0
  0
POLYLINE
  5
749
  8
0
  6
CONTINUOUS
 66
     1
 10
0.0
 20
0.0
 30
0.0
  0
VERTEX
  5
74A
  8
0
  6
CONTINUOUS
 10
-177.12254035508209
 20
105.18967472622199
 30
0.0
  0
VERTEX
  5
74B
  8
0
  6
CONTINUOUS
 10
-215.19628322445351
 20
-87.500000000000895
 30
0.0
  0
VERTEX
  5
74C
  8
0
  6
CONTINUOUS
 10
-225.19628322445351
 20
-87.500000000000895
 30
0.0
  0
SEQEND
  5
74D
  8
0
  6
CONTINUOUS
  0
ENDBLK
  5
74F
  8
0
  0
BLOCK
  8
0
  2
*U8
 70
     1
 10
0.0
 20
0.0
 30
0.0
  3
*U8
  1

  0
TEXT
  5
751
  8
0
  6
CONTINUOUS
 10
-417.9452600320933
 20
-91.115279672579334
 30
0.0
 40
10.0
  1
Kraft underlay over ply sarking
  7
CORB-14_BARGE_OUTRIGGER$0$
  0
ENDBLK
  5
753
  8
0
  0
BLOCK
  8
0
  2
*U9
 70
     1
 10
0.0
 20
0.0
 30
0.0
  3
*U9
  1

  0
SOLID
  5
755
  8
0
  6
CONTINUOUS
 10
-300.0
 20
30.334273616755741
 30
0.0
 11
-290.0
 21
28.667606950089059
 31
0.0
 12
-300.0
 22
27.000940283422398
 32
0.0
 13
-300.0
 23
27.000940283422398
 33
0.0
  0
POLYLINE
  5
756
  8
0
  6
CONTINUOUS
 66
     1
 10
0.0
 20
0.0
 30
0.0
  0
VERTEX
  5
757
  8
0
  6
CONTINUOUS
 10
-300.0
 20
28.667606950089059
 30
0.0
  0
VERTEX
  5
758
  8
0
  6
CONTINUOUS
 10
-339.4475428043707
 20
28.667606950089059
 30
0.0
  0
SEQEND
  5
759
  8
0
  6
CONTINUOUS
  0
ENDBLK
  5
75B
  8
0
  0
BLOCK
  8
0
  2
*U10
 70
     1
 10
0.0
 20
0.0
 30
0.0
  3
*U10
  1

  0
TEXT
  5
75D
  8
0
  6
CONTINUOUS
 10
-452.56486886166942
 20
33.368607404841228
 30
0.0
 40
10.0
  1
H3 treated timber
  7
CORB-14_BARGE_OUTRIGGER$0$
  0
TEXT
  5
75E
  8
0
  6
CONTINUOUS
 10
-393.949589189091
 20
16.70194073817456
 30
0.0
 40
10.0
  1
or equal
  7
CORB-14_BARGE_OUTRIGGER$0$
  0
ENDBLK
  5
760
  8
0
  0
BLOCK
  8
0
  2
*U11
 70
     1
 10
0.0
 20
0.0
 30
0.0
  3
*U11
  1

  0
SOLID
  5
762
  8
0
  6
CONTINUOUS
 10
-167.31718485071059
 20
158.13331930299259
 30
0.0
 11
-160.036504236501
 21
151.07857142857139
 31
0.0
 12
-169.21166088488991
 22
155.3906797592262
 32
0.0
 13
-169.21166088488991
 23
155.3906797592262
 33
0.0
  0
POLYLINE
  5
763
  8
0
  6
CONTINUOUS
 66
     1
 10
0.0
 20
0.0
 30
0.0
  0
VERTEX
  5
764
  8
0
  6
CONTINUOUS
 10
-168.26442286780031
 20
156.76199953110941
 30
0.0
  0
VERTEX
  5
765
  8
0
  6
CONTINUOUS
 10
-262.54365110551538
 20
221.88529975596981
 30
0.0
  0
VERTEX
  5
766
  8
0
  6
CONTINUOUS
 10
-272.54365110551538
 20
221.88529975596981
 30
0.0
  0
SEQEND
  5
767
  8
0
  6
CONTINUOUS
  0
ENDBLK
  5
769
  8
0
  0
BLOCK
  8
0
  2
*U12
 70
     1
 10
0.0
 20
0.0
 30
0.0
  3
*U12
  1

  0
TEXT
  5
76B
  8
0
  6
CONTINUOUS
 10
-440.44951740838042
 20
226.6886194467383
 30
0.0
 40
10.0
  1
Secure custom orb roofing
  7
CORB-14_BARGE_OUTRIGGER$0$
  0
TEXT
  5
76C
  8
0
  6
CONTINUOUS
 10
-383.82605219692061
 20
209.8514207200443
 30
0.0
 40
10.0
  1
well against uplift
  7
CORB-14_BARGE_OUTRIGGER$0$
  0
ENDBLK
  5
76E
  8
0
  0
BLOCK
  8
0
  2
*U13
 70
     1
 10
0.0
 20
0.0
 30
0.0
  3
*U13
  1

  0
SOLID
  5
7C2
  8
0
  6
CONTINUOUS
 10
9.8440713882494464
 20
147.0898888911554
 30
0.0
 11
6.8634957635004517
 21
137.40000000000029
 31
0.0
 12
6.540292524915432
 22
147.53278428884931
 32
0.0
 13
6.540292524915432
 23
147.53278428884931
 33
0.0
  0
POLYLINE
  5
7C3
  8
0
  6
CONTINUOUS
 66
     1
 10
0.0
 20
0.0
 30
0.0
  0
VERTEX
  5
7C4
  8
0
  6
CONTINUOUS
 10
8.1921819565824396
 20
147.31133659000241
 30
0.0
  0
VERTEX
  5
7C5
  8
0
  6
CONTINUOUS
 10
17.661910779986101
 20
217.9507925228497
 30
0.0
  0
VERTEX
  5
7C6
  8
0
  6
CONTINUOUS
 10
27.661910779986101
 20
217.9507925228497
 30
0.0
  0
SEQEND
  5
7C7
  8
0
  6
CONTINUOUS
  0
ENDBLK
  5
7C9
  8
0
  0
BLOCK
  8
0
  2
*U14
 70
     1
 10
0.0
 20
0.0
 30
0.0
  3
*U14
  1

  0
TEXT
  5
7CB
  8
0
  6
CONTINUOUS
 10
32.034352799085703
 20
214.33210220907071
 30
0.0
 40
10.0
  1
Steel & Tube Custom Orb profile roofing
  7
CORB-14_BARGE_OUTRIGGER$0$
  0
ENDBLK
  5
7CD
  8
0
  0
ENDSEC
  0
SECTION
  2
ENTITIES
  0
POLYLINE
  5
607
  8
0
  6
CONTINUOUS
 66
     1
 10
0.0
 20
0.0
 30
0.0
 70
   128
1001
GENIUS_GENREC_14
1002
{
1000
PYDIR
1011
-300.0
1021
0.0
1031
0.0
1021
100.0
1031
0.0
1002
}
1002
{
1000
PXDIR
1011
200.0
1021
0.0
1031
0.0
1021
0.0
1031
0.0
1002
}
1002
{
1000
PORI
1011
-300.0
1021
0.0
1031
0.0
1021
0.0
1031
0.0
1002
}
1002
{
1000
PINS
1011
-300.0
1021
0.0
1031
0.0
1021
0.0
1031
0.0
1002
}
1002
{
1000
PINS2
1011
200.0
1021
0.0
1031
0.0
1021
100.0
1031
0.0
1002
}
1002
{
1000
C
1070
     1
1002
}
1001
GENIUS_GENODEF_13
1002
{
1000
HIER
1070
     0
1002
}
1002
{
1000
MANEDIT
1070
     0
1002
}
1002
{
1000
NOSEL
1070
     0
1002
}
1002
{
1000
BEHIND
1070
     0
1002
}
1002
{
1000
OTHER
1070
     0
1002
}
1002
{
1000
REACTOR
1002
}
1001
GENIUS_GENOBJ-N-REC_13
1002
{
1000
OWNER
1000
GEN
1002
}
  0
VERTEX
  5
72D
  8
0
  6
CONTINUOUS
 10
-290.0
 20
0.0
 30
0.0
  0
VERTEX
  5
72E
  8
0
  6
CONTINUOUS
 10
0.0
 20
0.0
 30
0.0
  0
VERTEX
  5
72F
  8
0
  6
CONTINUOUS
 10
200.0
 20
50.0
 30
0.0
  0
VERTEX
  5
730
  8
0
  6
CONTINUOUS
 10
200.0
 20
100.0
 30
0.0
  0
VERTEX
  5
731
  8
0
  6
CONTINUOUS
 10
-290.0
 20
100.0
 30
0.0
  0
SEQEND
  5
732
  8
0
  6
CONTINUOUS
  0
POLYLINE
  5
608
  8
0
  6
CORB-14_BARGE_OUTRIGGER$0$
 66
     1
 10
0.0
 20
0.0
 30
0.0
 70
   128
  0
VERTEX
  5
733
  8
0
  6
CORB-14_BARGE_OUTRIGGER$0$
 10
-290.0
 20
-10.0
 30
0.0
  0
VERTEX
  5
734
  8
0
  6
CORB-14_BARGE_OUTRIGGER$0$
 10
-290.0
 20
55.0
 30
0.0
  0
VERTEX
  5
735
  8
0
  6
CORB-14_BARGE_OUTRIGGER$0$
 10
-283.13130645135971
 20
57.5
 30
0.0
  0
VERTEX
  5
736
  8
0
  6
CORB-14_BARGE_OUTRIGGER$0$
 10
-296.86869354864029
 20
62.5
 30
0.0
  0
VERTEX
  5
737
  8
0
  6
CORB-14_BARGE_OUTRIGGER$0$
 10
-290.0
 20
65.0
 30
0.0
  0
VERTEX
  5
738
  8
0
  6
CORB-14_BARGE_OUTRIGGER$0$
 10
-290.0
 20
156.03586318076319
 30
0.0
  0
SEQEND
  5
739
  8
0
  6
CORB-14_BARGE_OUTRIGGER$0$
  0
INSERT
  5
609
  8
0
  6
CONTINUOUS
  2
*U5
 10
0.0
 20
0.0
 30
0.0
1001
ACAD
1000
DSTYLE
1002
{
1070
    40
1040
5.0
1070
   176
1070
   256
1070
    77
1070
     0
1070
   147
1040
1.0
1070
   342
1005
0
1002
}
  0
INSERT
  5
60A
  8
0
  6
CONTINUOUS
  2
*U6
 10
0.0
 20
0.0
 30
0.0
  0
INSERT
  5
60B
  8
0
  6
CONTINUOUS
  2
*U7
 10
0.0
 20
0.0
 30
0.0
1001
ACAD
1000
DSTYLE
1002
{
1070
    40
1040
5.0
1070
   176
1070
   256
1070
    77
1070
     0
1070
   147
1040
1.0
1070
   342
1005
0
1002
}
  0
INSERT
  5
60C
  8
0
  6
CONTINUOUS
  2
*U8
 10
0.0
 20
0.0
 30
0.0
  0
INSERT
  5
60D
  8
0
  6
CONTINUOUS
  2
*U9
 10
0.0
 20
0.0
 30
0.0
1001
ACAD
1000
DSTYLE
1002
{
1070
    40
1040
5.0
1070
   176
1070
   256
1070
    77
1070
     0
1070
   147
1040
1.0
1070
   342
1005
0
1002
}
  0
INSERT
  5
60E
  8
0
  6
CONTINUOUS
  2
*U10
 10
0.0
 20
0.0
 30
0.0
  0
INSERT
  5
60F
  8
0
  6
CONTINUOUS
  2
*U11
 10
0.0
 20
0.0
 30
0.0
1001
ACAD
1000
DSTYLE
1002
{
1070
    40
1040
5.0
1070
   176
1070
   256
1070
    77
1070
     0
1070
   147
1040
1.0
1070
   342
1005
0
1002
}
  0
INSERT
  5
610
  8
0
  6
CONTINUOUS
  2
*U12
 10
0.0
 20
0.0
 30
0.0
  0
POLYLINE
  5
611
  8
0
  6
CONTINUOUS
 66
     1
 10
0.0
 20
0.0
 30
0.0
  0
VERTEX
  5
76F
  8
0
  6
CONTINUOUS
 10
-290.0
 20
135.40978433607441
 30
0.0
 42
-0.0481286085857546
  0
VERTEX
  5
770
  8
0
  6
CONTINUOUS
 10
-286.51206716489099
 20
133.5418271370595
 30
0.0
  0
VERTEX
  5
771
  8
0
  6
CONTINUOUS
 10
-271.48277503765712
 20
123.52532185057041
 30
0.0
 42
0.3026996289851631
  0
VERTEX
  5
772
  8
0
  6
CONTINUOUS
 10
-248.19023343534349
 20
123.52532185057041
 30
0.0
  0
VERTEX
  5
773
  8
0
  6
CONTINUOUS
 10
-233.16094130810961
 20
133.5418271370595
 30
0.0
 42
-0.3026996289851622
  0
VERTEX
  5
774
  8
0
  6
CONTINUOUS
 10
-210.31206716489029
 20
133.5418271370595
 30
0.0
  0
VERTEX
  5
775
  8
0
  6
CONTINUOUS
 10
-195.28277503765631
 20
123.52532185057041
 30
0.0
 42
0.3026996289851618
  0
VERTEX
  5
776
  8
0
  6
CONTINUOUS
 10
-171.99023343534279
 20
123.52532185057041
 30
0.0
  0
VERTEX
  5
777
  8
0
  6
CONTINUOUS
 10
-156.96094130810889
 20
133.5418271370595
 30
0.0
 42
-0.3026996289851622
  0
VERTEX
  5
778
  8
0
  6
CONTINUOUS
 10
-134.1120671648896
 20
133.5418271370595
 30
0.0
  0
VERTEX
  5
779
  8
0
  6
CONTINUOUS
 10
-119.08277503765559
 20
123.52532185057041
 30
0.0
 42
0.3026996289851631
  0
VERTEX
  5
77A
  8
0
  6
CONTINUOUS
 10
-95.790233435342074
 20
123.52532185057041
 30
0.0
  0
VERTEX
  5
77B
  8
0
  6
CONTINUOUS
 10
-80.760941308108144
 20
133.5418271370595
 30
0.0
 42
-0.3026996289851622
  0
VERTEX
  5
77C
  8
0
  6
CONTINUOUS
 10
-57.91206716488886
 20
133.5418271370595
 30
0.0
  0
VERTEX
  5
77D
  8
0
  6
CONTINUOUS
 10
-42.882775037654937
 20
123.52532185057041
 30
0.0
 42
0.3026996289851626
  0
VERTEX
  5
77E
  8
0
  6
CONTINUOUS
 10
-19.590233435344999
 20
123.52532185057041
 30
0.0
  0
VERTEX
  5
77F
  8
0
  6
CONTINUOUS
 10
-4.5609413081110679
 20
133.5418271370595
 30
0.0
 42
-0.3026996289851622
  0
VERTEX
  5
780
  8
0
  6
CONTINUOUS
 10
18.28793283511186
 20
133.5418271370595
 30
0.0
  0
VERTEX
  5
781
  8
0
  6
CONTINUOUS
 10
33.31722496234579
 20
123.52532185057041
 30
0.0
 42
0.3026996289851623
  0
VERTEX
  5
782
  8
0
  6
CONTINUOUS
 10
56.609766564655729
 20
123.52532185057041
 30
0.0
  0
VERTEX
  5
783
  8
0
  6
CONTINUOUS
 10
71.639058691889645
 20
133.5418271370595
 30
0.0
 42
-0.3026996289851622
  0
VERTEX
  5
784
  8
0
  6
CONTINUOUS
 10
94.487932835108936
 20
133.5418271370595
 30
0.0
  0
VERTEX
  5
785
  8
0
  6
CONTINUOUS
 10
109.51722496234289
 20
123.52532185057041
 30
0.0
 42
0.302699628985162
  0
VERTEX
  5
786
  8
0
  6
CONTINUOUS
 10
132.8097665646564
 20
123.52532185057041
 30
0.0
  0
VERTEX
  5
787
  8
0
  6
CONTINUOUS
 10
147.8390586918903
 20
133.5418271370595
 30
0.0
 42
-0.3026996289851622
  0
VERTEX
  5
788
  8
0
  6
CONTINUOUS
 10
170.68793283510971
 20
133.5418271370595
 30
0.0
  0
VERTEX
  5
789
  8
0
  6
CONTINUOUS
 10
185.71722496234361
 20
123.52532185057041
 30
0.0
 42
0.1776678190283279
  0
VERTEX
  5
78A
  8
0
  6
CONTINUOUS
 10
199.78295541569241
 20
120.1398414437601
 30
0.0
 42
0.1776678190283279
  0
SEQEND
  5
78B
  8
0
  6
CONTINUOUS
  0
LINE
  5
612
  8
0
  6
CONTINUOUS
 10
-73.836504236500332
 20
147.39999999999921
 30
0.0
 11
-76.336504236500332
 21
146.9000000000014
 31
0.0
  0
LINE
  5
613
  8
0
  6
CONTINUOUS
 10
-64.83650423650397
 20
147.400000000001
 30
0.0
 11
-73.836504236496694
 21
147.400000000001
 31
0.0
  0
LINE
  5
614
  8
0
  6
CONTINUOUS
 10
-71.586504236500332
 20
147.400000000001
 30
0.0
 11
-71.586504236500332
 21
151.07857142857301
 31
0.0
  0
LINE
  5
615
  8
0
  6
CONTINUOUS
 10
-67.086504236503956
 20
147.400000000001
 30
0.0
 11
-67.086504236500332
 21
151.07857142857301
 31
0.0
  0
LINE
  5
616
  8
0
  6
CONTINUOUS
 10
-64.83650423650397
 20
147.400000000001
 30
0.0
 11
-64.83650423650397
 21
151.07857142857301
 31
0.0
  0
LINE
  5
617
  8
0
  6
CONTINUOUS
 10
-73.836504236496694
 20
147.400000000001
 30
0.0
 11
-73.836504236500332
 21
151.07857142857301
 31
0.0
  0
LINE
  5
618
  8
0
  6
CONTINUOUS
 10
-62.336504236500332
 20
145.40000000000171
 30
0.0
 11
-76.336504236500332
 21
145.40000000000191
 31
0.0
  0
ARC
  5
619
  8
0
  6
CONTINUOUS
 10
-69.33650423650397
 20
143.36428571428789
 30
0.0
 40
8.0357142857142811
 50
73.739795291759961
 51
106.26020470824
  0
ARC
  5
61A
  8
0
  6
CONTINUOUS
 10
-72.711504236500332
 20
149.27053571428809
 30
0.0
 40
2.1294642857139432
 50
58.10920819816608
 51
121.8907918018339
  0
ARC
  5
61B
  8
0
  6
CONTINUOUS
 10
-65.961504236500332
 20
149.27053571428809
 30
0.0
 40
2.1294642857139432
 50
58.10920819816608
 51
121.8907918018339
  0
LINE
  5
61C
  8
0
  6
CONTINUOUS
 10
-72.711504236500332
 20
151.40000000000171
 30
0.0
 11
-65.961504236500332
 21
151.4000000000014
 31
0.0
  0
LINE
  5
61D
  8
0
  6
CONTINUOUS
 10
-62.336504236500332
 20
146.90000000000171
 30
0.0
 11
-64.836504236500332
 21
147.400000000001
 31
0.0
  0
LINE
  5
61E
  8
0
  6
CONTINUOUS
 10
-76.336504236500332
 20
145.40000000000191
 30
0.0
 11
-76.336504236500332
 21
146.9000000000014
 31
0.0
  0
LINE
  5
61F
  8
0
  6
CONTINUOUS
 10
-62.336504236500332
 20
145.40000000000171
 30
0.0
 11
-62.336504236500332
 21
146.90000000000171
 31
0.0
  0
LINE
  5
620
  8
0
  6
CONTINUOUS
 10
-71.886504236503242
 20
126.9104181609857
 30
0.0
 11
-66.786504236501059
 21
129.60636094157871
 31
0.0
  0
LINE
  5
621
  8
0
  6
CONTINUOUS
 10
-71.886504236503242
 20
122.0873326972264
 30
0.0
 11
-66.786504236501059
 21
124.7832754778194
 31
0.0
  0
LINE
  5
622
  8
0
  6
CONTINUOUS
 10
-71.886504236503242
 20
117.2642472334667
 30
0.0
 11
-66.786504236501059
 21
119.9601900140599
 31
0.0
  0
LINE
  5
623
  8
0
  6
CONTINUOUS
 10
-71.886504236503242
 20
112.44116176970731
 30
0.0
 11
-66.786504236501059
 21
115.13710455030009
 31
0.0
  0
LINE
  5
624
  8
0
  6
CONTINUOUS
 10
-71.886504236503242
 20
107.618076305949
 30
0.0
 11
-66.786504236501059
 21
110.3140190865406
 31
0.0
  0
LINE
  5
625
  8
0
  6
CONTINUOUS
 10
-71.886504236503242
 20
102.7949908421881
 30
0.0
 11
-66.786504236501059
 21
105.4909336227813
 31
0.0
  0
LINE
  5
626
  8
0
  6
CONTINUOUS
 10
-71.886504236503242
 20
97.971905378428346
 30
0.0
 11
-66.786504236501059
 21
100.6678481590215
 31
0.0
  0
LINE
  5
627
  8
0
  6
CONTINUOUS
 10
-71.886504236503242
 20
93.148819914668806
 30
0.0
 11
-66.786504236501059
 21
95.844762695262943
 31
0.0
  0
LINE
  5
628
  8
0
  6
CONTINUOUS
 10
-71.886504236503242
 20
88.325734450910659
 30
0.0
 11
-66.786504236501059
 21
91.021677231502494
 31
0.0
  0
LINE
  5
629
  8
0
  6
CONTINUOUS
 10
-67.086504236500332
 20
142.40000000000171
 30
0.0
 11
-67.086504236500332
 21
130.40000000000171
 31
0.0
  0
LINE
  5
62A
  8
0
  6
CONTINUOUS
 10
-71.586504236500332
 20
142.40000000000171
 30
0.0
 11
-71.586504236500332
 21
130.40000000000191
 31
0.0
  0
LINE
  5
62B
  8
0
  6
CONTINUOUS
 10
-69.336504236500332
 20
79.497396909796393
 30
0.0
 11
-71.886504236503242
 21
84.997396909797317
 31
0.0
  0
LINE
  5
62C
  8
0
  6
CONTINUOUS
 10
-69.336504236500332
 20
79.497396909796393
 30
0.0
 11
-66.786504236501059
 21
84.997396909799136
 31
0.0
  0
LINE
  5
62D
  8
0
  6
CONTINUOUS
 10
-62.336504236500332
 20
146.90000000000171
 30
0.0
 11
-76.336504236500332
 21
146.90000000000191
 31
0.0
  0
LINE
  5
62E
  8
0
  6
CONTINUOUS
 10
-71.886504236503242
 20
130.40000000000211
 30
0.0
 11
-71.886504236503242
 21
84.997396909797317
 31
0.0
  0
LINE
  5
62F
  8
0
  6
CONTINUOUS
 10
-66.786504236501059
 20
130.40000000000171
 30
0.0
 11
-66.786504236501059
 21
84.997396909799136
 31
0.0
  0
LINE
  5
630
  8
0
  6
CONTINUOUS
 10
-63.836504236500332
 20
142.40000000000191
 30
0.0
 11
-74.836504236500332
 21
142.40000000000191
 31
0.0
  0
LINE
  5
631
  8
0
  6
CONTINUOUS
 10
-63.836504236500332
 20
145.40000000000171
 30
0.0
 11
-63.836504236500332
 21
142.40000000000191
 31
0.0
  0
LINE
  5
632
  8
0
  6
CONTINUOUS
 10
-74.836504236500332
 20
145.40000000000171
 30
0.0
 11
-74.836504236500332
 21
142.40000000000191
 31
0.0
  0
LINE
  5
633
  8
0
  6
CONTINUOUS
 10
-66.786504236501059
 20
130.40000000000171
 30
0.0
 11
-71.886504236503242
 21
130.40000000000211
 31
0.0
  0
LINE
  5
634
  8
0
  6
CONTINUOUS
 10
-71.329900392018317
 20
83.796878813854619
 30
0.0
 11
-66.786504236501059
 21
86.198591767744347
 31
0.0
  0
SOLID
  5
635
  8
0
  6
CONTINUOUS
 10
-63.836504236500332
 20
142.40000000000191
 30
0.0
 11
-63.836504236500332
 21
145.40000000000171
 31
0.0
 12
-74.836504236500332
 22
142.40000000000191
 32
0.0
 13
-74.836504236500332
 23
145.40000000000171
 33
0.0
  0
LINE
  5
636
  8
0
  6
CONTINUOUS
 10
-226.23650423650179
 20
147.39999999999921
 30
0.0
 11
-228.73650423650179
 21
146.9000000000014
 31
0.0
  0
LINE
  5
637
  8
0
  6
CONTINUOUS
 10
-217.2365042365054
 20
147.400000000001
 30
0.0
 11
-226.23650423649821
 21
147.400000000001
 31
0.0
  0
LINE
  5
638
  8
0
  6
CONTINUOUS
 10
-223.98650423650179
 20
147.400000000001
 30
0.0
 11
-223.98650423650179
 21
151.07857142857301
 31
0.0
  0
LINE
  5
639
  8
0
  6
CONTINUOUS
 10
-219.4865042365054
 20
147.400000000001
 30
0.0
 11
-219.48650423650179
 21
151.07857142857301
 31
0.0
  0
LINE
  5
63A
  8
0
  6
CONTINUOUS
 10
-217.2365042365054
 20
147.400000000001
 30
0.0
 11
-217.2365042365054
 21
151.07857142857301
 31
0.0
  0
LINE
  5
63B
  8
0
  6
CONTINUOUS
 10
-226.23650423649821
 20
147.400000000001
 30
0.0
 11
-226.23650423650179
 21
151.07857142857301
 31
0.0
  0
LINE
  5
63C
  8
0
  6
CONTINUOUS
 10
-214.73650423650179
 20
145.40000000000171
 30
0.0
 11
-228.73650423650179
 21
145.40000000000191
 31
0.0
  0
ARC
  5
63D
  8
0
  6
CONTINUOUS
 10
-221.7365042365054
 20
143.36428571428789
 30
0.0
 40
8.0357142857142811
 50
73.739795291759961
 51
106.26020470824
  0
ARC
  5
63E
  8
0
  6
CONTINUOUS
 10
-225.11150423650179
 20
149.27053571428809
 30
0.0
 40
2.1294642857139432
 50
58.10920819816608
 51
121.8907918018339
  0
ARC
  5
63F
  8
0
  6
CONTINUOUS
 10
-218.36150423650179
 20
149.27053571428809
 30
0.0
 40
2.1294642857139432
 50
58.10920819816608
 51
121.8907918018339
  0
LINE
  5
640
  8
0
  6
CONTINUOUS
 10
-225.11150423650179
 20
151.40000000000171
 30
0.0
 11
-218.36150423650179
 21
151.4000000000014
 31
0.0
  0
LINE
  5
641
  8
0
  6
CONTINUOUS
 10
-214.73650423650179
 20
146.90000000000171
 30
0.0
 11
-217.23650423650179
 21
147.400000000001
 31
0.0
  0
LINE
  5
642
  8
0
  6
CONTINUOUS
 10
-228.73650423650179
 20
145.40000000000191
 30
0.0
 11
-228.73650423650179
 21
146.9000000000014
 31
0.0
  0
LINE
  5
643
  8
0
  6
CONTINUOUS
 10
-214.73650423650179
 20
145.40000000000171
 30
0.0
 11
-214.73650423650179
 21
146.90000000000171
 31
0.0
  0
LINE
  5
644
  8
0
  6
CONTINUOUS
 10
-224.2865042365047
 20
126.9104181609857
 30
0.0
 11
-219.18650423650249
 21
129.60636094157871
 31
0.0
  0
LINE
  5
645
  8
0
  6
CONTINUOUS
 10
-224.2865042365047
 20
122.0873326972264
 30
0.0
 11
-219.18650423650249
 21
124.7832754778194
 31
0.0
  0
LINE
  5
646
  8
0
  6
CONTINUOUS
 10
-224.2865042365047
 20
117.2642472334667
 30
0.0
 11
-219.18650423650249
 21
119.9601900140599
 31
0.0
  0
LINE
  5
647
  8
0
  6
CONTINUOUS
 10
-224.2865042365047
 20
112.44116176970731
 30
0.0
 11
-219.18650423650249
 21
115.13710455030009
 31
0.0
  0
LINE
  5
648
  8
0
  6
CONTINUOUS
 10
-224.2865042365047
 20
107.618076305949
 30
0.0
 11
-219.18650423650249
 21
110.3140190865406
 31
0.0
  0
LINE
  5
649
  8
0
  6
CONTINUOUS
 10
-224.2865042365047
 20
102.7949908421881
 30
0.0
 11
-219.18650423650249
 21
105.4909336227813
 31
0.0
  0
LINE
  5
64A
  8
0
  6
CONTINUOUS
 10
-224.2865042365047
 20
97.971905378428346
 30
0.0
 11
-219.18650423650249
 21
100.6678481590215
 31
0.0
  0
LINE
  5
64B
  8
0
  6
CONTINUOUS
 10
-224.2865042365047
 20
93.148819914668806
 30
0.0
 11
-219.18650423650249
 21
95.844762695262943
 31
0.0
  0
LINE
  5
64C
  8
0
  6
CONTINUOUS
 10
-224.2865042365047
 20
88.325734450910659
 30
0.0
 11
-219.18650423650249
 21
91.021677231502494
 31
0.0
  0
LINE
  5
64D
  8
0
  6
CONTINUOUS
 10
-219.48650423650179
 20
142.40000000000171
 30
0.0
 11
-219.48650423650179
 21
130.40000000000171
 31
0.0
  0
LINE
  5
64E
  8
0
  6
CONTINUOUS
 10
-223.98650423650179
 20
142.40000000000171
 30
0.0
 11
-223.98650423650179
 21
130.40000000000191
 31
0.0
  0
LINE
  5
64F
  8
0
  6
CONTINUOUS
 10
-221.73650423650179
 20
79.497396909796393
 30
0.0
 11
-224.2865042365047
 21
84.997396909797317
 31
0.0
  0
LINE
  5
650
  8
0
  6
CONTINUOUS
 10
-221.73650423650179
 20
79.497396909796393
 30
0.0
 11
-219.18650423650249
 21
84.997396909799136
 31
0.0
  0
LINE
  5
651
  8
0
  6
CONTINUOUS
 10
-214.73650423650179
 20
146.90000000000171
 30
0.0
 11
-228.73650423650179
 21
146.90000000000191
 31
0.0
  0
LINE
  5
652
  8
0
  6
CONTINUOUS
 10
-224.2865042365047
 20
130.40000000000211
 30
0.0
 11
-224.2865042365047
 21
84.997396909797317
 31
0.0
  0
LINE
  5
653
  8
0
  6
CONTINUOUS
 10
-219.18650423650249
 20
130.40000000000171
 30
0.0
 11
-219.18650423650249
 21
84.997396909799136
 31
0.0
  0
LINE
  5
654
  8
0
  6
CONTINUOUS
 10
-216.23650423650179
 20
142.40000000000191
 30
0.0
 11
-227.23650423650179
 21
142.40000000000191
 31
0.0
  0
LINE
  5
655
  8
0
  6
CONTINUOUS
 10
-216.23650423650179
 20
145.40000000000171
 30
0.0
 11
-216.23650423650179
 21
142.40000000000191
 31
0.0
  0
LINE
  5
656
  8
0
  6
CONTINUOUS
 10
-227.23650423650179
 20
145.40000000000171
 30
0.0
 11
-227.23650423650179
 21
142.40000000000191
 31
0.0
  0
LINE
  5
657
  8
0
  6
CONTINUOUS
 10
-219.18650423650249
 20
130.40000000000171
 30
0.0
 11
-224.2865042365047
 21
130.40000000000211
 31
0.0
  0
LINE
  5
658
  8
0
  6
CONTINUOUS
 10
-223.7299003920198
 20
83.796878813854619
 30
0.0
 11
-219.18650423650249
 21
86.198591767744347
 31
0.0
  0
SOLID
  5
659
  8
0
  6
CONTINUOUS
 10
-216.23650423650179
 20
142.40000000000191
 30
0.0
 11
-216.23650423650179
 21
145.40000000000171
 31
0.0
 12
-227.23650423650179
 22
142.40000000000191
 32
0.0
 13
-227.23650423650179
 23
145.40000000000171
 33
0.0
  0
POLYLINE
  5
65A
  8
0
  6
CONTINUOUS
 66
     1
 10
0.0
 20
0.0
 30
0.0
  0
VERTEX
  5
78C
  8
0
  6
CONTINUOUS
 10
199.78295541569241
 20
120.5425755533244
 30
0.0
 42
-0.1782487588058396
  0
VERTEX
  5
78D
  8
0
  6
CONTINUOUS
 10
185.9390586918889
 20
123.85817286294061
 30
0.0
  0
VERTEX
  5
78E
  8
0
  6
CONTINUOUS
 10
170.909766564655
 20
133.8746781494292
 30
0.0
 42
0.30269962898516
  0
VERTEX
  5
78F
  8
0
  6
CONTINUOUS
 10
147.61722496234501
 20
133.8746781494296
 30
0.0
  0
VERTEX
  5
790
  8
0
  6
CONTINUOUS
 10
132.5879328351111
 20
123.85817286294061
 30
0.0
 42
-0.3026996289851599
  0
VERTEX
  5
791
  8
0
  6
CONTINUOUS
 10
109.7390586918918
 20
123.85817286294061
 30
0.0
  0
VERTEX
  5
792
  8
0
  6
CONTINUOUS
 10
94.709766564657926
 20
133.8746781494292
 30
0.0
 42
0.3026996289851592
  0
VERTEX
  5
793
  8
0
  6
CONTINUOUS
 10
71.417224962344335
 20
133.8746781494296
 30
0.0
  0
VERTEX
  5
794
  8
0
  6
CONTINUOUS
 10
56.387932835110412
 20
123.85817286294061
 30
0.0
 42
-0.302699628985159
  0
VERTEX
  5
795
  8
0
  6
CONTINUOUS
 10
33.539058691891107
 20
123.85817286294061
 30
0.0
  0
VERTEX
  5
796
  8
0
  6
CONTINUOUS
 10
18.509766564657181
 20
133.8746781494292
 30
0.0
 42
0.3026996289851651
  0
VERTEX
  5
797
  8
0
  6
CONTINUOUS
 10
-4.7827750376563918
 20
133.8746781494296
 30
0.0
  0
VERTEX
  5
798
  8
0
  6
CONTINUOUS
 10
-19.812067164890319
 20
123.85817286294061
 30
0.0
 42
-0.3026996289851599
  0
VERTEX
  5
799
  8
0
  6
CONTINUOUS
 10
-42.660941308109606
 20
123.85817286294061
 30
0.0
  0
VERTEX
  5
79A
  8
0
  6
CONTINUOUS
 10
-57.690233435343544
 20
133.8746781494292
 30
0.0
 42
0.3026996289851595
  0
VERTEX
  5
79B
  8
0
  6
CONTINUOUS
 10
-80.982775037657134
 20
133.8746781494296
 30
0.0
  0
VERTEX
  5
79C
  8
0
  6
CONTINUOUS
 10
-96.01206716489105
 20
123.85817286294061
 30
0.0
 42
-0.3026996289851599
  0
VERTEX
  5
79D
  8
0
  6
CONTINUOUS
 10
-118.8609413081103
 20
123.85817286294061
 30
0.0
  0
VERTEX
  5
79E
  8
0
  6
CONTINUOUS
 10
-133.89023343534419
 20
133.8746781494292
 30
0.0
 42
0.302699628985166
  0
VERTEX
  5
79F
  8
0
  6
CONTINUOUS
 10
-157.18277503765421
 20
133.8746781494296
 30
0.0
  0
VERTEX
  5
7A0
  8
0
  6
CONTINUOUS
 10
-172.21206716488811
 20
123.85817286294061
 30
0.0
 42
-0.3026996289851595
  0
VERTEX
  5
7A1
  8
0
  6
CONTINUOUS
 10
-195.06094130811101
 20
123.85817286294061
 30
0.0
  0
VERTEX
  5
7A2
  8
0
  6
CONTINUOUS
 10
-210.090233435345
 20
133.8746781494292
 30
0.0
 42
0.3026996289851595
  0
VERTEX
  5
7A3
  8
0
  6
CONTINUOUS
 10
-233.38277503765491
 20
133.8746781494296
 30
0.0
  0
VERTEX
  5
7A4
  8
0
  6
CONTINUOUS
 10
-248.4120671648889
 20
123.85817286294061
 30
0.0
 42
-0.3026996289851634
  0
VERTEX
  5
7A5
  8
0
  6
CONTINUOUS
 10
-271.26094130810822
 20
123.85817286294061
 30
0.0
  0
VERTEX
  5
7A6
  8
0
  6
CONTINUOUS
 10
-286.29023343534209
 20
133.8746781494292
 30
0.0
 42
0.0501182052608542
  0
VERTEX
  5
7A7
  8
0
  6
CONTINUOUS
 10
-290.0
 20
135.84252814075421
 30
0.0
  0
SEQEND
  5
7A8
  8
0
  6
CONTINUOUS
  0
POLYLINE
  5
65B
  8
0
  6
CORB-14_BARGE_OUTRIGGER$00
 66
     1
 10
0.0
 20
0.0
 30
0.0
 70
   128
  0
VERTEX
  5
7A9
  8
0
  6
CORB-14_BARGE_OUTRIGGER$00
 10
199.78295541569241
 20
115.0
 30
0.0
  0
VERTEX
  5
7AA
  8
0
  6
CORB-14_BARGE_OUTRIGGER$00
 10
130.0
 20
115.0
 30
0.0
  0
VERTEX
  5
7AB
  8
0
  6
CORB-14_BARGE_OUTRIGGER$00
 10
80.0
 20
115.0
 30
0.0
  0
VERTEX
  5
7AC
  8
0
  6
CORB-14_BARGE_OUTRIGGER$00
 10
-290.0
 20
115.0
 30
0.0
  0
SEQEND
  5
7AD
  8
0
  6
CORB-14_BARGE_OUTRIGGER$00
  0
LINE
  5
65C
  8
0
  6
CONTINUOUS
 10
78.563495763497485
 20
147.400000000006
 30
0.0
 11
76.063495763497485
 21
146.90000000000819
 31
0.0
  0
LINE
  5
65D
  8
0
  6
CONTINUOUS
 10
87.563495763497485
 20
147.40000000000779
 30
0.0
 11
78.563495763497485
 21
147.40000000000779
 31
0.0
  0
LINE
  5
65E
  8
0
  6
CONTINUOUS
 10
80.813495763497485
 20
147.40000000000779
 30
0.0
 11
80.813495763497485
 21
151.07857142857981
 31
0.0
  0
LINE
  5
65F
  8
0
  6
CONTINUOUS
 10
85.313495763493833
 20
147.40000000000779
 30
0.0
 11
85.313495763497485
 21
151.07857142857981
 31
0.0
  0
LINE
  5
660
  8
0
  6
CONTINUOUS
 10
87.563495763497485
 20
147.40000000000779
 30
0.0
 11
87.563495763497485
 21
151.07857142857981
 31
0.0
  0
LINE
  5
661
  8
0
  6
CONTINUOUS
 10
78.563495763497485
 20
147.40000000000779
 30
0.0
 11
78.563495763497485
 21
151.07857142857981
 31
0.0
  0
LINE
  5
662
  8
0
  6
CONTINUOUS
 10
90.063495763497485
 20
145.4000000000085
 30
0.0
 11
76.063495763497485
 21
145.4000000000087
 31
0.0
  0
ARC
  5
663
  8
0
  6
CONTINUOUS
 10
83.063495763493847
 20
143.36428571429471
 30
0.0
 40
8.0357142857142811
 50
73.739795291759961
 51
106.26020470824
  0
ARC
  5
664
  8
0
  6
CONTINUOUS
 10
79.688495763497485
 20
149.27053571429491
 30
0.0
 40
2.1294642857139432
 50
58.10920819816608
 51
121.8907918018339
  0
ARC
  5
665
  8
0
  6
CONTINUOUS
 10
86.438495763497485
 20
149.27053571429491
 30
0.0
 40
2.1294642857139432
 50
58.10920819816608
 51
121.8907918018339
  0
LINE
  5
666
  8
0
  6
CONTINUOUS
 10
79.688495763497485
 20
151.4000000000085
 30
0.0
 11
86.438495763497485
 21
151.4000000000083
 31
0.0
  0
LINE
  5
667
  8
0
  6
CONTINUOUS
 10
90.063495763497485
 20
146.9000000000085
 30
0.0
 11
87.563495763497485
 21
147.40000000000779
 31
0.0
  0
LINE
  5
668
  8
0
  6
CONTINUOUS
 10
76.063495763497485
 20
145.4000000000087
 30
0.0
 11
76.063495763497485
 21
146.90000000000819
 31
0.0
  0
LINE
  5
669
  8
0
  6
CONTINUOUS
 10
90.063495763497485
 20
145.4000000000085
 30
0.0
 11
90.063495763497485
 21
146.9000000000085
 31
0.0
  0
LINE
  5
66A
  8
0
  6
CONTINUOUS
 10
80.513495763494575
 20
126.91041816099251
 30
0.0
 11
85.613495763496744
 21
129.60636094158551
 31
0.0
  0
LINE
  5
66B
  8
0
  6
CONTINUOUS
 10
80.513495763494575
 20
122.08733269723319
 30
0.0
 11
85.613495763496744
 21
124.78327547782619
 31
0.0
  0
LINE
  5
66C
  8
0
  6
CONTINUOUS
 10
80.513495763494575
 20
117.2642472334735
 30
0.0
 11
85.613495763496744
 21
119.9601900140667
 31
0.0
  0
LINE
  5
66D
  8
0
  6
CONTINUOUS
 10
80.513495763494575
 20
112.4411617697142
 30
0.0
 11
85.613495763496744
 21
115.1371045503069
 31
0.0
  0
LINE
  5
66E
  8
0
  6
CONTINUOUS
 10
80.513495763494575
 20
107.6180763059558
 30
0.0
 11
85.613495763496744
 21
110.3140190865474
 31
0.0
  0
LINE
  5
66F
  8
0
  6
CONTINUOUS
 10
80.513495763494575
 20
102.79499084219491
 30
0.0
 11
85.613495763496744
 21
105.49093362278811
 31
0.0
  0
LINE
  5
670
  8
0
  6
CONTINUOUS
 10
80.513495763494575
 20
97.971905378435622
 30
0.0
 11
85.613495763496744
 21
100.6678481590284
 31
0.0
  0
LINE
  5
671
  8
0
  6
CONTINUOUS
 10
80.513495763494575
 20
93.148819914676096
 30
0.0
 11
85.613495763496744
 21
95.844762695269296
 31
0.0
  0
LINE
  5
672
  8
0
  6
CONTINUOUS
 10
80.513495763494575
 20
88.32573445091748
 30
0.0
 11
85.613495763496744
 21
91.021677231509784
 31
0.0
  0
LINE
  5
673
  8
0
  6
CONTINUOUS
 10
85.313495763497485
 20
142.4000000000085
 30
0.0
 11
85.313495763497485
 21
130.4000000000085
 31
0.0
  0
LINE
  5
674
  8
0
  6
CONTINUOUS
 10
80.813495763497485
 20
142.4000000000085
 30
0.0
 11
80.813495763497485
 21
130.4000000000087
 31
0.0
  0
LINE
  5
675
  8
0
  6
CONTINUOUS
 10
83.063495763497485
 20
79.497396909803214
 30
0.0
 11
80.513495763494575
 21
84.997396909804138
 31
0.0
  0
LINE
  5
676
  8
0
  6
CONTINUOUS
 10
83.063495763497485
 20
79.497396909803214
 30
0.0
 11
85.613495763496744
 21
84.997396909806412
 31
0.0
  0
LINE
  5
677
  8
0
  6
CONTINUOUS
 10
90.063495763497485
 20
146.9000000000085
 30
0.0
 11
76.063495763497485
 21
146.9000000000087
 31
0.0
  0
LINE
  5
678
  8
0
  6
CONTINUOUS
 10
80.513495763494575
 20
130.4000000000089
 30
0.0
 11
80.513495763494575
 21
84.997396909804138
 31
0.0
  0
LINE
  5
679
  8
0
  6
CONTINUOUS
 10
85.613495763496744
 20
130.4000000000085
 30
0.0
 11
85.613495763496744
 21
84.997396909806412
 31
0.0
  0
LINE
  5
67A
  8
0
  6
CONTINUOUS
 10
88.563495763497485
 20
142.4000000000087
 30
0.0
 11
77.563495763497485
 21
142.4000000000087
 31
0.0
  0
LINE
  5
67B
  8
0
  6
CONTINUOUS
 10
88.563495763497485
 20
145.4000000000085
 30
0.0
 11
88.563495763497485
 21
142.4000000000087
 31
0.0
  0
LINE
  5
67C
  8
0
  6
CONTINUOUS
 10
77.563495763497485
 20
145.4000000000085
 30
0.0
 11
77.563495763497485
 21
142.4000000000087
 31
0.0
  0
LINE
  5
67D
  8
0
  6
CONTINUOUS
 10
85.613495763496744
 20
130.4000000000085
 30
0.0
 11
80.513495763494575
 21
130.4000000000089
 31
0.0
  0
LINE
  5
67E
  8
0
  6
CONTINUOUS
 10
81.070099607979515
 20
83.796878813861454
 30
0.0
 11
85.613495763496744
 21
86.198591767751168
 31
0.0
  0
SOLID
  5
67F
  8
0
  6
CONTINUOUS
 10
88.563495763497485
 20
142.4000000000087
 30
0.0
 11
88.563495763497485
 21
145.4000000000085
 31
0.0
 12
77.563495763497485
 22
142.4000000000087
 32
0.0
 13
77.563495763497485
 23
145.4000000000085
 33
0.0
  0
POLYLINE
  5
680
  8
0
  6
CONTINUOUS
 66
     1
 10
0.0
 20
0.0
 30
0.0
 70
   128
 40
0.5
 41
0.5
  0
VERTEX
  5
7AE
  8
0
  6
CONTINUOUS
 10
209.40097619434891
 20
82.442950840380036
 30
0.0
  0
VERTEX
  5
7AF
  8
0
  6
CONTINUOUS
 10
205.36874185331939
 20
86.475185181408733
 30
0.0
 42
-0.1989123673796835
  0
VERTEX
  5
7B0
  8
0
  6
CONTINUOUS
 10
204.78295541569241
 20
87.889398743781967
 30
0.0
  0
VERTEX
  5
7B1
  8
0
  6
CONTINUOUS
 10
204.78295541569241
 20
138.40000000000711
 30
0.0
 42
0.4142135623730951
  0
VERTEX
  5
7B2
  8
0
  6
CONTINUOUS
 10
202.78295541569241
 20
140.40000000000711
 30
0.0
  0
VERTEX
  5
7B3
  8
0
  6
CONTINUOUS
 10
69.650019949861829
 20
140.40000000000711
 30
0.0
 42
0.198912367379658
  0
VERTEX
  5
7B4
  8
0
  6
CONTINUOUS
 10
68.235806387488736
 20
139.81421356238019
 30
0.0
  0
VERTEX
  5
7B5
  8
0
  6
CONTINUOUS
 10
58.214991107317474
 20
129.7933982822089
 30
0.0
  0
SEQEND
  5
7B6
  8
0
  6
CONTINUOUS
  0
POLYLINE
  5
681
  8
0
  6
CONTINUOUS
 66
     1
 10
0.0
 20
0.0
 30
0.0
 70
   128
  0
VERTEX
  5
7B7
  8
0
  6
CONTINUOUS
 10
199.78295541569241
 20
111.0
 30
0.0
  0
VERTEX
  5
7B8
  8
0
  6
CONTINUOUS
 10
130.0
 20
111.0
 30
0.0
  0
VERTEX
  5
7B9
  8
0
  6
CONTINUOUS
 10
80.0
 20
111.0
 30
0.0
  0
VERTEX
  5
7BA
  8
0
  6
CONTINUOUS
 10
-290.0
 20
111.0
 30
0.0
  0
SEQEND
  5
7BB
  8
0
  6
CONTINUOUS
  0
POLYLINE
  5
682
  8
0
  6
CONTINUOUS
 66
     1
 10
0.0
 20
0.0
 30
0.0
 70
   128
  0
VERTEX
  5
7BC
  8
0
  6
CONTINUOUS
 10
199.78295541569241
 20
104.0
 30
0.0
  0
VERTEX
  5
7BD
  8
0
  6
CONTINUOUS
 10
130.0
 20
104.0
 30
0.0
  0
VERTEX
  5
7BE
  8
0
  6
CONTINUOUS
 10
80.0
 20
104.0
 30
0.0
  0
VERTEX
  5
7BF
  8
0
  6
CONTINUOUS
 10
-290.0
 20
104.0
 30
0.0
  0
SEQEND
  5
7C0
  8
0
  6
CONTINUOUS
  0
LINE
  5
683
  8
0
  6
CONTINUOUS
 10
199.78295541569241
 20
111.0
 30
0.0
 11
199.78295541569241
 21
104.0
 31
0.0
  0
LINE
  5
684
  8
0
 10
192.3145161807829
 20
93.0
 30
0.0
 11
207.3145161807829
 21
93.0
 31
0.0
  0
LINE
  5
685
  8
0
 10
207.3145161807829
 20
89.0
 30
0.0
 11
207.3145161807829
 21
97.0
 31
0.0
  0
INSERT
  5
686
  8
0
  6
CONTINUOUS
  2
*U13
 10
0.0
 20
0.0
 30
0.0
1001
ACAD
1000
DSTYLE
1002
{
1070
    40
1040
5.0
1070
   176
1070
   256
1070
    77
1070
     0
1070
   147
1040
1.0
1070
   342
1005
0
1002
}
  0
INSERT
  5
687
  8
0
  6
CONTINUOUS
  2
*U14
 10
0.0
 20
0.0
 30
0.0
  0
ENDSEC
  0
EOF
