  0
SECTION
  2
HEADER
  9
$ACADVER
  1
AC1009
  9
$INSBASE
 10
0.0
 20
0.0
 30
0.0
  9
$EXTMIN
 10
-282.43534808262439
 20
-338.38325604506298
 30
-0.0015258207003583
  9
$EXTMAX
 10
468.55069906982038
 20
379.630017502047
 30
0.0000000349246037
  9
$LIMMIN
 10
0.0
 20
0.0
  9
$LIMMAX
 10
12.0
 20
9.0
  9
$ORTHOMODE
 70
     0
  9
$REGENMODE
 70
     1
  9
$FILLMODE
 70
     1
  9
$QTEXTMODE
 70
     0
  9
$MIRRTEXT
 70
     0
  9
$DRAGMODE
 70
     2
  9
$LTSCALE
 40
1.0
  9
$OSMODE
 70
     0
  9
$ATTMODE
 70
     1
  9
$TEXTSIZE
 40
35.0
  9
$TRACEWID
 40
0.05
  9
$TEXTSTYLE
  7
ARIAL
  9
$CLAYER
  8
0
  9
$CELTYPE
  6
BYLAYER
  9
$CECOLOR
 62
   256
  9
$DIMSCALE
 40
5.0
  9
$DIMASZ
 40
3.0
  9
$DIMEXO
 40
2.0
  9
$DIMDLI
 40
6.0
  9
$DIMRND
 40
0.0
  9
$DIMDLE
 40
2.0
  9
$DIMEXE
 40
2.0
  9
$DIMTP
 40
0.0
  9
$DIMTM
 40
0.0
  9
$DIMTXT
 40
2.5
  9
$DIMCEN
 40
2.0
  9
$DIMTSZ
 40
0.0
  9
$DIMTOL
 70
     0
  9
$DIMLIM
 70
     0
  9
$DIMTIH
 70
     0
  9
$DIMTOH
 70
     0
  9
$DIMSE1
 70
     0
  9
$DIMSE2
 70
     0
  9
$DIMTAD
 70
     0
  9
$DIMZIN
 70
     0
  9
$DIMBLK
  1

  9
$DIMASO
 70
     1
  9
$DIMSHO
 70
     1
  9
$DIMPOST
  1
mm
  9
$DIMAPOST
  1

  9
$DIMALT
 70
     0
  9
$DIMALTD
 70
     2
  9
$DIMALTF
 40
0.0394
  9
$DIMLFAC
 40
1.0
  9
$DIMTOFL
 70
     0
  9
$DIMTVP
 40
0.0
  9
$DIMTIX
 70
     0
  9
$DIMSOXD
 70
     0
  9
$DIMSAH
 70
     0
  9
$DIMBLK1
  1

  9
$DIMBLK2
  1

  9
$DIMSTYLE
  2
1_TO_5
  9
$DIMCLRD
 70
   256
  9
$DIMCLRE
 70
   256
  9
$DIMCLRT
 70
   256
  9
$DIMTFAC
 40
1.0
  9
$DIMGAP
 40
1.0
  9
$LUNITS
 70
     2
  9
$LUPREC
 70
     1
  9
$SKETCHINC
 40
0.1
  9
$FILLETRAD
 40
0.0
  9
$AUNITS
 70
     1
  9
$AUPREC
 70
     4
  9
$MENU
  1
.
  9
$ELEVATION
 40
0.0
  9
$PELEVATION
 40
0.0
  9
$THICKNESS
 40
0.0
  9
$LIMCHECK
 70
     0
  9
$BLIPMODE
 70
     0
  9
$CHAMFERA
 40
0.0
  9
$CHAMFERB
 40
0.0
  9
$SKPOLY
 70
     0
  9
$TDCREATE
 40
2452152.65359294
  9
$TDUPDATE
 40
2455936.524324791
  9
$TDINDWG
 40
10.2399919907
  9
$TDUSRTIMER
 40
10.2399919907
  9
$USRTIMER
 70
     1
  9
$ANGBASE
 50
0.0
  9
$ANGDIR
 70
     0
  9
$PDMODE
 70
     3
  9
$PDSIZE
 40
0.0
  9
$PLINEWID
 40
0.0
  9
$COORDS
 70
     1
  9
$SPLFRAME
 70
     0
  9
$SPLINETYPE
 70
     6
  9
$SPLINESEGS
 70
     8
  9
$ATTDIA
 70
     0
  9
$ATTREQ
 70
     1
  9
$HANDLING
 70
     1
  9
$HANDSEED
  5
1923
  9
$SURFTAB1
 70
     6
  9
$SURFTAB2
 70
     6
  9
$SURFTYPE
 70
     6
  9
$SURFU
 70
     6
  9
$SURFV
 70
     6
  9
$UCSNAME
  2

  9
$UCSORG
 10
0.0
 20
0.0
 30
0.0
  9
$UCSXDIR
 10
1.0
 20
0.0
 30
0.0
  9
$UCSYDIR
 10
0.0
 20
1.0
 30
0.0
  9
$PUCSNAME
  2

  9
$PUCSORG
 10
0.0
 20
0.0
 30
0.0
  9
$PUCSXDIR
 10
1.0
 20
0.0
 30
0.0
  9
$PUCSYDIR
 10
0.0
 20
1.0
 30
0.0
  9
$USERI1
 70
     0
  9
$USERI2
 70
     0
  9
$USERI3
 70
     0
  9
$USERI4
 70
     0
  9
$USERI5
 70
     0
  9
$USERR1
 40
0.0
  9
$USERR2
 40
0.0
  9
$USERR3
 40
0.0
  9
$USERR4
 40
0.0
  9
$USERR5
 40
0.0
  9
$WORLDVIEW
 70
     1
  9
$SHADEDGE
 70
     3
  9
$SHADEDIF
 70
    70
  9
$TILEMODE
 70
     1
  9
$MAXACTVP
 70
    48
  9
$PLIMCHECK
 70
     0
  9
$PEXTMIN
 10
0.0
 20
0.0
 30
0.0
  9
$PEXTMAX
 10
0.0
 20
0.0
 30
0.0
  9
$PLIMMIN
 10
0.0
 20
0.0
  9
$PLIMMAX
 10
12.0
 20
9.0
  9
$UNITMODE
 70
     0
  9
$VISRETAIN
 70
     1
  9
$PLINEGEN
 70
     1
  9
$PSLTSCALE
 70
     1
  0
ENDSEC
  0
SECTION
  2
TABLES
  0
TABLE
  2
VPORT
 70
     1
  0
VPORT
  2
*ACTIVE
 70
     0
 10
0.0
 20
0.0
 11
1.0
 21
1.0
 12
93.057675493597984
 22
20.623380728491949
 13
0.0
 23
0.0
 14
1.0
 24
1.0
 15
0.5
 25
0.5
 16
0.0
 26
0.0
 36
1.0
 17
0.0
 27
0.0
 37
0.0
 40
722.32998661452746
 41
1.6128385155466389
 42
50.0
 43
0.0
 44
0.0
 50
0.0
 51
0.0
 71
     0
 72
 20000
 73
     1
 74
     3
 75
     0
 76
     0
 77
     0
 78
     0
  0
ENDTAB
  0
TABLE
  2
LTYPE
 70
     3
  0
LTYPE
  2
CONTINUOUS
 70
     0
  3
Solid line
 72
    65
 73
     0
 40
0.0
  0
ENDTAB
  0
TABLE
  2
LAYER
 70
    12
  0
LAYER
  2
0
 70
     0
 62
     7
  6
CONTINUOUS
  0
ENDTAB
  0
TABLE
  2
STYLE
 70
     4
  0
STYLE
  2
STANDARD
 70
     0
 40
0.0
 41
1.0
 50
0.0
 71
     0
 42
1.5
  3
romans.shx
  4

  0
STYLE
  2
ARIAL
 70
     0
 40
0.0
 41
1.0
 50
0.0
 71
     0
 42
35.0
  3
txt
  4

  0
STYLE
  2
CORB-34_TRANS_BARGE$0$ARIA
 70
     0
 40
0.0
 41
1.0
 50
0.0
 71
     0
 42
35.0
  3
txt
  4

  0
ENDTAB
  0
TABLE
  2
VIEW
 70
     2
  0
VIEW
  2
COMM-04
 70
     1
 40
477.26027331217421
 10
194.21746115522001
 20
180.60494410563541
 41
755.81685306636155
 11
0.0
 21
0.0
 31
1.0
 12
0.0
 22
0.0
 32
0.0
 42
50.0
 43
0.0
 44
0.0
 50
0.0
 71
     0
  0
ENDTAB
  0
TABLE
  2
UCS
 70
     0
  0
ENDTAB
  0
TABLE
  2
APPID
 70
    29
  0
APPID
  2
ACAD
 70
     0
  0
APPID
  2
RAK
 70
     0
  0
APPID
  2
ACAD_EXEMPT_FROM_CAD_STANDARDS
 70
     0
  0
APPID
  2
ACAD_MLEADERVER
 70
     0
  0
APPID
  2
ACAECLAYERSTANDARD
 70
     0
  0
APPID
  2
ACADANNOTATIVE
 70
     0
  0
APPID
  2
ACAD_PSEXT
 70
     0
  0
APPID
  2
ACAUTHENVIRON
 70
     0
  0
APPID
  2
ACAD_DSTYLE_DIMEXT_ENABLED
 70
     0
  0
APPID
  2
ACAD_DSTYLE_DIMEXT_LENGTH
 70
     0
  0
APPID
  2
ACDBBLOCKREPETAG
 70
     0
  0
APPID
  2
ACDBDYNAMICBLOCKGUID
 70
     0
  0
APPID
  2
ACDBDYNAMICBLOCKTRUENAME
 70
     0
  0
APPID
  2
GENIUS_GENREC_14
 70
     0
  0
APPID
  2
GENIUS_GENOBJ-N-REC_13
 70
     0
  0
APPID
  2
GENIUS_GENODEF_13
 70
     0
  0
APPID
  2
GENIUS_GENSCREG_15
 70
     0
  0
APPID
  2
GENIUS_GENOBJ-N-SDF_13
 70
     0
  0
APPID
  2
PE_URL
 70
     0
  0
APPID
  2
GENIUS_GENCFG_13
 70
     0
  0
APPID
  2
GENIUS_GENCFG0_13
 70
     0
  0
APPID
  2
ACCMTRANSPARENCY
 70
     0
  0
APPID
  2
ACADANNOPO
 70
     0
  0
APPID
  2
ADESKUNDERLAYLAYEROVERRIDEDATA
 70
     0
  0
APPID
  2
URBANX
 70
     0
  0
APPID
  2
GRADIENTCOLOR1ACI
 70
     0
  0
APPID
  2
GRADIENTCOLOR2ACI
 70
     0
  0
APPID
  2
ACAD_NAV_VCDISPLAY
 70
     0
  0
APPID
  2
ACAD_DSTYLE_DIMJOGGED_JOGA
 70
     0
  0
ENDTAB
  0
TABLE
  2
DIMSTYLE
 70
     3
  0
DIMSTYLE
  2
1_TO_5
 70
     0
  3
mm
  4

  5

  6

  7

 40
5.0
 41
3.0
 42
2.0
 43
6.0
 44
2.0
 45
0.0
 46
2.0
 47
0.0
 48
0.0
140
2.5
141
2.0
142
0.0
143
0.0394
144
1.0
145
0.0
146
1.0
147
1.0
 71
     0
 72
     0
 73
     0
 74
     0
 75
     0
 76
     0
 77
     0
 78
     0
170
     0
171
     2
172
     0
173
     0
174
     0
175
     0
176
   256
177
   256
178
   256
  0
DIMSTYLE
  2
CORB-34_TRANS_BARGE$0$1_TO
 70
     0
  3

  4

  5
CORB-34_TRANS_BARGE$0$_ARC
  6

  7

 40
5.0
 41
2.0
 42
2.0
 43
6.0
 44
1.5
 45
0.0
 46
1.5
 47
0.0
 48
0.0
140
2.0
141
2.0
142
0.0
143
0.0394
144
1.0
145
0.0
146
1.0
147
1.0
 71
     0
 72
     0
 73
     0
 74
     0
 75
     0
 76
     0
 77
     0
 78
     0
170
     0
171
     2
172
     1
173
     0
174
     1
175
     0
176
     0
177
     0
178
     0
  0
ENDTAB
  0
ENDSEC
  0
SECTION
  2
BLOCKS
  0
BLOCK
  8
0
  2
$MODEL_SPACE
 70
     0
 10
0.0
 20
0.0
 30
0.0
  3
$MODEL_SPACE
  1

  0
ENDBLK
  5
C
  8
0
  0
BLOCK
 67
     1
  8
0
  2
$PAPER_SPACE
 70
     0
 10
0.0
 20
0.0
 30
0.0
  3
$PAPER_SPACE
  1

  0
ENDBLK
  5
14EC
 67
     1
  8
0
  0
BLOCK
  8
0
  2
CORB-34_TRANS_BARGE$0$_ARC
 70
     0
 10
0.0
 20
0.0
 30
0.0
  3
CORB-34_TRANS_BARGE$0$_ARC
  1

  0
POLYLINE
  5
1402
  8
0
  6
BYBLOCK
 62
     0
 66
     1
 10
0.0
 20
0.0
 30
0.0
 40
0.15
 41
0.15
  0
VERTEX
  5
158E
  8
0
  6
BYBLOCK
 62
     0
 10
-0.5
 20
-0.5
 30
0.0
  0
VERTEX
  5
158F
  8
0
  6
BYBLOCK
 62
     0
 10
0.5
 20
0.5
 30
0.0
  0
SEQEND
  5
1590
  8
0
  6
BYBLOCK
 62
     0
  0
ENDBLK
  5
1403
  8
0
  0
BLOCK
  8
0
  2
CORB-34_TRANS_BARGE$0$EW_2
 70
     0
 10
0.0
 20
0.0
 30
0.0
  3
CORB-34_TRANS_BARGE$0$EW_2
  1

  0
LINE
  5
1425
  8
0
 10
-3.4184899328840199
 20
7.9530201342267324
 30
0.0
 11
-4.4050671140931916
 21
7.6711409395975796
 31
0.0
1001
ACDBBLOCKREPETAG
1070
     1
1071
        0
1005
1425
  0
LINE
  5
1426
  8
0
 10
3.4184899328860352
 20
7.9530201342283799
 30
0.0
 11
-3.4184899328830141
 21
7.9530201342281961
 31
0.0
1001
ACDBBLOCKREPETAG
1070
     1
1071
        1
1005
1426
  0
LINE
  5
1427
  8
0
 10
0.6040268456382255
 20
9.7369127516776146
 30
0.0
 11
-0.6040268456372183
 21
9.7369127516776146
 31
0.0
1001
ACDBBLOCKREPETAG
1070
     1
1071
        2
1005
1427
  0
LINE
  5
1428
  8
0
 10
-1.7092449664405911
 20
7.9530201342283799
 30
0.0
 11
-1.7092449664406819
 21
10.741057046979471
 31
0.0
1001
ACDBBLOCKREPETAG
1070
     1
1071
        3
1005
1428
  0
LINE
  5
1429
  8
0
 10
1.709244966441781
 20
7.9530201342285629
 30
0.0
 11
1.7092449664432461
 21
10.741057046979471
 31
0.0
1001
ACDBBLOCKREPETAG
1070
     1
1071
        4
1005
1429
  0
LINE
  5
142A
  8
0
 10
3.4184899328860352
 20
7.9530201342283799
 30
0.0
 11
3.4184899328861258
 21
10.74105704697984
 31
0.0
1001
ACDBBLOCKREPETAG
1070
     1
1071
        5
1005
142A
  0
LINE
  5
142B
  8
0
 10
-3.4184899328830141
 20
7.9530201342281961
 30
0.0
 11
-3.418489932884845
 21
10.74105704697965
 31
0.0
1001
ACDBBLOCKREPETAG
1070
     1
1071
        6
1005
142B
  0
LINE
  5
142C
  8
0
 10
4.4050671140942912
 20
6.8456375838924419
 30
0.0
 11
-4.4050671140933764
 21
6.8456375838928079
 31
0.0
1001
ACDBBLOCKREPETAG
1070
     1
1071
        7
1005
142C
  0
LINE
  5
142D
  8
0
 10
2.5638674496653269
 20
10.985234899328949
 30
0.0
 11
0.6040268456384088
 21
10.98523489932858
 31
0.0
1001
ACDBBLOCKREPETAG
1070
     1
1071
        8
1005
142D
  0
ARC
  5
142E
  8
0
 10
-0.0000000000010987
 20
4.8807885906049551
 30
0.0
 40
6.1044463087248362
 50
73.739795291610918
 51
84.321366531677086
1001
ACDBBLOCKREPETAG
1070
     1
1071
        9
1005
142E
  0
ARC
  5
142F
  8
0
 10
-2.5638674496643201
 20
9.3675566275170361
 30
0.0
 40
1.617678271811821
 50
58.109208198170201
 51
121.89079180182981
1001
ACDBBLOCKREPETAG
1070
     1
1071
       10
1005
142F
  0
ARC
  5
1430
  8
0
 10
2.5638674496651439
 20
9.3675566275177662
 30
0.0
 40
1.617678271811821
 50
58.109208198170201
 51
121.89079180182981
1001
ACDBBLOCKREPETAG
1070
     1
1071
       11
1005
1430
  0
ARC
  5
1431
  8
0
 10
-0.0000000000010987
 20
4.8807885906049551
 30
0.0
 40
6.1044463087248362
 50
95.678633468293754
 51
106.2602047083479
1001
ACDBBLOCKREPETAG
1070
     1
1071
       12
1005
1431
  0
LINE
  5
1432
  8
0
 10
-0.6040268456367607
 20
10.985234899328949
 30
0.0
 11
-2.5638674496642291
 21
10.9852348993284
 31
0.0
1001
ACDBBLOCKREPETAG
1070
     1
1071
       13
1005
1432
  0
LINE
  5
1433
  8
0
 10
4.4050671140941082
 20
7.6711409395966648
 30
0.0
 11
3.4184899328864011
 21
7.9530201342283799
 31
0.0
1001
ACDBBLOCKREPETAG
1070
     1
1071
       14
1005
1433
  0
LINE
  5
1434
  8
0
 10
-4.4050671140933764
 20
6.8456375838928079
 30
0.0
 11
-4.4050671140931916
 21
7.6711409395975796
 31
0.0
1001
ACDBBLOCKREPETAG
1070
     1
1071
       15
1005
1434
  0
LINE
  5
1435
  8
0
 10
4.4050671140942912
 20
6.8456375838924419
 30
0.0
 11
4.4050671140941082
 21
7.6711409395966648
 31
0.0
1001
ACDBBLOCKREPETAG
1070
     1
1071
       16
1005
1435
  0
LINE
  5
1436
  8
0
 10
0.6040268456384088
 20
10.98523489932858
 30
0.0
 11
0.6040268456382255
 21
9.7369127516776146
 31
0.0
1001
ACDBBLOCKREPETAG
1070
     1
1071
       17
1005
1436
  0
LINE
  5
1437
  8
0
 10
-0.6040268456367607
 20
10.985234899328949
 30
0.0
 11
-0.6040268456372183
 21
9.7369127516776146
 31
0.0
1001
ACDBBLOCKREPETAG
1070
     1
1071
       18
1005
1437
  0
LINE
  5
1438
  8
0
 10
-1.2080536912737041
 20
-25.079456812614659
 30
0.0
 11
1.2080536912769999
 21
-24.432062790633879
 31
0.0
1001
ACDBBLOCKREPETAG
1070
     1
1071
       19
1005
1438
  0
LINE
  5
1439
  8
0
 10
-1.2080536912739781
 20
-27.669032900539239
 30
0.0
 11
1.208053691276725
 21
-27.021638878558282
 31
0.0
1001
ACDBBLOCKREPETAG
1070
     1
1071
       20
1005
1439
  0
LINE
  5
143A
  8
0
 10
-1.20805369127407
 20
-30.258608988464012
 30
0.0
 11
1.208053691276634
 21
-29.611214966482681
 31
0.0
1001
ACDBBLOCKREPETAG
1070
     1
1071
       21
1005
143A
  0
LINE
  5
143B
  8
0
 10
-1.2080536912741611
 20
-32.848185076388589
 30
0.0
 11
1.2080536912761759
 21
-32.200791054407993
 31
0.0
1001
ACDBBLOCKREPETAG
1070
     1
1071
       22
1005
143B
  0
LINE
  5
143C
  8
0
 10
-1.208053691274253
 20
-35.437761164313351
 30
0.0
 11
1.208053691276084
 21
-34.790367142332393
 31
0.0
1001
ACDBBLOCKREPETAG
1070
     1
1071
       23
1005
143C
  0
LINE
  5
143D
  8
0
 10
-1.208053691274436
 20
-38.027337252237203
 30
0.0
 11
1.2080536912759929
 21
-37.379943230257147
 31
0.0
1001
ACDBBLOCKREPETAG
1070
     1
1071
       24
1005
143D
  0
LINE
  5
143E
  8
0
 10
-1.2080536912743449
 20
-40.616913340162512
 30
0.0
 11
1.20805369127581
 21
-39.969519318180808
 31
0.0
1001
ACDBBLOCKREPETAG
1070
     1
1071
       25
1005
143E
  0
LINE
  5
143F
  8
0
 10
-1.208053691275901
 20
-43.206489428087082
 30
0.0
 11
1.20805369127581
 21
-42.559095406105207
 31
0.0
1001
ACDBBLOCKREPETAG
1070
     1
1071
       26
1005
143F
  0
LINE
  5
1440
  8
0
 10
-1.2080536912747111
 20
-45.796065516011673
 30
0.0
 11
1.208053691275718
 21
-45.148671494030339
 31
0.0
1001
ACDBBLOCKREPETAG
1070
     1
1071
       27
1005
1440
  0
LINE
  5
1441
  8
0
 10
-1.2080536912745281
 20
-48.385641603935703
 30
0.0
 11
1.20805369127581
 21
-47.738247581954731
 31
0.0
1001
ACDBBLOCKREPETAG
1070
     1
1071
       28
1005
1441
  0
LINE
  5
1442
  8
0
 10
-1.208053691274986
 20
-50.975217691860102
 30
0.0
 11
1.2080536912754429
 21
-50.327823669879869
 31
0.0
1001
ACDBBLOCKREPETAG
1070
     1
1071
       29
1005
1442
  0
LINE
  5
1443
  8
0
 10
-1.208053691276451
 20
-53.564793779785411
 30
0.0
 11
1.20805369127526
 21
-52.917399757804262
 31
0.0
1001
ACDBBLOCKREPETAG
1070
     1
1071
       30
1005
1443
  0
LINE
  5
1444
  8
0
 10
1.2080536912759929
 20
2.8187919463087279
 30
0.0
 11
1.2080536912755351
 21
-57.583892617449088
 31
0.0
1001
ACDBBLOCKREPETAG
1070
     1
1071
       31
1005
1444
  0
LINE
  5
1445
  8
0
 10
-1.2080536912737041
 20
2.818791946308179
 30
0.0
 11
-1.208053691275901
 21
-57.583892617448349
 31
0.0
1001
ACDBBLOCKREPETAG
1070
     1
1071
       32
1005
1445
  0
LINE
  5
1446
  8
0
 10
0.0
 20
-59.999999999999979
 30
0.0
 11
-1.208053691275901
 21
-57.583892617448349
 31
0.0
1001
ACDBBLOCKREPETAG
1070
     1
1071
       33
1005
1446
  0
LINE
  5
1447
  8
0
 10
0.0
 20
-59.999999999999979
 30
0.0
 11
1.2080536912755351
 21
-57.583892617449088
 31
0.0
1001
ACDBBLOCKREPETAG
1070
     1
1071
       34
1005
1447
  0
LINE
  5
1448
  8
0
 10
-1.208053691275077
 20
-56.154369867709079
 30
0.0
 11
1.2080536912753519
 21
-55.506975845728483
 31
0.0
1001
ACDBBLOCKREPETAG
1070
     1
1071
       35
1005
1448
  0
LINE
  5
1449
  8
0
 10
-0.6965548702014264
 20
-58.606890259598217
 30
0.0
 11
0.91206969706204
 21
-58.175860605875158
 31
0.0
1001
ACDBBLOCKREPETAG
1070
     1
1071
       36
1005
1449
  0
LINE
  5
144A
  8
0
 10
-10.06711409395974
 20
0.4026845637585729
 30
0.0
 11
10.06711409395974
 21
0.4026845637583898
 31
0.0
1001
ACDBBLOCKREPETAG
1070
     1
1071
       37
1005
144A
  0
LINE
  5
144B
  8
0
 10
10.06711409395974
 20
0.4026845637583898
 30
0.0
 11
10.067114093960109
 21
2.8187919463083619
 31
0.0
1001
ACDBBLOCKREPETAG
1070
     1
1071
       38
1005
144B
  0
LINE
  5
144C
  8
0
 10
-10.06711409395956
 20
2.8187919463090938
 30
0.0
 11
10.067114093960109
 21
2.8187919463083619
 31
0.0
1001
ACDBBLOCKREPETAG
1070
     1
1071
       39
1005
144C
  0
LINE
  5
144D
  8
0
 10
3.6241610738257819
 20
5.2348993288588828
 30
0.0
 11
10.067114093960109
 21
2.8187919463083619
 31
0.0
1001
ACDBBLOCKREPETAG
1070
     1
1071
       40
1005
144D
  0
LINE
  5
144E
  8
0
 10
-2.4161073825499719
 20
6.8456375838928079
 30
0.0
 11
2.4161073825507038
 21
6.8456375838924419
 31
0.0
1001
ACDBBLOCKREPETAG
1070
     1
1071
       41
1005
144E
  0
LINE
  5
144F
  8
0
 10
-10.06711409395974
 20
0.4026845637585729
 30
0.0
 11
-10.06711409395956
 21
2.8187919463090938
 31
0.0
1001
ACDBBLOCKREPETAG
1070
     1
1071
       42
1005
144F
  0
LINE
  5
1450
  8
0
 10
-3.62416107382505
 20
5.2348993288592487
 30
0.0
 11
-3.6241610738249581
 21
6.8456375838926249
 31
0.0
1001
ACDBBLOCKREPETAG
1070
     1
1071
       43
1005
1450
  0
LINE
  5
1451
  8
0
 10
3.6241610738257819
 20
5.2348993288588828
 30
0.0
 11
3.6241610738258729
 21
6.8456375838920751
 31
0.0
1001
ACDBBLOCKREPETAG
1070
     1
1071
       44
1005
1451
  0
LINE
  5
1452
  8
0
 10
-10.06711409395956
 20
2.8187919463090938
 30
0.0
 11
-3.62416107382505
 21
5.2348993288592487
 31
0.0
1001
ACDBBLOCKREPETAG
1070
     1
1071
       45
1005
1452
  0
SOLID
  5
1453
  8
0
 10
-10.06711409395956
 20
2.8187919463090938
 30
0.0
 11
-10.06711409395974
 21
0.4026845637585729
 31
0.0
 12
10.067114093960109
 22
2.8187919463083619
 32
0.0
 13
10.06711409395974
 23
0.4026845637583898
 33
0.0
1001
ACDBBLOCKREPETAG
1070
     1
1071
       46
1005
1453
  0
LINE
  5
1454
  8
0
 10
-3.62416107382505
 20
5.2348993288592487
 30
0.0
 11
3.6241610738257819
 21
5.2348993288588828
 31
0.0
1001
ACDBBLOCKREPETAG
1070
     1
1071
       47
1005
1454
  0
ENDBLK
  5
1455
  8
0
  0
BLOCK
  8
0
  2
*U11
 70
     1
 10
0.0
 20
0.0
 30
0.0
  3
*U11
  1

  0
SOLID
  5
15C9
  8
0
 10
-19.05931101560374
 20
285.3601343768799
 30
0.0
 11
-12.68935026858594
 21
277.473349362742
 31
0.0
 12
-21.27286503386372
 22
282.86788845816397
 32
0.0
 13
-21.27286503386372
 23
282.86788845816397
 33
0.0
  0
POLYLINE
  5
15CA
  8
0
 66
     1
 10
0.0
 20
0.0
 30
0.0
  0
VERTEX
  5
15CB
  8
0
 10
-20.166088024733732
 20
284.11401141752202
 30
0.0
  0
VERTEX
  5
15CC
  8
0
 10
-108.03999093528719
 20
362.16153852032949
 30
0.0
  0
VERTEX
  5
15CD
  8
0
 10
-118.03999093528719
 20
362.16153852032949
 30
0.0
  0
SEQEND
  5
15CE
  8
0
  0
ENDBLK
  5
15D0
  8
0
  0
BLOCK
  8
0
  2
*U12
 70
     1
 10
0.0
 20
0.0
 30
0.0
  3
*U12
  1

  0
TEXT
  5
15D2
  8
0
 10
-282.41243295438687
 20
366.96144756989747
 30
0.0
 40
10.0
  1
Steel & Tube Custom Orb
  7
CORB-34_TRANS_BARGE$0$ARIA
  0
TEXT
  5
15D3
  8
0
 10
-206.75076856148101
 20
350.12424884320347
 30
0.0
 40
10.0
  1
profile roofing
  7
CORB-34_TRANS_BARGE$0$ARIA
  0
ENDBLK
  5
15D5
  8
0
  0
BLOCK
  8
0
  2
*U13
 70
     1
 10
0.0
 20
0.0
 30
0.0
  3
*U13
  1

  0
SOLID
  5
15D7
  8
0
 10
314.83020476623869
 20
264.6639543953201
 30
0.0
 11
308.22329288918712
 21
272.35332974229419
 31
0.0
 12
316.96692585838969
 22
267.2223785363625
 32
0.0
 13
316.96692585838969
 23
267.2223785363625
 33
0.0
  0
POLYLINE
  5
15D8
  8
0
 66
     1
 10
0.0
 20
0.0
 30
0.0
  0
VERTEX
  5
15D9
  8
0
 10
315.89856531231419
 20
265.94316646584127
 30
0.0
  0
VERTEX
  5
15DA
  8
0
 10
376.11986775716008
 20
215.6480941725199
 30
0.0
  0
VERTEX
  5
15DB
  8
0
 10
386.11986775716008
 20
215.6480941725199
 30
0.0
  0
SEQEND
  5
15DC
  8
0
  0
ENDBLK
  5
15DE
  8
0
  0
BLOCK
  8
0
  2
*U14
 70
     1
 10
0.0
 20
0.0
 30
0.0
  3
*U14
  1

  0
TEXT
  5
15E0
  8
0
 10
390.42409695224882
 20
220.45141386328839
 30
0.0
 40
10.0
  1
Continuous
  7
CORB-34_TRANS_BARGE$0$ARIA
  0
TEXT
  5
15E1
  8
0
 10
390.69012696589141
 20
203.69948116660811
 30
0.0
 40
10.0
  1
secret gutter
  7
CORB-34_TRANS_BARGE$0$ARIA
  0
ENDBLK
  5
15E3
  8
0
  0
BLOCK
  8
0
  2
*U15
 70
     1
 10
0.0
 20
0.0
 30
0.0
  3
*U15
  1

  0
SOLID
  5
15E5
  8
0
 10
316.22119429228371
 20
134.81035141785301
 30
0.0
 11
308.42283500422491
 21
141.28826544878351
 31
0.0
 12
317.90060644890661
 22
137.68970653997641
 32
0.0
 13
317.90060644890661
 23
137.68970653997641
 33
0.0
  0
POLYLINE
  5
15E6
  8
0
 66
     1
 10
0.0
 20
0.0
 30
0.0
  0
VERTEX
  5
15E7
  8
0
 10
317.06090037059522
 20
136.2500289789148
 30
0.0
  0
VERTEX
  5
15E8
  8
0
 10
365.73724509681921
 20
107.85907280783221
 30
0.0
  0
VERTEX
  5
15E9
  8
0
 10
375.73724509681909
 20
107.85907280783221
 30
0.0
  0
SEQEND
  5
15EA
  8
0
  0
ENDBLK
  5
15EC
  8
0
  0
BLOCK
  8
0
  2
*U16
 70
     1
 10
0.0
 20
0.0
 30
0.0
  3
*U16
  1

  0
TEXT
  5
15EE
  8
0
 10
379.5912696534358
 20
102.9409281966453
 30
0.0
 40
10.0
  1
Fascia
  7
CORB-34_TRANS_BARGE$0$ARIA
  0
ENDBLK
  5
15F0
  8
0
  0
BLOCK
  8
0
  2
*U17
 70
     1
 10
0.0
 20
0.0
 30
0.0
  3
*U17
  1

  0
SOLID
  5
15F2
  8
0
 10
-7.1573947347561457
 20
-189.6142155975482
 30
0.0
 11
-6.3024773108403451
 21
-199.7160418668949
 31
0.0
 12
-10.387450961359621
 22
-190.4375307766208
 32
0.0
 13
-10.387450961359621
 23
-190.4375307766208
 33
0.0
  0
POLYLINE
  5
15F3
  8
0
 66
     1
 10
0.0
 20
0.0
 30
0.0
  0
VERTEX
  5
15F4
  8
0
 10
-8.7724228480578859
 20
-190.0258731870845
 30
0.0
  0
VERTEX
  5
15F5
  8
0
 10
-60.912103808407672
 20
14.53017705945604
 30
0.0
  0
VERTEX
  5
15F6
  8
0
 10
-70.912103808407664
 20
14.53017705945604
 30
0.0
  0
SEQEND
  5
15F7
  8
0
  0
ENDBLK
  5
15F9
  8
0
  0
BLOCK
  8
0
  2
*U18
 70
     1
 10
0.0
 20
0.0
 30
0.0
  3
*U18
  1

  0
TEXT
  5
15FB
  8
0
 10
-163.45644214401469
 20
19.418762780238211
 30
0.0
 40
10.0
  1
Rivet and seal
  7
CORB-34_TRANS_BARGE$0$ARIA
  0
TEXT
  5
15FC
  8
0
 10
-179.35003013855771
 20
2.6668300835579029
 30
0.0
 40
10.0
  1
with MS polymer
  7
CORB-34_TRANS_BARGE$0$ARIA
  0
ENDBLK
  5
15FE
  8
0
  0
BLOCK
  8
0
  2
*U19
 70
     1
 10
0.0
 20
0.0
 30
0.0
  3
*U19
  1

  0
SOLID
  5
1600
  8
0
 10
-33.127591416921632
 20
-264.89640533901081
 30
0.0
 11
-42.046609385016552
 21
-269.71604186706742
 31
0.0
 12
-35.172825856728913
 22
-262.26427175628038
 32
0.0
 13
-35.172825856728913
 23
-262.26427175628038
 33
0.0
  0
POLYLINE
  5
1601
  8
0
 66
     1
 10
0.0
 20
0.0
 30
0.0
  0
VERTEX
  5
1602
  8
0
 10
-34.150208636825262
 20
-263.58033854764562
 30
0.0
  0
VERTEX
  5
1603
  8
0
 10
157.5746231343864
 20
-114.6052897592885
 30
0.0
  0
VERTEX
  5
1604
  8
0
 10
167.5746231343864
 20
-114.6052897592885
 30
0.0
  0
SEQEND
  5
1605
  8
0
  0
ENDBLK
  5
1607
  8
0
  0
BLOCK
  8
0
  2
*U20
 70
     1
 10
0.0
 20
0.0
 30
0.0
  3
*U20
  1

  0
TEXT
  5
1609
  8
0
 10
171.4695753854096
 20
-101.38337070517299
 30
0.0
 40
10.0
  1
Extend barge up pitch of roof to
  7
CORB-34_TRANS_BARGE$0$ARIA
  0
TEXT
  5
160A
  8
0
 10
172.0698482367057
 20
-118.22056943186701
 30
0.0
 40
10.0
  1
achieve sufficient fall to avoid
  7
CORB-34_TRANS_BARGE$0$ARIA
  0
TEXT
  5
160B
  8
0
 10
171.65375001023909
 20
-134.97250212854729
 30
0.0
 40
10.0
  1
ponding
  7
CORB-34_TRANS_BARGE$0$ARIA
  0
ENDBLK
  5
160D
  8
0
  0
BLOCK
  8
0
  2
*U21
 70
     1
 10
0.0
 20
0.0
 30
0.0
  3
*U21
  1

  0
SOLID
  5
160F
  8
0
 10
24.2925215284383
 20
247.08311106462821
 30
0.0
 11
30.549592762999058
 21
255.0597543024451
 31
0.0
 12
27.217761023652471
 22
245.48496056897699
 32
0.0
 13
27.217761023652471
 23
245.48496056897699
 33
0.0
  0
POLYLINE
  5
1610
  8
0
 66
     1
 10
0.0
 20
0.0
 30
0.0
  0
VERTEX
  5
1611
  8
0
 10
25.755141276045389
 20
246.2840358168026
 30
0.0
  0
VERTEX
  5
1612
  8
0
 10
-1.369216173346107
 20
196.63586944625399
 30
0.0
  0
VERTEX
  5
1613
  8
0
 10
-11.369216173346111
 20
196.63586944625399
 30
0.0
  0
SEQEND
  5
1614
  8
0
  0
ENDBLK
  5
1616
  8
0
  0
BLOCK
  8
0
  2
*U22
 70
     1
 10
0.0
 20
0.0
 30
0.0
  3
*U22
  1

  0
TEXT
  5
1618
  8
0
 10
-72.153663649471611
 20
193.1058558036892
 30
0.0
 40
10.0
  1
Underlay
  7
CORB-34_TRANS_BARGE$0$ARIA
  0
ENDBLK
  5
161A
  8
0
  0
BLOCK
  8
0
  2
*U23
 70
     1
 10
0.0
 20
0.0
 30
0.0
  3
*U23
  1

  0
SOLID
  5
161C
  8
0
 10
174.6604014332608
 20
248.72188953494719
 30
0.0
 11
179.5025097121015
 21
257.62872764921423
 31
0.0
 12
177.81084126917659
 22
247.6329267479862
 32
0.0
 13
177.81084126917659
 23
247.6329267479862
 33
0.0
  0
POLYLINE
  5
161D
  8
0
 66
     1
 10
0.0
 20
0.0
 30
0.0
  0
VERTEX
  5
161E
  8
0
 10
176.2356213512187
 20
248.17740814146671
 30
0.0
  0
VERTEX
  5
161F
  8
0
 10
142.71799143573111
 20
151.20873505583199
 30
0.0
  0
VERTEX
  5
1620
  8
0
 10
132.71799143573111
 20
151.20873505583199
 30
0.0
  0
SEQEND
  5
1621
  8
0
  0
ENDBLK
  5
1623
  8
0
  0
BLOCK
  8
0
  2
*U24
 70
     1
 10
0.0
 20
0.0
 30
0.0
  3
*U24
  1

  0
TEXT
  5
1625
  8
0
 10
-0.528938987188361
 20
154.6239237779784
 30
0.0
 40
10.0
  1
Fastening clip at 600
  7
CORB-34_TRANS_BARGE$0$ARIA
  0
TEXT
  5
1626
  8
0
 10
51.735726769973986
 20
137.9367932641085
 30
0.0
 40
10.0
  1
centres max
  7
CORB-34_TRANS_BARGE$0$ARIA
  0
ENDBLK
  5
1628
  8
0
  0
BLOCK
  8
0
  2
*U25
 70
     1
 10
0.0
 20
0.0
 30
0.0
  3
*U25
  1

  0
SOLID
  5
162A
  8
0
 10
203.3636443707943
 20
267.59122114733401
 30
0.0
 11
205.24154241853239
 21
257.62872764921423
 31
0.0
 12
200.23407340101161
 22
266.44365996979087
 32
0.0
 13
200.23407340101161
 23
266.44365996979087
 33
0.0
  0
POLYLINE
  5
162B
  8
0
 66
     1
 10
0.0
 20
0.0
 30
0.0
  0
VERTEX
  5
162C
  8
0
 10
201.798858885903
 20
267.01744055856238
 30
0.0
  0
VERTEX
  5
162D
  8
0
 10
177.5644338992642
 20
333.10834219566573
 30
0.0
  0
VERTEX
  5
162E
  8
0
 10
167.5644338992642
 20
333.10834219566573
 30
0.0
  0
SEQEND
  5
162F
  8
0
  0
ENDBLK
  5
1631
  8
0
  0
BLOCK
  8
0
  2
*U26
 70
     1
 10
0.0
 20
0.0
 30
0.0
  3
*U26
  1

  0
TEXT
  5
1633
  8
0
 10
139.0582947451033
 20
329.49647316428781
 30
0.0
 40
10.0
  1
Clip
  7
CORB-34_TRANS_BARGE$0$ARIA
  0
ENDBLK
  5
1635
  8
0
  0
ENDSEC
  0
SECTION
  2
ENTITIES
  0
LINE
  5
1487
  8
0
 10
69.758174883824722
 20
-197.7160418668949
 30
0.0
 11
69.758174883824736
 21
-53.032447083758143
 31
0.0
  0
LINE
  5
1488
  8
0
 10
109.75817488382469
 20
-197.7160418668949
 30
0.0
 11
109.75817488382469
 21
-55.614843442053882
 31
0.0
  0
LINE
  5
1489
  8
0
 10
-10.24182511617528
 20
-197.7160418668949
 30
0.0
 11
269.75817488382472
 21
-197.7160418668949
 31
0.0
  0
LINE
  5
148A
  8
0
 10
269.75817488382472
 20
-197.7160418668949
 30
0.0
 11
309.75817488382472
 21
-197.7160418668949
 31
0.0
  0
LINE
  5
148B
  8
0
 10
309.75817488382472
 20
-197.7160418668949
 30
0.0
 11
309.75817488382472
 21
-331.49265347920641
 31
0.0
  0
LINE
  5
148C
  8
0
 10
269.75817488382472
 20
-197.7160418668949
 30
0.0
 11
269.75817488382472
 21
-331.49265347920641
 31
0.0
  0
POLYLINE
  5
148D
  8
0
 10
-10.789261398389408
 20
-219.71604186689501
 30
0.0
 66
     1
 70
     8
  0
VERTEX
  8
0
  5
1699
 10
-10.7893
 20
-219.716
 30
0.000000
  70
    32
  0
VERTEX
  8
0
  5
169A
 10
-10.6273
 20
-219.719
 30
0.000000
  70
    32
  0
VERTEX
  8
0
  5
169B
 10
-10.4651
 20
-219.716
 30
0.000000
  70
    32
  0
VERTEX
  8
0
  5
169C
 10
-10.3029
 20
-219.706
 30
0.000000
  70
    32
  0
VERTEX
  8
0
  5
169D
 10
-10.1407
 20
-219.690
 30
0.000000
  70
    32
  0
VERTEX
  8
0
  5
169E
 10
-9.97864
 20
-219.666
 30
0.000000
  70
    32
  0
VERTEX
  8
0
  5
169F
 10
-9.81677
 20
-219.637
 30
0.000000
  70
    32
  0
VERTEX
  8
0
  5
16A0
 10
-9.65522
 20
-219.600
 30
0.000000
  70
    32
  0
VERTEX
  8
0
  5
16A1
 10
-9.49408
 20
-219.557
 30
0.000000
  70
    32
  0
VERTEX
  8
0
  5
16A2
 10
-9.33344
 20
-219.508
 30
0.000000
  70
    32
  0
VERTEX
  8
0
  5
16A3
 10
-9.17342
 20
-219.452
 30
0.000000
  70
    32
  0
VERTEX
  8
0
  5
16A4
 10
-9.01409
 20
-219.390
 30
0.000000
  70
    32
  0
VERTEX
  8
0
  5
16A5
 10
-8.85556
 20
-219.321
 30
0.000000
  70
    32
  0
VERTEX
  8
0
  5
16A6
 10
-8.69792
 20
-219.246
 30
0.000000
  70
    32
  0
VERTEX
  8
0
  5
16A7
 10
-8.54128
 20
-219.164
 30
0.000000
  70
    32
  0
VERTEX
  8
0
  5
16A8
 10
-8.38571
 20
-219.076
 30
0.000000
  70
    32
  0
VERTEX
  8
0
  5
16A9
 10
-8.23132
 20
-218.982
 30
0.000000
  70
    32
  0
VERTEX
  8
0
  5
16AA
 10
-8.07820
 20
-218.882
 30
0.000000
  70
    32
  0
VERTEX
  8
0
  5
16AB
 10
-7.92644
 20
-218.776
 30
0.000000
  70
    32
  0
VERTEX
  8
0
  5
16AC
 10
-7.77613
 20
-218.663
 30
0.000000
  70
    32
  0
VERTEX
  8
0
  5
16AD
 10
-7.62737
 20
-218.545
 30
0.000000
  70
    32
  0
VERTEX
  8
0
  5
16AE
 10
-7.48024
 20
-218.420
 30
0.000000
  70
    32
  0
VERTEX
  8
0
  5
16AF
 10
-7.33483
 20
-218.290
 30
0.000000
  70
    32
  0
VERTEX
  8
0
  5
16B0
 10
-7.19123
 20
-218.154
 30
0.000000
  70
    32
  0
VERTEX
  8
0
  5
16B1
 10
-7.04952
 20
-218.013
 30
0.000000
  70
    32
  0
VERTEX
  8
0
  5
16B2
 10
-6.90980
 20
-217.865
 30
0.000000
  70
    32
  0
VERTEX
  8
0
  5
16B3
 10
-6.77214
 20
-217.712
 30
0.000000
  70
    32
  0
VERTEX
  8
0
  5
16B4
 10
-6.63663
 20
-217.554
 30
0.000000
  70
    32
  0
VERTEX
  8
0
  5
16B5
 10
-6.50335
 20
-217.391
 30
0.000000
  70
    32
  0
VERTEX
  8
0
  5
16B6
 10
-6.37237
 20
-217.222
 30
0.000000
  70
    32
  0
VERTEX
  8
0
  5
16B7
 10
-6.24379
 20
-217.048
 30
0.000000
  70
    32
  0
VERTEX
  8
0
  5
16B8
 10
-6.11767
 20
-216.869
 30
0.000000
  70
    32
  0
VERTEX
  8
0
  5
16B9
 10
-5.99410
 20
-216.686
 30
0.000000
  70
    32
  0
VERTEX
  8
0
  5
16BA
 10
-5.87314
 20
-216.497
 30
0.000000
  70
    32
  0
VERTEX
  8
0
  5
16BB
 10
-5.75487
 20
-216.304
 30
0.000000
  70
    32
  0
VERTEX
  8
0
  5
16BC
 10
-5.63936
 20
-216.106
 30
0.000000
  70
    32
  0
VERTEX
  8
0
  5
16BD
 10
-5.52669
 20
-215.904
 30
0.000000
  70
    32
  0
VERTEX
  8
0
  5
16BE
 10
-5.41691
 20
-215.697
 30
0.000000
  70
    32
  0
VERTEX
  8
0
  5
16BF
 10
-5.31009
 20
-215.486
 30
0.000000
  70
    32
  0
VERTEX
  8
0
  5
16C0
 10
-5.20630
 20
-215.271
 30
0.000000
  70
    32
  0
VERTEX
  8
0
  5
16C1
 10
-5.10561
 20
-215.052
 30
0.000000
  70
    32
  0
VERTEX
  8
0
  5
16C2
 10
-5.00806
 20
-214.830
 30
0.000000
  70
    32
  0
VERTEX
  8
0
  5
16C3
 10
-4.91373
 20
-214.603
 30
0.000000
  70
    32
  0
VERTEX
  8
0
  5
16C4
 10
-4.82266
 20
-214.373
 30
0.000000
  70
    32
  0
VERTEX
  8
0
  5
16C5
 10
-4.73492
 20
-214.140
 30
0.000000
  70
    32
  0
VERTEX
  8
0
  5
16C6
 10
-4.65055
 20
-213.903
 30
0.000000
  70
    32
  0
VERTEX
  8
0
  5
16C7
 10
-4.56961
 20
-213.664
 30
0.000000
  70
    32
  0
VERTEX
  8
0
  5
16C8
 10
-4.49214
 20
-213.421
 30
0.000000
  70
    32
  0
VERTEX
  8
0
  5
16C9
 10
-4.41819
 20
-213.176
 30
0.000000
  70
    32
  0
VERTEX
  8
0
  5
16CA
 10
-4.34781
 20
-212.927
 30
0.000000
  70
    32
  0
VERTEX
  8
0
  5
16CB
 10
-4.28104
 20
-212.677
 30
0.000000
  70
    32
  0
VERTEX
  8
0
  5
16CC
 10
-4.21791
 20
-212.423
 30
0.000000
  70
    32
  0
VERTEX
  8
0
  5
16CD
 10
-4.15848
 20
-212.168
 30
0.000000
  70
    32
  0
VERTEX
  8
0
  5
16CE
 10
-4.10276
 20
-211.911
 30
0.000000
  70
    32
  0
VERTEX
  8
0
  5
16CF
 10
-4.05080
 20
-211.651
 30
0.000000
  70
    32
  0
VERTEX
  8
0
  5
16D0
 10
-4.00263
 20
-211.390
 30
0.000000
  70
    32
  0
VERTEX
  8
0
  5
16D1
 10
-3.95827
 20
-211.127
 30
0.000000
  70
    32
  0
VERTEX
  8
0
  5
16D2
 10
-3.91776
 20
-210.863
 30
0.000000
  70
    32
  0
VERTEX
  8
0
  5
16D3
 10
-3.88111
 20
-210.598
 30
0.000000
  70
    32
  0
VERTEX
  8
0
  5
16D4
 10
-3.84835
 20
-210.331
 30
0.000000
  70
    32
  0
VERTEX
  8
0
  5
16D5
 10
-3.81951
 20
-210.063
 30
0.000000
  70
    32
  0
VERTEX
  8
0
  5
16D6
 10
-3.79458
 20
-209.795
 30
0.000000
  70
    32
  0
VERTEX
  8
0
  5
16D7
 10
-3.77361
 20
-209.526
 30
0.000000
  70
    32
  0
VERTEX
  8
0
  5
16D8
 10
-3.75658
 20
-209.256
 30
0.000000
  70
    32
  0
VERTEX
  8
0
  5
16D9
 10
-3.74352
 20
-208.987
 30
0.000000
  70
    32
  0
VERTEX
  8
0
  5
16DA
 10
-3.73443
 20
-208.717
 30
0.000000
  70
    32
  0
VERTEX
  8
0
  5
16DB
 10
-3.72932
 20
-208.447
 30
0.000000
  70
    32
  0
VERTEX
  8
0
  5
16DC
 10
-3.72819
 20
-208.177
 30
0.000000
  70
    32
  0
VERTEX
  8
0
  5
16DD
 10
-3.73104
 20
-207.907
 30
0.000000
  70
    32
  0
VERTEX
  8
0
  5
16DE
 10
-3.73787
 20
-207.638
 30
0.000000
  70
    32
  0
VERTEX
  8
0
  5
16DF
 10
-3.74867
 20
-207.370
 30
0.000000
  70
    32
  0
VERTEX
  8
0
  5
16E0
 10
-3.76345
 20
-207.102
 30
0.000000
  70
    32
  0
VERTEX
  8
0
  5
16E1
 10
-3.78219
 20
-206.835
 30
0.000000
  70
    32
  0
VERTEX
  8
0
  5
16E2
 10
-3.80487
 20
-206.570
 30
0.000000
  70
    32
  0
VERTEX
  8
0
  5
16E3
 10
-3.83149
 20
-206.306
 30
0.000000
  70
    32
  0
VERTEX
  8
0
  5
16E4
 10
-3.86203
 20
-206.043
 30
0.000000
  70
    32
  0
VERTEX
  8
0
  5
16E5
 10
-3.89647
 20
-205.782
 30
0.000000
  70
    32
  0
VERTEX
  8
0
  5
16E6
 10
-3.93479
 20
-205.522
 30
0.000000
  70
    32
  0
VERTEX
  8
0
  5
16E7
 10
-3.97697
 20
-205.265
 30
0.000000
  70
    32
  0
VERTEX
  8
0
  5
16E8
 10
-4.02298
 20
-205.010
 30
0.000000
  70
    32
  0
VERTEX
  8
0
  5
16E9
 10
-4.07279
 20
-204.756
 30
0.000000
  70
    32
  0
VERTEX
  8
0
  5
16EA
 10
-4.12638
 20
-204.506
 30
0.000000
  70
    32
  0
VERTEX
  8
0
  5
16EB
 10
-4.18370
 20
-204.258
 30
0.000000
  70
    32
  0
VERTEX
  8
0
  5
16EC
 10
-4.24474
 20
-204.012
 30
0.000000
  70
    32
  0
VERTEX
  8
0
  5
16ED
 10
-4.30945
 20
-203.769
 30
0.000000
  70
    32
  0
VERTEX
  8
0
  5
16EE
 10
-4.37778
 20
-203.530
 30
0.000000
  70
    32
  0
VERTEX
  8
0
  5
16EF
 10
-4.44971
 20
-203.293
 30
0.000000
  70
    32
  0
VERTEX
  8
0
  5
16F0
 10
-4.52518
 20
-203.060
 30
0.000000
  70
    32
  0
VERTEX
  8
0
  5
16F1
 10
-4.60416
 20
-202.830
 30
0.000000
  70
    32
  0
VERTEX
  8
0
  5
16F2
 10
-4.68659
 20
-202.603
 30
0.000000
  70
    32
  0
VERTEX
  8
0
  5
16F3
 10
-4.77242
 20
-202.381
 30
0.000000
  70
    32
  0
VERTEX
  8
0
  5
16F4
 10
-4.86161
 20
-202.162
 30
0.000000
  70
    32
  0
VERTEX
  8
0
  5
16F5
 10
-4.95409
 20
-201.947
 30
0.000000
  70
    32
  0
VERTEX
  8
0
  5
16F6
 10
-5.04982
 20
-201.736
 30
0.000000
  70
    32
  0
VERTEX
  8
0
  5
16F7
 10
-5.14874
 20
-201.529
 30
0.000000
  70
    32
  0
VERTEX
  8
0
  5
16F8
 10
-5.25077
 20
-201.327
 30
0.000000
  70
    32
  0
VERTEX
  8
0
  5
16F9
 10
-5.35588
 20
-201.129
 30
0.000000
  70
    32
  0
VERTEX
  8
0
  5
16FA
 10
-5.46398
 20
-200.936
 30
0.000000
  70
    32
  0
VERTEX
  8
0
  5
16FB
 10
-5.57502
 20
-200.747
 30
0.000000
  70
    32
  0
VERTEX
  8
0
  5
16FC
 10
-5.68893
 20
-200.563
 30
0.000000
  70
    32
  0
VERTEX
  8
0
  5
16FD
 10
-5.80564
 20
-200.385
 30
0.000000
  70
    32
  0
VERTEX
  8
0
  5
16FE
 10
-5.92508
 20
-200.211
 30
0.000000
  70
    32
  0
VERTEX
  8
0
  5
16FF
 10
-6.04718
 20
-200.042
 30
0.000000
  70
    32
  0
VERTEX
  8
0
  5
1700
 10
-6.17186
 20
-199.878
 30
0.000000
  70
    32
  0
VERTEX
  8
0
  5
1701
 10
-6.29905
 20
-199.720
 30
0.000000
  70
    32
  0
VERTEX
  8
0
  5
1702
 10
-6.42868
 20
-199.567
 30
0.000000
  70
    32
  0
VERTEX
  8
0
  5
1703
 10
-6.56066
 20
-199.420
 30
0.000000
  70
    32
  0
VERTEX
  8
0
  5
1704
 10
-6.69491
 20
-199.278
 30
0.000000
  70
    32
  0
VERTEX
  8
0
  5
1705
 10
-6.83136
 20
-199.142
 30
0.000000
  70
    32
  0
VERTEX
  8
0
  5
1706
 10
-6.96993
 20
-199.012
 30
0.000000
  70
    32
  0
VERTEX
  8
0
  5
1707
 10
-7.11052
 20
-198.888
 30
0.000000
  70
    32
  0
VERTEX
  8
0
  5
1708
 10
-7.25305
 20
-198.769
 30
0.000000
  70
    32
  0
VERTEX
  8
0
  5
1709
 10
-7.39744
 20
-198.657
 30
0.000000
  70
    32
  0
VERTEX
  8
0
  5
170A
 10
-7.54361
 20
-198.550
 30
0.000000
  70
    32
  0
VERTEX
  8
0
  5
170B
 10
-7.69146
 20
-198.450
 30
0.000000
  70
    32
  0
VERTEX
  8
0
  5
170C
 10
-7.84090
 20
-198.356
 30
0.000000
  70
    32
  0
VERTEX
  8
0
  5
170D
 10
-7.99184
 20
-198.268
 30
0.000000
  70
    32
  0
VERTEX
  8
0
  5
170E
 10
-8.14420
 20
-198.187
 30
0.000000
  70
    32
  0
VERTEX
  8
0
  5
170F
 10
-8.29788
 20
-198.111
 30
0.000000
  70
    32
  0
VERTEX
  8
0
  5
1710
 10
-8.45279
 20
-198.043
 30
0.000000
  70
    32
  0
VERTEX
  8
0
  5
1711
 10
-8.60884
 20
-197.980
 30
0.000000
  70
    32
  0
VERTEX
  8
0
  5
1712
 10
-8.76592
 20
-197.924
 30
0.000000
  70
    32
  0
VERTEX
  8
0
  5
1713
 10
-8.92396
 20
-197.875
 30
0.000000
  70
    32
  0
VERTEX
  8
0
  5
1714
 10
-9.08284
 20
-197.832
 30
0.000000
  70
    32
  0
VERTEX
  8
0
  5
1715
 10
-9.24248
 20
-197.796
 30
0.000000
  70
    32
  0
VERTEX
  8
0
  5
1716
 10
-9.40278
 20
-197.766
 30
0.000000
  70
    32
  0
VERTEX
  8
0
  5
1717
 10
-9.56365
 20
-197.743
 30
0.000000
  70
    32
  0
VERTEX
  8
0
  5
1718
 10
-9.72498
 20
-197.726
 30
0.000000
  70
    32
  0
VERTEX
  8
0
  5
1719
 10
-9.88668
 20
-197.716
 30
0.000000
  70
    32
  0
SEQEND
  8
0
  5
171A
  0
LINE
  5
148E
  8
0
 10
-6.3024773108403087
 20
-199.7160418668949
 30
0.0
 11
-142.27121906397491
 21
-199.7160418668949
 31
0.0
  0
LINE
  5
148F
  8
0
 10
69.758174883824722
 20
-179.7160418668949
 30
0.0
 11
-142.27121906397491
 21
-179.7160418668949
 31
0.0
  0
LINE
  5
1490
  8
0
 10
69.758174883824722
 20
-159.7160418668949
 30
0.0
 11
-142.27121906397491
 21
-159.7160418668949
 31
0.0
  0
LINE
  5
1491
  8
0
 10
69.758174883824722
 20
-139.7160418668949
 30
0.0
 11
-142.27121906397491
 21
-139.7160418668949
 31
0.0
  0
LINE
  5
1492
  8
0
 10
69.758174883824722
 20
-119.7160418668949
 30
0.0
 11
-142.27121906397491
 21
-119.7160418668949
 31
0.0
  0
LINE
  5
1493
  8
0
 10
69.758174883824722
 20
-99.716041866894955
 30
0.0
 11
-142.27121906397491
 21
-99.716041866894926
 31
0.0
  0
LINE
  5
1494
  8
0
 10
69.758174883824722
 20
-79.716041866894955
 30
0.0
 11
-142.27121906397491
 21
-79.716041866894926
 31
0.0
  0
LINE
  5
1495
  8
0
 10
69.758174883824722
 20
-59.716041866895011
 30
0.0
 11
-142.27121906397491
 21
-59.716041866894933
 31
0.0
  0
LINE
  5
1496
  8
0
 10
-9.6351979322033685
 20
-219.7160418668949
 30
0.0
 11
-142.27121906397491
 21
-219.7160418668949
 31
0.0
  0
LINE
  5
1497
  8
0
 10
-7.1008125882492692
 20
-239.71604186689501
 30
0.0
 11
-142.27121906397491
 21
-239.7160418668949
 31
0.0
  0
LINE
  5
1498
  8
0
 10
-15.945129289019331
 20
-259.7160418668949
 30
0.0
 11
-142.27121906397491
 21
-259.7160418668949
 31
0.0
  0
LINE
  5
1499
  8
0
 10
-15.94512928901935
 20
-279.7160418668949
 30
0.0
 11
-142.27121906397491
 21
-279.7160418668949
 31
0.0
  0
LINE
  5
149A
  8
0
 10
-6.302477310555048
 20
-299.71604186689501
 30
0.0
 11
-142.27121906397491
 21
-299.7160418668949
 31
0.0
  0
LINE
  5
149B
  8
0
 10
269.75817488382472
 20
-319.71604186689501
 30
0.0
 11
-142.27121906397491
 21
-319.7160418668949
 31
0.0
  0
CIRCLE
  5
149C
  8
0
 10
7.495890175582189
 20
-249.7160418670675
 30
0.0
 40
2.0
  0
CIRCLE
  5
149D
  8
0
 10
7.9162507290235729
 20
-208.36973234528159
 30
0.0
 40
2.0
  0
LINE
  5
149E
  8
0
 10
-6.3024773108403087
 20
-199.7160418668949
 30
0.0
 11
269.75817488382472
 21
-199.7160418668949
 31
0.0
  0
LINE
  5
149F
  8
0
 10
-10.212229665296629
 20
-219.7160418668949
 30
0.0
 11
269.75817488382472
 21
-219.7160418668949
 31
0.0
  0
LINE
  5
14A0
  8
0
 10
-7.1008125882492834
 20
-239.71604186689501
 30
0.0
 11
269.75817488382472
 21
-239.71604186689501
 31
0.0
  0
LINE
  5
14A1
  8
0
 10
-15.945129289019331
 20
-259.7160418668949
 30
0.0
 11
269.75817488382472
 21
-259.7160418668949
 31
0.0
  0
POLYLINE
  5
14A2
  8
0
 66
     1
 10
0.0
 20
0.0
 30
0.0
 70
   128
 40
0.3
 41
0.3
  0
VERTEX
  5
1593
  8
0
 10
210.6957730972083
 20
274.72890429730199
 30
0.0
  0
VERTEX
  5
1594
  8
0
 10
210.6957730972083
 20
260.0
 30
0.0
 42
0.4142135623730951
  0
VERTEX
  5
1595
  8
0
 10
212.6957730972083
 20
258.0
 30
0.0
  0
VERTEX
  5
1596
  8
0
 10
306.22329288918712
 20
258.0
 30
0.0
 42
0.4142135623730951
  0
VERTEX
  5
1597
  8
0
 10
308.22329288918712
 20
260.0
 30
0.0
  0
VERTEX
  5
1598
  8
0
 10
308.22329288918718
 20
279.44276902405039
 30
0.0
 42
0.4142135623730966
  0
VERTEX
  5
1599
  8
0
 10
306.22329288918718
 20
281.44276902405039
 30
0.0
  0
VERTEX
  5
159A
  8
0
 10
293.22329288918718
 20
281.44276902405039
 30
0.0
 40
0.0
 41
0.0
  0
SEQEND
  5
159B
  8
0
  0
LINE
  5
14A3
  8
0
 10
278.42283500422491
 20
253.0
 30
0.0
 11
-96.870143439361485
 21
253.0
 31
0.0
  0
LINE
  5
14A4
  8
0
 10
-96.870143439361527
 20
215.5
 30
0.0
 11
278.42283500422491
 21
215.5
 31
0.0
  0
LINE
  5
14A5
  8
0
 10
278.42283500422491
 20
215.5
 30
0.0
 11
278.42283500422491
 21
253.0
 31
0.0
  0
POLYLINE
  5
14A6
  8
0
 66
     1
 10
0.0
 20
0.0
 30
0.0
 70
   128
 40
0.5
 41
0.5
  0
VERTEX
  5
159C
  8
0
 10
313.07357959024603
 20
177.60967046577551
 30
0.0
  0
VERTEX
  5
159D
  8
0
 10
325.64273097783018
 20
167.96606623894701
 30
0.0
 42
1.0000000000000051
  0
VERTEX
  5
159E
  8
0
 10
327.56652870475949
 20
170.47347988846141
 30
0.0
  0
VERTEX
  5
159F
  8
0
 10
313.42283500422491
 20
181.3251420371229
 30
0.0
  0
VERTEX
  5
15A0
  8
0
 10
313.42283500422491
 20
282.1188757213913
 30
0.0
 42
0.4142135623730951
  0
VERTEX
  5
15A1
  8
0
 10
311.42283500422491
 20
284.1188757213913
 30
0.0
  0
VERTEX
  5
15A2
  8
0
 10
116.9957906692111
 20
284.1188757213913
 30
0.0
  0
VERTEX
  5
15A3
  8
0
 10
101.1476469991871
 20
269.5490425337486
 30
0.0
  0
SEQEND
  5
15A4
  8
0
  0
POLYLINE
  5
14A7
  8
0
 66
     1
 10
0.0
 20
0.0
 30
0.0
 70
   128
 40
0.3
 41
0.3
  0
VERTEX
  5
15A5
  8
0
 10
173.37947743955601
 20
257.62872764921423
 30
0.0
  0
VERTEX
  5
15A6
  8
0
 10
207.1779852778937
 20
257.62872764921423
 30
0.0
 42
0.4142135623730946
  0
VERTEX
  5
15A7
  8
0
 10
209.1779852778937
 20
259.62872764921423
 30
0.0
  0
VERTEX
  5
15A8
  8
0
 10
209.17798527789381
 20
274.58716130730812
 30
0.0
 42
-0.9999999999999998
  0
VERTEX
  5
15A9
  8
0
 10
212.21356091652279
 20
274.58716130730812
 30
0.0
  0
VERTEX
  5
15AA
  8
0
 10
212.21356091652279
 20
262.98230146133841
 30
0.0
  0
SEQEND
  5
15AB
  8
0
  0
POLYLINE
  5
14A8
  8
0
 66
     1
 10
0.0
 20
0.0
 30
0.0
 70
   128
  0
VERTEX
  5
15AC
  8
0
 10
-183.469051524115
 20
-36.158150335804727
 30
0.0
  0
VERTEX
  5
15AD
  8
0
 10
-9.7374234060980012
 20
-47.87165273663819
 30
0.0
  0
VERTEX
  5
15AE
  8
0
 10
-7.7051451126421284
 20
-54.89296287100899
 30
0.0
  0
VERTEX
  5
15AF
  8
0
 10
-1.7923537835083601
 20
-41.523045034371641
 30
0.0
  0
VERTEX
  5
15B0
  8
0
 10
0.2399245099485938
 20
-48.544355168743351
 30
0.0
  0
VERTEX
  5
15B1
  8
0
 10
158.61832494394449
 20
-58.769250281579843
 30
0.0
  0
SEQEND
  5
15B2
  8
0
  0
POLYLINE
  5
14A9
  8
0
 66
     1
 10
0.0
 20
0.0
 30
0.0
 70
   128
  0
VERTEX
  5
15B3
  8
0
 10
-174.5488014181137
 20
-331.49265347920641
 30
0.0
  0
VERTEX
  5
15B4
  8
0
 10
63.343233175032992
 20
-331.49265347920641
 30
0.0
  0
VERTEX
  5
15B5
  8
0
 10
65.843233175032765
 20
-338.36134702784233
 30
0.0
  0
VERTEX
  5
15B6
  8
0
 10
70.843233175032765
 20
-324.62395993056958
 30
0.0
  0
VERTEX
  5
15B7
  8
0
 10
73.343233175032992
 20
-331.49265347920641
 30
0.0
  0
VERTEX
  5
15B8
  8
0
 10
341.97526170966279
 20
-331.49265347920641
 30
0.0
  0
SEQEND
  5
15B9
  8
0
  0
POLYLINE
  5
14AA
  8
0
 66
     1
 10
0.0
 20
0.0
 30
0.0
 70
   128
  0
VERTEX
  5
15BA
  8
0
 10
-96.870143439361527
 20
304.08395495830177
 30
0.0
  0
VERTEX
  5
15BB
  8
0
 10
-96.870143439361527
 20
238.62473091401489
 30
0.0
  0
VERTEX
  5
15BC
  8
0
 10
-103.738836987997
 20
236.12473091401489
 30
0.0
  0
VERTEX
  5
15BD
  8
0
 10
-90.001449890724416
 20
231.12473091401489
 30
0.0
  0
VERTEX
  5
15BE
  8
0
 10
-96.870143439361527
 20
228.62473091401489
 30
0.0
  0
VERTEX
  5
15BF
  8
0
 10
-96.87014343936157
 20
92.93284442023878
 30
0.0
  0
SEQEND
  5
15C0
  8
0
  0
POLYLINE
  5
14AB
  8
0
 66
     1
 10
0.0
 20
0.0
 30
0.0
 70
   128
  0
VERTEX
  5
15C1
  8
0
 10
252.8795411531774
 20
89.803739893585998
 30
0.0
  0
VERTEX
  5
15C2
  8
0
 10
289.66636545070492
 20
89.803739893585998
 30
0.0
  0
VERTEX
  5
15C3
  8
0
 10
292.16636545070457
 20
82.935046344949114
 30
0.0
  0
VERTEX
  5
15C4
  8
0
 10
297.16636545070457
 20
96.672433442222214
 30
0.0
  0
VERTEX
  5
15C5
  8
0
 10
299.66636545070492
 20
89.803739893585998
 30
0.0
  0
VERTEX
  5
15C6
  8
0
 10
345.89356402098201
 20
89.803739893585998
 30
0.0
  0
SEQEND
  5
15C7
  8
0
  0
LINE
  5
14AD
  8
0
 10
283.42283500422491
 20
102.9999999999997
 30
0.0
 11
283.42283500422491
 21
89.803739893585998
 31
0.0
  0
LINE
  5
14AE
  8
0
 10
308.42283500422491
 20
102.9999999999997
 30
0.0
 11
308.42283500422491
 21
89.803739893585998
 31
0.0
  0
INSERT
  5
14B0
  8
0
  2
*U11
 10
0.0
 20
0.0
 30
0.0
1001
ACAD
1000
DSTYLE
1002
{
1070
   147
1040
1.0
1070
    77
1070
     0
1002
}
  0
INSERT
  5
14B1
  8
0
  2
*U12
 10
0.0
 20
0.0
 30
0.0
  0
INSERT
  5
14B2
  8
0
  2
*U13
 10
0.0
 20
0.0
 30
0.0
1001
ACAD
1000
DSTYLE
1002
{
1070
   147
1040
1.0
1070
    77
1070
     0
1002
}
  0
INSERT
  5
14B3
  8
0
  2
*U14
 10
0.0
 20
0.0
 30
0.0
  0
INSERT
  5
14B4
  8
0
  2
*U15
 10
0.0
 20
0.0
 30
0.0
1001
ACAD
1000
DSTYLE
1002
{
1070
   147
1040
1.0
1070
    77
1070
     0
1002
}
  0
INSERT
  5
14B5
  8
0
  2
*U16
 10
0.0
 20
0.0
 30
0.0
  0
INSERT
  5
14B6
  8
0
  2
*U17
 10
0.0
 20
0.0
 30
0.0
1001
ACAD
1000
DSTYLE
1002
{
1070
   147
1040
1.0
1070
    77
1070
     0
1002
}
  0
INSERT
  5
14B7
  8
0
  2
*U18
 10
0.0
 20
0.0
 30
0.0
  0
INSERT
  5
14B8
  8
0
  2
*U19
 10
0.0
 20
0.0
 30
0.0
1001
ACAD
1000
DSTYLE
1002
{
1070
   147
1040
1.0
1070
    77
1070
     0
1002
}
  0
INSERT
  5
14B9
  8
0
  2
*U20
 10
0.0
 20
0.0
 30
0.0
  0
LINE
  5
14BA
  8
0
 10
308.42283500422491
 20
255.0597543024451
 30
0.0
 11
-96.870143439361527
 21
255.0597543024451
 31
0.0
  0
INSERT
  5
14BB
  8
0
  2
*U21
 10
0.0
 20
0.0
 30
0.0
1001
ACAD
1000
DSTYLE
1002
{
1070
   147
1040
1.0
1070
    77
1070
     0
1002
}
  0
INSERT
  5
14BC
  8
0
  2
*U22
 10
0.0
 20
0.0
 30
0.0
  0
LINE
  5
14BE
  8
0
 10
228.42283500422491
 20
115.5
 30
0.0
 11
-96.870143439361527
 21
115.5
 31
0.0
  0
INSERT
  5
14BF
  8
0
  2
*U23
 10
0.0
 20
0.0
 30
0.0
1001
ACAD
1000
DSTYLE
1002
{
1070
   147
1040
1.0
1070
    77
1070
     0
1002
}
  0
INSERT
  5
14C0
  8
0
  2
*U24
 10
0.0
 20
0.0
 30
0.0
  0
INSERT
  5
14C1
  8
0
  2
*U25
 10
0.0
 20
0.0
 30
0.0
1001
ACAD
1000
DSTYLE
1002
{
1070
   147
1040
1.0
1070
    77
1070
     0
1002
}
  0
INSERT
  5
14C2
  8
0
  2
*U26
 10
0.0
 20
0.0
 30
0.0
  0
INSERT
  5
14C3
  8
0
  2
CORB-34_TRANS_BARGE$0$EW_2
 10
135.31917542501981
 20
284.1188757213913
 30
0.0
  0
POLYLINE
  5
14C5
  8
0
 66
     1
 10
0.0
 20
0.0
 30
0.0
 70
   128
  0
VERTEX
  5
1636
  8
0
 10
-35.96288787772226
 20
-219.7160418668949
 30
0.0
  0
VERTEX
  5
1637
  8
0
 10
-10.789261398389399
 20
-219.7160418668949
 30
0.0
  0
SEQEND
  5
1638
  8
0
  0
POLYLINE
  5
14C6
  8
0
 10
-35.96288787772226
 20
-219.71604186689501
 30
0.0
 66
     1
 70
     8
  0
VERTEX
  8
0
  5
171B
 10
-35.9629
 20
-219.716
 30
0.000000
  70
    32
  0
VERTEX
  8
0
  5
171C
 10
-36.1122
 20
-219.719
 30
0.000000
  70
    32
  0
VERTEX
  8
0
  5
171D
 10
-36.2614
 20
-219.728
 30
0.000000
  70
    32
  0
VERTEX
  8
0
  5
171E
 10
-36.4104
 20
-219.743
 30
0.000000
  70
    32
  0
VERTEX
  8
0
  5
171F
 10
-36.5592
 20
-219.764
 30
0.000000
  70
    32
  0
VERTEX
  8
0
  5
1720
 10
-36.7076
 20
-219.791
 30
0.000000
  70
    32
  0
VERTEX
  8
0
  5
1721
 10
-36.8556
 20
-219.824
 30
0.000000
  70
    32
  0
VERTEX
  8
0
  5
1722
 10
-37.0030
 20
-219.863
 30
0.000000
  70
    32
  0
VERTEX
  8
0
  5
1723
 10
-37.1498
 20
-219.908
 30
0.000000
  70
    32
  0
VERTEX
  8
0
  5
1724
 10
-37.2958
 20
-219.959
 30
0.000000
  70
    32
  0
VERTEX
  8
0
  5
1725
 10
-37.4411
 20
-220.016
 30
0.000000
  70
    32
  0
VERTEX
  8
0
  5
1726
 10
-37.5855
 20
-220.078
 30
0.000000
  70
    32
  0
VERTEX
  8
0
  5
1727
 10
-37.7289
 20
-220.147
 30
0.000000
  70
    32
  0
VERTEX
  8
0
  5
1728
 10
-37.8712
 20
-220.221
 30
0.000000
  70
    32
  0
VERTEX
  8
0
  5
1729
 10
-38.0124
 20
-220.301
 30
0.000000
  70
    32
  0
VERTEX
  8
0
  5
172A
 10
-38.1524
 20
-220.386
 30
0.000000
  70
    32
  0
VERTEX
  8
0
  5
172B
 10
-38.2910
 20
-220.477
 30
0.000000
  70
    32
  0
VERTEX
  8
0
  5
172C
 10
-38.4283
 20
-220.574
 30
0.000000
  70
    32
  0
VERTEX
  8
0
  5
172D
 10
-38.5640
 20
-220.676
 30
0.000000
  70
    32
  0
VERTEX
  8
0
  5
172E
 10
-38.6982
 20
-220.784
 30
0.000000
  70
    32
  0
VERTEX
  8
0
  5
172F
 10
-38.8307
 20
-220.897
 30
0.000000
  70
    32
  0
VERTEX
  8
0
  5
1730
 10
-38.9615
 20
-221.015
 30
0.000000
  70
    32
  0
VERTEX
  8
0
  5
1731
 10
-39.0905
 20
-221.139
 30
0.000000
  70
    32
  0
VERTEX
  8
0
  5
1732
 10
-39.2177
 20
-221.268
 30
0.000000
  70
    32
  0
VERTEX
  8
0
  5
1733
 10
-39.3428
 20
-221.401
 30
0.000000
  70
    32
  0
VERTEX
  8
0
  5
1734
 10
-39.4659
 20
-221.540
 30
0.000000
  70
    32
  0
VERTEX
  8
0
  5
1735
 10
-39.5870
 20
-221.684
 30
0.000000
  70
    32
  0
VERTEX
  8
0
  5
1736
 10
-39.7058
 20
-221.833
 30
0.000000
  70
    32
  0
VERTEX
  8
0
  5
1737
 10
-39.8224
 20
-221.986
 30
0.000000
  70
    32
  0
VERTEX
  8
0
  5
1738
 10
-39.9366
 20
-222.144
 30
0.000000
  70
    32
  0
VERTEX
  8
0
  5
1739
 10
-40.0485
 20
-222.307
 30
0.000000
  70
    32
  0
VERTEX
  8
0
  5
173A
 10
-40.1579
 20
-222.474
 30
0.000000
  70
    32
  0
VERTEX
  8
0
  5
173B
 10
-40.2647
 20
-222.645
 30
0.000000
  70
    32
  0
VERTEX
  8
0
  5
173C
 10
-40.3690
 20
-222.821
 30
0.000000
  70
    32
  0
VERTEX
  8
0
  5
173D
 10
-40.4706
 20
-223.000
 30
0.000000
  70
    32
  0
VERTEX
  8
0
  5
173E
 10
-40.5695
 20
-223.184
 30
0.000000
  70
    32
  0
VERTEX
  8
0
  5
173F
 10
-40.6657
 20
-223.372
 30
0.000000
  70
    32
  0
VERTEX
  8
0
  5
1740
 10
-40.7590
 20
-223.564
 30
0.000000
  70
    32
  0
VERTEX
  8
0
  5
1741
 10
-40.8494
 20
-223.759
 30
0.000000
  70
    32
  0
VERTEX
  8
0
  5
1742
 10
-40.9368
 20
-223.958
 30
0.000000
  70
    32
  0
VERTEX
  8
0
  5
1743
 10
-41.0213
 20
-224.160
 30
0.000000
  70
    32
  0
VERTEX
  8
0
  5
1744
 10
-41.1027
 20
-224.366
 30
0.000000
  70
    32
  0
VERTEX
  8
0
  5
1745
 10
-41.1811
 20
-224.575
 30
0.000000
  70
    32
  0
VERTEX
  8
0
  5
1746
 10
-41.2563
 20
-224.787
 30
0.000000
  70
    32
  0
VERTEX
  8
0
  5
1747
 10
-41.3283
 20
-225.002
 30
0.000000
  70
    32
  0
VERTEX
  8
0
  5
1748
 10
-41.3970
 20
-225.220
 30
0.000000
  70
    32
  0
VERTEX
  8
0
  5
1749
 10
-41.4625
 20
-225.440
 30
0.000000
  70
    32
  0
VERTEX
  8
0
  5
174A
 10
-41.5247
 20
-225.664
 30
0.000000
  70
    32
  0
VERTEX
  8
0
  5
174B
 10
-41.5835
 20
-225.889
 30
0.000000
  70
    32
  0
VERTEX
  8
0
  5
174C
 10
-41.6390
 20
-226.117
 30
0.000000
  70
    32
  0
VERTEX
  8
0
  5
174D
 10
-41.6910
 20
-226.347
 30
0.000000
  70
    32
  0
VERTEX
  8
0
  5
174E
 10
-41.7396
 20
-226.579
 30
0.000000
  70
    32
  0
VERTEX
  8
0
  5
174F
 10
-41.7846
 20
-226.813
 30
0.000000
  70
    32
  0
VERTEX
  8
0
  5
1750
 10
-41.8262
 20
-227.049
 30
0.000000
  70
    32
  0
VERTEX
  8
0
  5
1751
 10
-41.8643
 20
-227.286
 30
0.000000
  70
    32
  0
VERTEX
  8
0
  5
1752
 10
-41.8988
 20
-227.525
 30
0.000000
  70
    32
  0
VERTEX
  8
0
  5
1753
 10
-41.9297
 20
-227.765
 30
0.000000
  70
    32
  0
VERTEX
  8
0
  5
1754
 10
-41.9570
 20
-228.006
 30
0.000000
  70
    32
  0
VERTEX
  8
0
  5
1755
 10
-41.9808
 20
-228.249
 30
0.000000
  70
    32
  0
VERTEX
  8
0
  5
1756
 10
-42.0009
 20
-228.492
 30
0.000000
  70
    32
  0
VERTEX
  8
0
  5
1757
 10
-42.0173
 20
-228.736
 30
0.000000
  70
    32
  0
VERTEX
  8
0
  5
1758
 10
-42.0301
 20
-228.980
 30
0.000000
  70
    32
  0
VERTEX
  8
0
  5
1759
 10
-42.0393
 20
-229.225
 30
0.000000
  70
    32
  0
VERTEX
  8
0
  5
175A
 10
-42.0448
 20
-229.471
 30
0.000000
  70
    32
  0
VERTEX
  8
0
  5
175B
 10
-42.0466
 20
-229.716
 30
0.000000
  70
    32
  0
VERTEX
  8
0
  5
175C
 10
-42.0448
 20
-229.961
 30
0.000000
  70
    32
  0
VERTEX
  8
0
  5
175D
 10
-42.0393
 20
-230.207
 30
0.000000
  70
    32
  0
VERTEX
  8
0
  5
175E
 10
-42.0301
 20
-230.452
 30
0.000000
  70
    32
  0
VERTEX
  8
0
  5
175F
 10
-42.0173
 20
-230.696
 30
0.000000
  70
    32
  0
VERTEX
  8
0
  5
1760
 10
-42.0009
 20
-230.940
 30
0.000000
  70
    32
  0
VERTEX
  8
0
  5
1761
 10
-41.9808
 20
-231.183
 30
0.000000
  70
    32
  0
VERTEX
  8
0
  5
1762
 10
-41.9570
 20
-231.426
 30
0.000000
  70
    32
  0
VERTEX
  8
0
  5
1763
 10
-41.9297
 20
-231.667
 30
0.000000
  70
    32
  0
VERTEX
  8
0
  5
1764
 10
-41.8988
 20
-231.907
 30
0.000000
  70
    32
  0
VERTEX
  8
0
  5
1765
 10
-41.8643
 20
-232.146
 30
0.000000
  70
    32
  0
VERTEX
  8
0
  5
1766
 10
-41.8262
 20
-232.383
 30
0.000000
  70
    32
  0
VERTEX
  8
0
  5
1767
 10
-41.7846
 20
-232.619
 30
0.000000
  70
    32
  0
VERTEX
  8
0
  5
1768
 10
-41.7396
 20
-232.853
 30
0.000000
  70
    32
  0
VERTEX
  8
0
  5
1769
 10
-41.6910
 20
-233.085
 30
0.000000
  70
    32
  0
VERTEX
  8
0
  5
176A
 10
-41.6390
 20
-233.315
 30
0.000000
  70
    32
  0
VERTEX
  8
0
  5
176B
 10
-41.5835
 20
-233.543
 30
0.000000
  70
    32
  0
VERTEX
  8
0
  5
176C
 10
-41.5247
 20
-233.768
 30
0.000000
  70
    32
  0
VERTEX
  8
0
  5
176D
 10
-41.4625
 20
-233.992
 30
0.000000
  70
    32
  0
VERTEX
  8
0
  5
176E
 10
-41.3970
 20
-234.212
 30
0.000000
  70
    32
  0
VERTEX
  8
0
  5
176F
 10
-41.3283
 20
-234.430
 30
0.000000
  70
    32
  0
VERTEX
  8
0
  5
1770
 10
-41.2563
 20
-234.645
 30
0.000000
  70
    32
  0
VERTEX
  8
0
  5
1771
 10
-41.1811
 20
-234.857
 30
0.000000
  70
    32
  0
VERTEX
  8
0
  5
1772
 10
-41.1027
 20
-235.066
 30
0.000000
  70
    32
  0
VERTEX
  8
0
  5
1773
 10
-41.0213
 20
-235.272
 30
0.000000
  70
    32
  0
VERTEX
  8
0
  5
1774
 10
-40.9368
 20
-235.474
 30
0.000000
  70
    32
  0
VERTEX
  8
0
  5
1775
 10
-40.8494
 20
-235.673
 30
0.000000
  70
    32
  0
VERTEX
  8
0
  5
1776
 10
-40.7590
 20
-235.868
 30
0.000000
  70
    32
  0
VERTEX
  8
0
  5
1777
 10
-40.6657
 20
-236.060
 30
0.000000
  70
    32
  0
VERTEX
  8
0
  5
1778
 10
-40.5695
 20
-236.248
 30
0.000000
  70
    32
  0
VERTEX
  8
0
  5
1779
 10
-40.4706
 20
-236.432
 30
0.000000
  70
    32
  0
VERTEX
  8
0
  5
177A
 10
-40.3690
 20
-236.611
 30
0.000000
  70
    32
  0
VERTEX
  8
0
  5
177B
 10
-40.2647
 20
-236.787
 30
0.000000
  70
    32
  0
VERTEX
  8
0
  5
177C
 10
-40.1579
 20
-236.959
 30
0.000000
  70
    32
  0
VERTEX
  8
0
  5
177D
 10
-40.0485
 20
-237.126
 30
0.000000
  70
    32
  0
VERTEX
  8
0
  5
177E
 10
-39.9366
 20
-237.288
 30
0.000000
  70
    32
  0
VERTEX
  8
0
  5
177F
 10
-39.8224
 20
-237.446
 30
0.000000
  70
    32
  0
VERTEX
  8
0
  5
1780
 10
-39.7058
 20
-237.600
 30
0.000000
  70
    32
  0
VERTEX
  8
0
  5
1781
 10
-39.5870
 20
-237.748
 30
0.000000
  70
    32
  0
VERTEX
  8
0
  5
1782
 10
-39.4659
 20
-237.892
 30
0.000000
  70
    32
  0
VERTEX
  8
0
  5
1783
 10
-39.3428
 20
-238.031
 30
0.000000
  70
    32
  0
VERTEX
  8
0
  5
1784
 10
-39.2177
 20
-238.165
 30
0.000000
  70
    32
  0
VERTEX
  8
0
  5
1785
 10
-39.0905
 20
-238.293
 30
0.000000
  70
    32
  0
VERTEX
  8
0
  5
1786
 10
-38.9615
 20
-238.417
 30
0.000000
  70
    32
  0
VERTEX
  8
0
  5
1787
 10
-38.8307
 20
-238.535
 30
0.000000
  70
    32
  0
VERTEX
  8
0
  5
1788
 10
-38.6982
 20
-238.648
 30
0.000000
  70
    32
  0
VERTEX
  8
0
  5
1789
 10
-38.5640
 20
-238.756
 30
0.000000
  70
    32
  0
VERTEX
  8
0
  5
178A
 10
-38.4283
 20
-238.858
 30
0.000000
  70
    32
  0
VERTEX
  8
0
  5
178B
 10
-38.2910
 20
-238.955
 30
0.000000
  70
    32
  0
VERTEX
  8
0
  5
178C
 10
-38.1524
 20
-239.046
 30
0.000000
  70
    32
  0
VERTEX
  8
0
  5
178D
 10
-38.0124
 20
-239.131
 30
0.000000
  70
    32
  0
VERTEX
  8
0
  5
178E
 10
-37.8712
 20
-239.211
 30
0.000000
  70
    32
  0
VERTEX
  8
0
  5
178F
 10
-37.7289
 20
-239.285
 30
0.000000
  70
    32
  0
VERTEX
  8
0
  5
1790
 10
-37.5855
 20
-239.354
 30
0.000000
  70
    32
  0
VERTEX
  8
0
  5
1791
 10
-37.4411
 20
-239.416
 30
0.000000
  70
    32
  0
VERTEX
  8
0
  5
1792
 10
-37.2958
 20
-239.473
 30
0.000000
  70
    32
  0
VERTEX
  8
0
  5
1793
 10
-37.1498
 20
-239.524
 30
0.000000
  70
    32
  0
VERTEX
  8
0
  5
1794
 10
-37.0030
 20
-239.569
 30
0.000000
  70
    32
  0
VERTEX
  8
0
  5
1795
 10
-36.8556
 20
-239.608
 30
0.000000
  70
    32
  0
VERTEX
  8
0
  5
1796
 10
-36.7076
 20
-239.641
 30
0.000000
  70
    32
  0
VERTEX
  8
0
  5
1797
 10
-36.5592
 20
-239.668
 30
0.000000
  70
    32
  0
VERTEX
  8
0
  5
1798
 10
-36.4104
 20
-239.689
 30
0.000000
  70
    32
  0
VERTEX
  8
0
  5
1799
 10
-36.2614
 20
-239.704
 30
0.000000
  70
    32
  0
VERTEX
  8
0
  5
179A
 10
-36.1122
 20
-239.713
 30
0.000000
  70
    32
  0
VERTEX
  8
0
  5
179B
 10
-35.9629
 20
-239.716
 30
0.000000
  70
    32
  0
SEQEND
  8
0
  5
179C
  0
POLYLINE
  5
14C7
  8
0
 10
-10.78926139838941
 20
-239.71604186689501
 30
0.0
 66
     1
 70
     8
  0
VERTEX
  8
0
  5
179D
 10
-10.7893
 20
-239.716
 30
0.000000
  70
    32
  0
VERTEX
  8
0
  5
179E
 10
-10.6400
 20
-239.719
 30
0.000000
  70
    32
  0
VERTEX
  8
0
  5
179F
 10
-10.4907
 20
-239.728
 30
0.000000
  70
    32
  0
VERTEX
  8
0
  5
17A0
 10
-10.3417
 20
-239.743
 30
0.000000
  70
    32
  0
VERTEX
  8
0
  5
17A1
 10
-10.1930
 20
-239.764
 30
0.000000
  70
    32
  0
VERTEX
  8
0
  5
17A2
 10
-10.0445
 20
-239.791
 30
0.000000
  70
    32
  0
VERTEX
  8
0
  5
17A3
 10
-9.89659
 20
-239.824
 30
0.000000
  70
    32
  0
VERTEX
  8
0
  5
17A4
 10
-9.74918
 20
-239.863
 30
0.000000
  70
    32
  0
VERTEX
  8
0
  5
17A5
 10
-9.60239
 20
-239.908
 30
0.000000
  70
    32
  0
VERTEX
  8
0
  5
17A6
 10
-9.45631
 20
-239.959
 30
0.000000
  70
    32
  0
VERTEX
  8
0
  5
17A7
 10
-9.31104
 20
-240.016
 30
0.000000
  70
    32
  0
VERTEX
  8
0
  5
17A8
 10
-9.16666
 20
-240.078
 30
0.000000
  70
    32
  0
VERTEX
  8
0
  5
17A9
 10
-9.02325
 20
-240.147
 30
0.000000
  70
    32
  0
VERTEX
  8
0
  5
17AA
 10
-8.88091
 20
-240.221
 30
0.000000
  70
    32
  0
VERTEX
  8
0
  5
17AB
 10
-8.73972
 20
-240.301
 30
0.000000
  70
    32
  0
VERTEX
  8
0
  5
17AC
 10
-8.59976
 20
-240.386
 30
0.000000
  70
    32
  0
VERTEX
  8
0
  5
17AD
 10
-8.46112
 20
-240.477
 30
0.000000
  70
    32
  0
VERTEX
  8
0
  5
17AE
 10
-8.32389
 20
-240.574
 30
0.000000
  70
    32
  0
VERTEX
  8
0
  5
17AF
 10
-8.18814
 20
-240.676
 30
0.000000
  70
    32
  0
VERTEX
  8
0
  5
17B0
 10
-8.05395
 20
-240.784
 30
0.000000
  70
    32
  0
VERTEX
  8
0
  5
17B1
 10
-7.92141
 20
-240.897
 30
0.000000
  70
    32
  0
VERTEX
  8
0
  5
17B2
 10
-7.79061
 20
-241.015
 30
0.000000
  70
    32
  0
VERTEX
  8
0
  5
17B3
 10
-7.66160
 20
-241.139
 30
0.000000
  70
    32
  0
VERTEX
  8
0
  5
17B4
 10
-7.53448
 20
-241.268
 30
0.000000
  70
    32
  0
VERTEX
  8
0
  5
17B5
 10
-7.40933
 20
-241.401
 30
0.000000
  70
    32
  0
VERTEX
  8
0
  5
17B6
 10
-7.28620
 20
-241.540
 30
0.000000
  70
    32
  0
VERTEX
  8
0
  5
17B7
 10
-7.16519
 20
-241.684
 30
0.000000
  70
    32
  0
VERTEX
  8
0
  5
17B8
 10
-7.04636
 20
-241.833
 30
0.000000
  70
    32
  0
VERTEX
  8
0
  5
17B9
 10
-6.92979
 20
-241.986
 30
0.000000
  70
    32
  0
VERTEX
  8
0
  5
17BA
 10
-6.81554
 20
-242.144
 30
0.000000
  70
    32
  0
VERTEX
  8
0
  5
17BB
 10
-6.70368
 20
-242.307
 30
0.000000
  70
    32
  0
VERTEX
  8
0
  5
17BC
 10
-6.59429
 20
-242.474
 30
0.000000
  70
    32
  0
VERTEX
  8
0
  5
17BD
 10
-6.48742
 20
-242.645
 30
0.000000
  70
    32
  0
VERTEX
  8
0
  5
17BE
 10
-6.38314
 20
-242.821
 30
0.000000
  70
    32
  0
VERTEX
  8
0
  5
17BF
 10
-6.28152
 20
-243.000
 30
0.000000
  70
    32
  0
VERTEX
  8
0
  5
17C0
 10
-6.18261
 20
-243.184
 30
0.000000
  70
    32
  0
VERTEX
  8
0
  5
17C1
 10
-6.08648
 20
-243.372
 30
0.000000
  70
    32
  0
VERTEX
  8
0
  5
17C2
 10
-5.99318
 20
-243.564
 30
0.000000
  70
    32
  0
VERTEX
  8
0
  5
17C3
 10
-5.90277
 20
-243.759
 30
0.000000
  70
    32
  0
VERTEX
  8
0
  5
17C4
 10
-5.81530
 20
-243.958
 30
0.000000
  70
    32
  0
VERTEX
  8
0
  5
17C5
 10
-5.73083
 20
-244.160
 30
0.000000
  70
    32
  0
VERTEX
  8
0
  5
17C6
 10
-5.64941
 20
-244.366
 30
0.000000
  70
    32
  0
VERTEX
  8
0
  5
17C7
 10
-5.57108
 20
-244.575
 30
0.000000
  70
    32
  0
VERTEX
  8
0
  5
17C8
 10
-5.49589
 20
-244.787
 30
0.000000
  70
    32
  0
VERTEX
  8
0
  5
17C9
 10
-5.42390
 20
-245.002
 30
0.000000
  70
    32
  0
VERTEX
  8
0
  5
17CA
 10
-5.35513
 20
-245.220
 30
0.000000
  70
    32
  0
VERTEX
  8
0
  5
17CB
 10
-5.28964
 20
-245.440
 30
0.000000
  70
    32
  0
VERTEX
  8
0
  5
17CC
 10
-5.22746
 20
-245.664
 30
0.000000
  70
    32
  0
VERTEX
  8
0
  5
17CD
 10
-5.16864
 20
-245.889
 30
0.000000
  70
    32
  0
VERTEX
  8
0
  5
17CE
 10
-5.11319
 20
-246.117
 30
0.000000
  70
    32
  0
VERTEX
  8
0
  5
17CF
 10
-5.06117
 20
-246.347
 30
0.000000
  70
    32
  0
VERTEX
  8
0
  5
17D0
 10
-5.01260
 20
-246.579
 30
0.000000
  70
    32
  0
VERTEX
  8
0
  5
17D1
 10
-4.96750
 20
-246.813
 30
0.000000
  70
    32
  0
VERTEX
  8
0
  5
17D2
 10
-4.92592
 20
-247.049
 30
0.000000
  70
    32
  0
VERTEX
  8
0
  5
17D3
 10
-4.88786
 20
-247.286
 30
0.000000
  70
    32
  0
VERTEX
  8
0
  5
17D4
 10
-4.85336
 20
-247.525
 30
0.000000
  70
    32
  0
VERTEX
  8
0
  5
17D5
 10
-4.82244
 20
-247.765
 30
0.000000
  70
    32
  0
VERTEX
  8
0
  5
17D6
 10
-4.79511
 20
-248.006
 30
0.000000
  70
    32
  0
VERTEX
  8
0
  5
17D7
 10
-4.77139
 20
-248.249
 30
0.000000
  70
    32
  0
VERTEX
  8
0
  5
17D8
 10
-4.75129
 20
-248.492
 30
0.000000
  70
    32
  0
VERTEX
  8
0
  5
17D9
 10
-4.73483
 20
-248.736
 30
0.000000
  70
    32
  0
VERTEX
  8
0
  5
17DA
 10
-4.72202
 20
-248.980
 30
0.000000
  70
    32
  0
VERTEX
  8
0
  5
17DB
 10
-4.71287
 20
-249.225
 30
0.000000
  70
    32
  0
VERTEX
  8
0
  5
17DC
 10
-4.70737
 20
-249.471
 30
0.000000
  70
    32
  0
VERTEX
  8
0
  5
17DD
 10
-4.70554
 20
-249.716
 30
0.000000
  70
    32
  0
VERTEX
  8
0
  5
17DE
 10
-4.70737
 20
-249.961
 30
0.000000
  70
    32
  0
VERTEX
  8
0
  5
17DF
 10
-4.71287
 20
-250.207
 30
0.000000
  70
    32
  0
VERTEX
  8
0
  5
17E0
 10
-4.72202
 20
-250.452
 30
0.000000
  70
    32
  0
VERTEX
  8
0
  5
17E1
 10
-4.73483
 20
-250.696
 30
0.000000
  70
    32
  0
VERTEX
  8
0
  5
17E2
 10
-4.75129
 20
-250.940
 30
0.000000
  70
    32
  0
VERTEX
  8
0
  5
17E3
 10
-4.77139
 20
-251.183
 30
0.000000
  70
    32
  0
VERTEX
  8
0
  5
17E4
 10
-4.79511
 20
-251.426
 30
0.000000
  70
    32
  0
VERTEX
  8
0
  5
17E5
 10
-4.82244
 20
-251.667
 30
0.000000
  70
    32
  0
VERTEX
  8
0
  5
17E6
 10
-4.85336
 20
-251.907
 30
0.000000
  70
    32
  0
VERTEX
  8
0
  5
17E7
 10
-4.88786
 20
-252.146
 30
0.000000
  70
    32
  0
VERTEX
  8
0
  5
17E8
 10
-4.92592
 20
-252.383
 30
0.000000
  70
    32
  0
VERTEX
  8
0
  5
17E9
 10
-4.96750
 20
-252.619
 30
0.000000
  70
    32
  0
VERTEX
  8
0
  5
17EA
 10
-5.01260
 20
-252.853
 30
0.000000
  70
    32
  0
VERTEX
  8
0
  5
17EB
 10
-5.06117
 20
-253.085
 30
0.000000
  70
    32
  0
VERTEX
  8
0
  5
17EC
 10
-5.11319
 20
-253.315
 30
0.000000
  70
    32
  0
VERTEX
  8
0
  5
17ED
 10
-5.16864
 20
-253.543
 30
0.000000
  70
    32
  0
VERTEX
  8
0
  5
17EE
 10
-5.22746
 20
-253.768
 30
0.000000
  70
    32
  0
VERTEX
  8
0
  5
17EF
 10
-5.28964
 20
-253.992
 30
0.000000
  70
    32
  0
VERTEX
  8
0
  5
17F0
 10
-5.35513
 20
-254.212
 30
0.000000
  70
    32
  0
VERTEX
  8
0
  5
17F1
 10
-5.42390
 20
-254.430
 30
0.000000
  70
    32
  0
VERTEX
  8
0
  5
17F2
 10
-5.49589
 20
-254.645
 30
0.000000
  70
    32
  0
VERTEX
  8
0
  5
17F3
 10
-5.57108
 20
-254.857
 30
0.000000
  70
    32
  0
VERTEX
  8
0
  5
17F4
 10
-5.64941
 20
-255.066
 30
0.000000
  70
    32
  0
VERTEX
  8
0
  5
17F5
 10
-5.73083
 20
-255.272
 30
0.000000
  70
    32
  0
VERTEX
  8
0
  5
17F6
 10
-5.81530
 20
-255.474
 30
0.000000
  70
    32
  0
VERTEX
  8
0
  5
17F7
 10
-5.90277
 20
-255.673
 30
0.000000
  70
    32
  0
VERTEX
  8
0
  5
17F8
 10
-5.99318
 20
-255.868
 30
0.000000
  70
    32
  0
VERTEX
  8
0
  5
17F9
 10
-6.08648
 20
-256.060
 30
0.000000
  70
    32
  0
VERTEX
  8
0
  5
17FA
 10
-6.18261
 20
-256.248
 30
0.000000
  70
    32
  0
VERTEX
  8
0
  5
17FB
 10
-6.28152
 20
-256.432
 30
0.000000
  70
    32
  0
VERTEX
  8
0
  5
17FC
 10
-6.38314
 20
-256.611
 30
0.000000
  70
    32
  0
VERTEX
  8
0
  5
17FD
 10
-6.48742
 20
-256.787
 30
0.000000
  70
    32
  0
VERTEX
  8
0
  5
17FE
 10
-6.59429
 20
-256.959
 30
0.000000
  70
    32
  0
VERTEX
  8
0
  5
17FF
 10
-6.70368
 20
-257.126
 30
0.000000
  70
    32
  0
VERTEX
  8
0
  5
1800
 10
-6.81554
 20
-257.288
 30
0.000000
  70
    32
  0
VERTEX
  8
0
  5
1801
 10
-6.92979
 20
-257.446
 30
0.000000
  70
    32
  0
VERTEX
  8
0
  5
1802
 10
-7.04636
 20
-257.600
 30
0.000000
  70
    32
  0
VERTEX
  8
0
  5
1803
 10
-7.16519
 20
-257.748
 30
0.000000
  70
    32
  0
VERTEX
  8
0
  5
1804
 10
-7.28620
 20
-257.892
 30
0.000000
  70
    32
  0
VERTEX
  8
0
  5
1805
 10
-7.40933
 20
-258.031
 30
0.000000
  70
    32
  0
VERTEX
  8
0
  5
1806
 10
-7.53448
 20
-258.165
 30
0.000000
  70
    32
  0
VERTEX
  8
0
  5
1807
 10
-7.66160
 20
-258.293
 30
0.000000
  70
    32
  0
VERTEX
  8
0
  5
1808
 10
-7.79061
 20
-258.417
 30
0.000000
  70
    32
  0
VERTEX
  8
0
  5
1809
 10
-7.92141
 20
-258.535
 30
0.000000
  70
    32
  0
VERTEX
  8
0
  5
180A
 10
-8.05395
 20
-258.648
 30
0.000000
  70
    32
  0
VERTEX
  8
0
  5
180B
 10
-8.18814
 20
-258.756
 30
0.000000
  70
    32
  0
VERTEX
  8
0
  5
180C
 10
-8.32389
 20
-258.858
 30
0.000000
  70
    32
  0
VERTEX
  8
0
  5
180D
 10
-8.46112
 20
-258.955
 30
0.000000
  70
    32
  0
VERTEX
  8
0
  5
180E
 10
-8.59976
 20
-259.046
 30
0.000000
  70
    32
  0
VERTEX
  8
0
  5
180F
 10
-8.73972
 20
-259.131
 30
0.000000
  70
    32
  0
VERTEX
  8
0
  5
1810
 10
-8.88091
 20
-259.211
 30
0.000000
  70
    32
  0
VERTEX
  8
0
  5
1811
 10
-9.02325
 20
-259.285
 30
0.000000
  70
    32
  0
VERTEX
  8
0
  5
1812
 10
-9.16666
 20
-259.354
 30
0.000000
  70
    32
  0
VERTEX
  8
0
  5
1813
 10
-9.31104
 20
-259.416
 30
0.000000
  70
    32
  0
VERTEX
  8
0
  5
1814
 10
-9.45631
 20
-259.473
 30
0.000000
  70
    32
  0
VERTEX
  8
0
  5
1815
 10
-9.60239
 20
-259.524
 30
0.000000
  70
    32
  0
VERTEX
  8
0
  5
1816
 10
-9.74918
 20
-259.569
 30
0.000000
  70
    32
  0
VERTEX
  8
0
  5
1817
 10
-9.89659
 20
-259.608
 30
0.000000
  70
    32
  0
VERTEX
  8
0
  5
1818
 10
-10.0445
 20
-259.641
 30
0.000000
  70
    32
  0
VERTEX
  8
0
  5
1819
 10
-10.1930
 20
-259.668
 30
0.000000
  70
    32
  0
VERTEX
  8
0
  5
181A
 10
-10.3417
 20
-259.689
 30
0.000000
  70
    32
  0
VERTEX
  8
0
  5
181B
 10
-10.4907
 20
-259.704
 30
0.000000
  70
    32
  0
VERTEX
  8
0
  5
181C
 10
-10.6400
 20
-259.713
 30
0.000000
  70
    32
  0
VERTEX
  8
0
  5
181D
 10
-10.7893
 20
-259.716
 30
0.000000
  70
    32
  0
SEQEND
  8
0
  5
181E
  0
POLYLINE
  5
14C8
  8
0
 10
-35.96288787772226
 20
-259.7160418668949
 30
0.0
 66
     1
 70
     8
  0
VERTEX
  8
0
  5
181F
 10
-35.9629
 20
-259.716
 30
0.000000
  70
    32
  0
VERTEX
  8
0
  5
1820
 10
-36.1122
 20
-259.719
 30
0.000000
  70
    32
  0
VERTEX
  8
0
  5
1821
 10
-36.2614
 20
-259.728
 30
0.000000
  70
    32
  0
VERTEX
  8
0
  5
1822
 10
-36.4104
 20
-259.743
 30
0.000000
  70
    32
  0
VERTEX
  8
0
  5
1823
 10
-36.5592
 20
-259.764
 30
0.000000
  70
    32
  0
VERTEX
  8
0
  5
1824
 10
-36.7076
 20
-259.791
 30
0.000000
  70
    32
  0
VERTEX
  8
0
  5
1825
 10
-36.8556
 20
-259.824
 30
0.000000
  70
    32
  0
VERTEX
  8
0
  5
1826
 10
-37.0030
 20
-259.863
 30
0.000000
  70
    32
  0
VERTEX
  8
0
  5
1827
 10
-37.1498
 20
-259.908
 30
0.000000
  70
    32
  0
VERTEX
  8
0
  5
1828
 10
-37.2958
 20
-259.959
 30
0.000000
  70
    32
  0
VERTEX
  8
0
  5
1829
 10
-37.4411
 20
-260.016
 30
0.000000
  70
    32
  0
VERTEX
  8
0
  5
182A
 10
-37.5855
 20
-260.078
 30
0.000000
  70
    32
  0
VERTEX
  8
0
  5
182B
 10
-37.7289
 20
-260.147
 30
0.000000
  70
    32
  0
VERTEX
  8
0
  5
182C
 10
-37.8712
 20
-260.221
 30
0.000000
  70
    32
  0
VERTEX
  8
0
  5
182D
 10
-38.0124
 20
-260.301
 30
0.000000
  70
    32
  0
VERTEX
  8
0
  5
182E
 10
-38.1524
 20
-260.386
 30
0.000000
  70
    32
  0
VERTEX
  8
0
  5
182F
 10
-38.2910
 20
-260.477
 30
0.000000
  70
    32
  0
VERTEX
  8
0
  5
1830
 10
-38.4283
 20
-260.574
 30
0.000000
  70
    32
  0
VERTEX
  8
0
  5
1831
 10
-38.5640
 20
-260.676
 30
0.000000
  70
    32
  0
VERTEX
  8
0
  5
1832
 10
-38.6982
 20
-260.784
 30
0.000000
  70
    32
  0
VERTEX
  8
0
  5
1833
 10
-38.8307
 20
-260.897
 30
0.000000
  70
    32
  0
VERTEX
  8
0
  5
1834
 10
-38.9615
 20
-261.015
 30
0.000000
  70
    32
  0
VERTEX
  8
0
  5
1835
 10
-39.0905
 20
-261.139
 30
0.000000
  70
    32
  0
VERTEX
  8
0
  5
1836
 10
-39.2177
 20
-261.268
 30
0.000000
  70
    32
  0
VERTEX
  8
0
  5
1837
 10
-39.3428
 20
-261.401
 30
0.000000
  70
    32
  0
VERTEX
  8
0
  5
1838
 10
-39.4659
 20
-261.540
 30
0.000000
  70
    32
  0
VERTEX
  8
0
  5
1839
 10
-39.5870
 20
-261.684
 30
0.000000
  70
    32
  0
VERTEX
  8
0
  5
183A
 10
-39.7058
 20
-261.833
 30
0.000000
  70
    32
  0
VERTEX
  8
0
  5
183B
 10
-39.8224
 20
-261.986
 30
0.000000
  70
    32
  0
VERTEX
  8
0
  5
183C
 10
-39.9366
 20
-262.144
 30
0.000000
  70
    32
  0
VERTEX
  8
0
  5
183D
 10
-40.0485
 20
-262.307
 30
0.000000
  70
    32
  0
VERTEX
  8
0
  5
183E
 10
-40.1579
 20
-262.474
 30
0.000000
  70
    32
  0
VERTEX
  8
0
  5
183F
 10
-40.2647
 20
-262.645
 30
0.000000
  70
    32
  0
VERTEX
  8
0
  5
1840
 10
-40.3690
 20
-262.821
 30
0.000000
  70
    32
  0
VERTEX
  8
0
  5
1841
 10
-40.4706
 20
-263.000
 30
0.000000
  70
    32
  0
VERTEX
  8
0
  5
1842
 10
-40.5695
 20
-263.184
 30
0.000000
  70
    32
  0
VERTEX
  8
0
  5
1843
 10
-40.6657
 20
-263.372
 30
0.000000
  70
    32
  0
VERTEX
  8
0
  5
1844
 10
-40.7590
 20
-263.564
 30
0.000000
  70
    32
  0
VERTEX
  8
0
  5
1845
 10
-40.8494
 20
-263.759
 30
0.000000
  70
    32
  0
VERTEX
  8
0
  5
1846
 10
-40.9368
 20
-263.958
 30
0.000000
  70
    32
  0
VERTEX
  8
0
  5
1847
 10
-41.0213
 20
-264.160
 30
0.000000
  70
    32
  0
VERTEX
  8
0
  5
1848
 10
-41.1027
 20
-264.366
 30
0.000000
  70
    32
  0
VERTEX
  8
0
  5
1849
 10
-41.1811
 20
-264.575
 30
0.000000
  70
    32
  0
VERTEX
  8
0
  5
184A
 10
-41.2563
 20
-264.787
 30
0.000000
  70
    32
  0
VERTEX
  8
0
  5
184B
 10
-41.3283
 20
-265.002
 30
0.000000
  70
    32
  0
VERTEX
  8
0
  5
184C
 10
-41.3970
 20
-265.220
 30
0.000000
  70
    32
  0
VERTEX
  8
0
  5
184D
 10
-41.4625
 20
-265.440
 30
0.000000
  70
    32
  0
VERTEX
  8
0
  5
184E
 10
-41.5247
 20
-265.664
 30
0.000000
  70
    32
  0
VERTEX
  8
0
  5
184F
 10
-41.5835
 20
-265.889
 30
0.000000
  70
    32
  0
VERTEX
  8
0
  5
1850
 10
-41.6390
 20
-266.117
 30
0.000000
  70
    32
  0
VERTEX
  8
0
  5
1851
 10
-41.6910
 20
-266.347
 30
0.000000
  70
    32
  0
VERTEX
  8
0
  5
1852
 10
-41.7396
 20
-266.579
 30
0.000000
  70
    32
  0
VERTEX
  8
0
  5
1853
 10
-41.7846
 20
-266.813
 30
0.000000
  70
    32
  0
VERTEX
  8
0
  5
1854
 10
-41.8262
 20
-267.049
 30
0.000000
  70
    32
  0
VERTEX
  8
0
  5
1855
 10
-41.8643
 20
-267.286
 30
0.000000
  70
    32
  0
VERTEX
  8
0
  5
1856
 10
-41.8988
 20
-267.525
 30
0.000000
  70
    32
  0
VERTEX
  8
0
  5
1857
 10
-41.9297
 20
-267.765
 30
0.000000
  70
    32
  0
VERTEX
  8
0
  5
1858
 10
-41.9570
 20
-268.006
 30
0.000000
  70
    32
  0
VERTEX
  8
0
  5
1859
 10
-41.9808
 20
-268.249
 30
0.000000
  70
    32
  0
VERTEX
  8
0
  5
185A
 10
-42.0009
 20
-268.492
 30
0.000000
  70
    32
  0
VERTEX
  8
0
  5
185B
 10
-42.0173
 20
-268.736
 30
0.000000
  70
    32
  0
VERTEX
  8
0
  5
185C
 10
-42.0301
 20
-268.980
 30
0.000000
  70
    32
  0
VERTEX
  8
0
  5
185D
 10
-42.0393
 20
-269.225
 30
0.000000
  70
    32
  0
VERTEX
  8
0
  5
185E
 10
-42.0448
 20
-269.471
 30
0.000000
  70
    32
  0
VERTEX
  8
0
  5
185F
 10
-42.0466
 20
-269.716
 30
0.000000
  70
    32
  0
VERTEX
  8
0
  5
1860
 10
-42.0448
 20
-269.961
 30
0.000000
  70
    32
  0
VERTEX
  8
0
  5
1861
 10
-42.0393
 20
-270.207
 30
0.000000
  70
    32
  0
VERTEX
  8
0
  5
1862
 10
-42.0301
 20
-270.452
 30
0.000000
  70
    32
  0
VERTEX
  8
0
  5
1863
 10
-42.0173
 20
-270.696
 30
0.000000
  70
    32
  0
VERTEX
  8
0
  5
1864
 10
-42.0009
 20
-270.940
 30
0.000000
  70
    32
  0
VERTEX
  8
0
  5
1865
 10
-41.9808
 20
-271.183
 30
0.000000
  70
    32
  0
VERTEX
  8
0
  5
1866
 10
-41.9570
 20
-271.426
 30
0.000000
  70
    32
  0
VERTEX
  8
0
  5
1867
 10
-41.9297
 20
-271.667
 30
0.000000
  70
    32
  0
VERTEX
  8
0
  5
1868
 10
-41.8988
 20
-271.907
 30
0.000000
  70
    32
  0
VERTEX
  8
0
  5
1869
 10
-41.8643
 20
-272.146
 30
0.000000
  70
    32
  0
VERTEX
  8
0
  5
186A
 10
-41.8262
 20
-272.383
 30
0.000000
  70
    32
  0
VERTEX
  8
0
  5
186B
 10
-41.7846
 20
-272.619
 30
0.000000
  70
    32
  0
VERTEX
  8
0
  5
186C
 10
-41.7396
 20
-272.853
 30
0.000000
  70
    32
  0
VERTEX
  8
0
  5
186D
 10
-41.6910
 20
-273.085
 30
0.000000
  70
    32
  0
VERTEX
  8
0
  5
186E
 10
-41.6390
 20
-273.315
 30
0.000000
  70
    32
  0
VERTEX
  8
0
  5
186F
 10
-41.5835
 20
-273.543
 30
0.000000
  70
    32
  0
VERTEX
  8
0
  5
1870
 10
-41.5247
 20
-273.768
 30
0.000000
  70
    32
  0
VERTEX
  8
0
  5
1871
 10
-41.4625
 20
-273.992
 30
0.000000
  70
    32
  0
VERTEX
  8
0
  5
1872
 10
-41.3970
 20
-274.212
 30
0.000000
  70
    32
  0
VERTEX
  8
0
  5
1873
 10
-41.3283
 20
-274.430
 30
0.000000
  70
    32
  0
VERTEX
  8
0
  5
1874
 10
-41.2563
 20
-274.645
 30
0.000000
  70
    32
  0
VERTEX
  8
0
  5
1875
 10
-41.1811
 20
-274.857
 30
0.000000
  70
    32
  0
VERTEX
  8
0
  5
1876
 10
-41.1027
 20
-275.066
 30
0.000000
  70
    32
  0
VERTEX
  8
0
  5
1877
 10
-41.0213
 20
-275.272
 30
0.000000
  70
    32
  0
VERTEX
  8
0
  5
1878
 10
-40.9368
 20
-275.474
 30
0.000000
  70
    32
  0
VERTEX
  8
0
  5
1879
 10
-40.8494
 20
-275.673
 30
0.000000
  70
    32
  0
VERTEX
  8
0
  5
187A
 10
-40.7590
 20
-275.868
 30
0.000000
  70
    32
  0
VERTEX
  8
0
  5
187B
 10
-40.6657
 20
-276.060
 30
0.000000
  70
    32
  0
VERTEX
  8
0
  5
187C
 10
-40.5695
 20
-276.248
 30
0.000000
  70
    32
  0
VERTEX
  8
0
  5
187D
 10
-40.4706
 20
-276.432
 30
0.000000
  70
    32
  0
VERTEX
  8
0
  5
187E
 10
-40.3690
 20
-276.611
 30
0.000000
  70
    32
  0
VERTEX
  8
0
  5
187F
 10
-40.2647
 20
-276.787
 30
0.000000
  70
    32
  0
VERTEX
  8
0
  5
1880
 10
-40.1579
 20
-276.959
 30
0.000000
  70
    32
  0
VERTEX
  8
0
  5
1881
 10
-40.0485
 20
-277.126
 30
0.000000
  70
    32
  0
VERTEX
  8
0
  5
1882
 10
-39.9366
 20
-277.288
 30
0.000000
  70
    32
  0
VERTEX
  8
0
  5
1883
 10
-39.8224
 20
-277.446
 30
0.000000
  70
    32
  0
VERTEX
  8
0
  5
1884
 10
-39.7058
 20
-277.600
 30
0.000000
  70
    32
  0
VERTEX
  8
0
  5
1885
 10
-39.5870
 20
-277.748
 30
0.000000
  70
    32
  0
VERTEX
  8
0
  5
1886
 10
-39.4659
 20
-277.892
 30
0.000000
  70
    32
  0
VERTEX
  8
0
  5
1887
 10
-39.3428
 20
-278.031
 30
0.000000
  70
    32
  0
VERTEX
  8
0
  5
1888
 10
-39.2177
 20
-278.165
 30
0.000000
  70
    32
  0
VERTEX
  8
0
  5
1889
 10
-39.0905
 20
-278.293
 30
0.000000
  70
    32
  0
VERTEX
  8
0
  5
188A
 10
-38.9615
 20
-278.417
 30
0.000000
  70
    32
  0
VERTEX
  8
0
  5
188B
 10
-38.8307
 20
-278.535
 30
0.000000
  70
    32
  0
VERTEX
  8
0
  5
188C
 10
-38.6982
 20
-278.648
 30
0.000000
  70
    32
  0
VERTEX
  8
0
  5
188D
 10
-38.5640
 20
-278.756
 30
0.000000
  70
    32
  0
VERTEX
  8
0
  5
188E
 10
-38.4283
 20
-278.858
 30
0.000000
  70
    32
  0
VERTEX
  8
0
  5
188F
 10
-38.2910
 20
-278.955
 30
0.000000
  70
    32
  0
VERTEX
  8
0
  5
1890
 10
-38.1524
 20
-279.046
 30
0.000000
  70
    32
  0
VERTEX
  8
0
  5
1891
 10
-38.0124
 20
-279.131
 30
0.000000
  70
    32
  0
VERTEX
  8
0
  5
1892
 10
-37.8712
 20
-279.211
 30
0.000000
  70
    32
  0
VERTEX
  8
0
  5
1893
 10
-37.7289
 20
-279.285
 30
0.000000
  70
    32
  0
VERTEX
  8
0
  5
1894
 10
-37.5855
 20
-279.354
 30
0.000000
  70
    32
  0
VERTEX
  8
0
  5
1895
 10
-37.4411
 20
-279.416
 30
0.000000
  70
    32
  0
VERTEX
  8
0
  5
1896
 10
-37.2958
 20
-279.473
 30
0.000000
  70
    32
  0
VERTEX
  8
0
  5
1897
 10
-37.1498
 20
-279.524
 30
0.000000
  70
    32
  0
VERTEX
  8
0
  5
1898
 10
-37.0030
 20
-279.569
 30
0.000000
  70
    32
  0
VERTEX
  8
0
  5
1899
 10
-36.8556
 20
-279.608
 30
0.000000
  70
    32
  0
VERTEX
  8
0
  5
189A
 10
-36.7076
 20
-279.641
 30
0.000000
  70
    32
  0
VERTEX
  8
0
  5
189B
 10
-36.5592
 20
-279.668
 30
0.000000
  70
    32
  0
VERTEX
  8
0
  5
189C
 10
-36.4104
 20
-279.689
 30
0.000000
  70
    32
  0
VERTEX
  8
0
  5
189D
 10
-36.2614
 20
-279.704
 30
0.000000
  70
    32
  0
VERTEX
  8
0
  5
189E
 10
-36.1122
 20
-279.713
 30
0.000000
  70
    32
  0
VERTEX
  8
0
  5
189F
 10
-35.9629
 20
-279.716
 30
0.000000
  70
    32
  0
SEQEND
  8
0
  5
18A0
  0
LINE
  5
14C9
  8
0
 10
-10.24182511617528
 20
-307.55940423831697
 30
0.0
 11
269.75817488382472
 21
-307.55940423831697
 31
0.0
  0
POLYLINE
  5
14CA
  8
0
 66
     1
 10
0.0
 20
0.0
 30
0.0
 70
   128
  0
VERTEX
  5
1639
  8
0
 10
-35.96288787772226
 20
-239.71604186689501
 30
0.0
  0
VERTEX
  5
163A
  8
0
 10
-10.789261398389399
 20
-239.71604186689501
 30
0.0
  0
SEQEND
  5
163B
  8
0
  0
POLYLINE
  5
14CB
  8
0
 66
     1
 10
0.0
 20
0.0
 30
0.0
 70
   128
  0
VERTEX
  5
163C
  8
0
 10
-35.96288787772226
 20
-259.7160418668949
 30
0.0
  0
VERTEX
  5
163D
  8
0
 10
-10.78926139838941
 20
-259.7160418668949
 30
0.0
  0
SEQEND
  5
163E
  8
0
  0
POLYLINE
  5
14CC
  8
0
 66
     1
 10
0.0
 20
0.0
 30
0.0
 70
   128
  0
VERTEX
  5
163F
  8
0
 10
-35.96288787772226
 20
-279.7160418668949
 30
0.0
  0
VERTEX
  5
1640
  8
0
 10
-10.789261398389399
 20
-279.7160418668949
 30
0.0
  0
SEQEND
  5
1641
  8
0
  0
LINE
  5
14CD
  8
0
 10
-6.3024773108403283
 20
-299.71604186689501
 30
0.0
 11
269.75817488382472
 21
-299.71604186689501
 31
0.0
  0
LINE
  5
14CE
  8
0
 10
-15.94512928901935
 20
-279.7160418668949
 30
0.0
 11
269.75817488382472
 21
-279.7160418668949
 31
0.0
  0
POLYLINE
  5
14CF
  8
0
 10
-10.789261398389414
 20
-307.55940423831692
 30
0.0
 66
     1
 70
     8
  0
VERTEX
  8
0
  5
18A1
 10
-10.7893
 20
-307.559
 30
0.000000
  70
    32
  0
VERTEX
  8
0
  5
18A2
 10
-10.6383
 20
-307.555
 30
0.000000
  70
    32
  0
VERTEX
  8
0
  5
18A3
 10
-10.4874
 20
-307.543
 30
0.000000
  70
    32
  0
VERTEX
  8
0
  5
18A4
 10
-10.3367
 20
-307.522
 30
0.000000
  70
    32
  0
VERTEX
  8
0
  5
18A5
 10
-10.1863
 20
-307.492
 30
0.000000
  70
    32
  0
VERTEX
  8
0
  5
18A6
 10
-10.0363
 20
-307.455
 30
0.000000
  70
    32
  0
VERTEX
  8
0
  5
18A7
 10
-9.88666
 20
-307.409
 30
0.000000
  70
    32
  0
VERTEX
  8
0
  5
18A8
 10
-9.73760
 20
-307.354
 30
0.000000
  70
    32
  0
VERTEX
  8
0
  5
18A9
 10
-9.58918
 20
-307.292
 30
0.000000
  70
    32
  0
VERTEX
  8
0
  5
18AA
 10
-9.44147
 20
-307.221
 30
0.000000
  70
    32
  0
VERTEX
  8
0
  5
18AB
 10
-9.29458
 20
-307.142
 30
0.000000
  70
    32
  0
VERTEX
  8
0
  5
18AC
 10
-9.14859
 20
-307.055
 30
0.000000
  70
    32
  0
VERTEX
  8
0
  5
18AD
 10
-9.00359
 20
-306.960
 30
0.000000
  70
    32
  0
VERTEX
  8
0
  5
18AE
 10
-8.85967
 20
-306.857
 30
0.000000
  70
    32
  0
VERTEX
  8
0
  5
18AF
 10
-8.71690
 20
-306.746
 30
0.000000
  70
    32
  0
VERTEX
  8
0
  5
18B0
 10
-8.57539
 20
-306.627
 30
0.000000
  70
    32
  0
VERTEX
  8
0
  5
18B1
 10
-8.43521
 20
-306.500
 30
0.000000
  70
    32
  0
VERTEX
  8
0
  5
18B2
 10
-8.29644
 20
-306.365
 30
0.000000
  70
    32
  0
VERTEX
  8
0
  5
18B3
 10
-8.15918
 20
-306.223
 30
0.000000
  70
    32
  0
VERTEX
  8
0
  5
18B4
 10
-8.02350
 20
-306.073
 30
0.000000
  70
    32
  0
VERTEX
  8
0
  5
18B5
 10
-7.88949
 20
-305.916
 30
0.000000
  70
    32
  0
VERTEX
  8
0
  5
18B6
 10
-7.75723
 20
-305.751
 30
0.000000
  70
    32
  0
VERTEX
  8
0
  5
18B7
 10
-7.62679
 20
-305.579
 30
0.000000
  70
    32
  0
VERTEX
  8
0
  5
18B8
 10
-7.49826
 20
-305.400
 30
0.000000
  70
    32
  0
VERTEX
  8
0
  5
18B9
 10
-7.37170
 20
-305.213
 30
0.000000
  70
    32
  0
VERTEX
  8
0
  5
18BA
 10
-7.24721
 20
-305.020
 30
0.000000
  70
    32
  0
VERTEX
  8
0
  5
18BB
 10
-7.12485
 20
-304.820
 30
0.000000
  70
    32
  0
VERTEX
  8
0
  5
18BC
 10
-7.00470
 20
-304.613
 30
0.000000
  70
    32
  0
VERTEX
  8
0
  5
18BD
 10
-6.88683
 20
-304.399
 30
0.000000
  70
    32
  0
VERTEX
  8
0
  5
18BE
 10
-6.77131
 20
-304.179
 30
0.000000
  70
    32
  0
VERTEX
  8
0
  5
18BF
 10
-6.65821
 20
-303.953
 30
0.000000
  70
    32
  0
VERTEX
  8
0
  5
18C0
 10
-6.54759
 20
-303.720
 30
0.000000
  70
    32
  0
VERTEX
  8
0
  5
18C1
 10
-6.43954
 20
-303.482
 30
0.000000
  70
    32
  0
VERTEX
  8
0
  5
18C2
 10
-6.33410
 20
-303.237
 30
0.000000
  70
    32
  0
VERTEX
  8
0
  5
18C3
 10
-6.23135
 20
-302.987
 30
0.000000
  70
    32
  0
VERTEX
  8
0
  5
18C4
 10
-6.13134
 20
-302.731
 30
0.000000
  70
    32
  0
VERTEX
  8
0
  5
18C5
 10
-6.03413
 20
-302.470
 30
0.000000
  70
    32
  0
VERTEX
  8
0
  5
18C6
 10
-5.93980
 20
-302.203
 30
0.000000
  70
    32
  0
VERTEX
  8
0
  5
18C7
 10
-5.84838
 20
-301.931
 30
0.000000
  70
    32
  0
VERTEX
  8
0
  5
18C8
 10
-5.75994
 20
-301.654
 30
0.000000
  70
    32
  0
VERTEX
  8
0
  5
18C9
 10
-5.67453
 20
-301.372
 30
0.000000
  70
    32
  0
VERTEX
  8
0
  5
18CA
 10
-5.59220
 20
-301.086
 30
0.000000
  70
    32
  0
VERTEX
  8
0
  5
18CB
 10
-5.51300
 20
-300.795
 30
0.000000
  70
    32
  0
VERTEX
  8
0
  5
18CC
 10
-5.43697
 20
-300.500
 30
0.000000
  70
    32
  0
VERTEX
  8
0
  5
18CD
 10
-5.36418
 20
-300.200
 30
0.000000
  70
    32
  0
VERTEX
  8
0
  5
18CE
 10
-5.29465
 20
-299.897
 30
0.000000
  70
    32
  0
VERTEX
  8
0
  5
18CF
 10
-5.22843
 20
-299.590
 30
0.000000
  70
    32
  0
VERTEX
  8
0
  5
18D0
 10
-5.16556
 20
-299.279
 30
0.000000
  70
    32
  0
VERTEX
  8
0
  5
18D1
 10
-5.10607
 20
-298.965
 30
0.000000
  70
    32
  0
VERTEX
  8
0
  5
18D2
 10
-5.05001
 20
-298.648
 30
0.000000
  70
    32
  0
VERTEX
  8
0
  5
18D3
 10
-4.99741
 20
-298.328
 30
0.000000
  70
    32
  0
VERTEX
  8
0
  5
18D4
 10
-4.94830
 20
-298.005
 30
0.000000
  70
    32
  0
VERTEX
  8
0
  5
18D5
 10
-4.90270
 20
-297.679
 30
0.000000
  70
    32
  0
VERTEX
  8
0
  5
18D6
 10
-4.86065
 20
-297.351
 30
0.000000
  70
    32
  0
VERTEX
  8
0
  5
18D7
 10
-4.82217
 20
-297.020
 30
0.000000
  70
    32
  0
VERTEX
  8
0
  5
18D8
 10
-4.78729
 20
-296.688
 30
0.000000
  70
    32
  0
VERTEX
  8
0
  5
18D9
 10
-4.75602
 20
-296.354
 30
0.000000
  70
    32
  0
VERTEX
  8
0
  5
18DA
 10
-4.72839
 20
-296.018
 30
0.000000
  70
    32
  0
VERTEX
  8
0
  5
18DB
 10
-4.70440
 20
-295.680
 30
0.000000
  70
    32
  0
VERTEX
  8
0
  5
18DC
 10
-4.68408
 20
-295.342
 30
0.000000
  70
    32
  0
VERTEX
  8
0
  5
18DD
 10
-4.66744
 20
-295.002
 30
0.000000
  70
    32
  0
VERTEX
  8
0
  5
18DE
 10
-4.65449
 20
-294.662
 30
0.000000
  70
    32
  0
VERTEX
  8
0
  5
18DF
 10
-4.64523
 20
-294.321
 30
0.000000
  70
    32
  0
VERTEX
  8
0
  5
18E0
 10
-4.63967
 20
-293.979
 30
0.000000
  70
    32
  0
VERTEX
  8
0
  5
18E1
 10
-4.63782
 20
-293.638
 30
0.000000
  70
    32
  0
VERTEX
  8
0
  5
18E2
 10
-4.63967
 20
-293.296
 30
0.000000
  70
    32
  0
VERTEX
  8
0
  5
18E3
 10
-4.64523
 20
-292.955
 30
0.000000
  70
    32
  0
VERTEX
  8
0
  5
18E4
 10
-4.65449
 20
-292.614
 30
0.000000
  70
    32
  0
VERTEX
  8
0
  5
18E5
 10
-4.66744
 20
-292.273
 30
0.000000
  70
    32
  0
VERTEX
  8
0
  5
18E6
 10
-4.68408
 20
-291.934
 30
0.000000
  70
    32
  0
VERTEX
  8
0
  5
18E7
 10
-4.70440
 20
-291.595
 30
0.000000
  70
    32
  0
VERTEX
  8
0
  5
18E8
 10
-4.72839
 20
-291.258
 30
0.000000
  70
    32
  0
VERTEX
  8
0
  5
18E9
 10
-4.75602
 20
-290.922
 30
0.000000
  70
    32
  0
VERTEX
  8
0
  5
18EA
 10
-4.78729
 20
-290.587
 30
0.000000
  70
    32
  0
VERTEX
  8
0
  5
18EB
 10
-4.82217
 20
-290.255
 30
0.000000
  70
    32
  0
VERTEX
  8
0
  5
18EC
 10
-4.86065
 20
-289.925
 30
0.000000
  70
    32
  0
VERTEX
  8
0
  5
18ED
 10
-4.90270
 20
-289.596
 30
0.000000
  70
    32
  0
VERTEX
  8
0
  5
18EE
 10
-4.94830
 20
-289.271
 30
0.000000
  70
    32
  0
VERTEX
  8
0
  5
18EF
 10
-4.99741
 20
-288.948
 30
0.000000
  70
    32
  0
VERTEX
  8
0
  5
18F0
 10
-5.05001
 20
-288.627
 30
0.000000
  70
    32
  0
VERTEX
  8
0
  5
18F1
 10
-5.10607
 20
-288.310
 30
0.000000
  70
    32
  0
VERTEX
  8
0
  5
18F2
 10
-5.16556
 20
-287.996
 30
0.000000
  70
    32
  0
VERTEX
  8
0
  5
18F3
 10
-5.22843
 20
-287.685
 30
0.000000
  70
    32
  0
VERTEX
  8
0
  5
18F4
 10
-5.29465
 20
-287.378
 30
0.000000
  70
    32
  0
VERTEX
  8
0
  5
18F5
 10
-5.36418
 20
-287.075
 30
0.000000
  70
    32
  0
VERTEX
  8
0
  5
18F6
 10
-5.43697
 20
-286.776
 30
0.000000
  70
    32
  0
VERTEX
  8
0
  5
18F7
 10
-5.51300
 20
-286.481
 30
0.000000
  70
    32
  0
VERTEX
  8
0
  5
18F8
 10
-5.59220
 20
-286.190
 30
0.000000
  70
    32
  0
VERTEX
  8
0
  5
18F9
 10
-5.67453
 20
-285.903
 30
0.000000
  70
    32
  0
VERTEX
  8
0
  5
18FA
 10
-5.75994
 20
-285.622
 30
0.000000
  70
    32
  0
VERTEX
  8
0
  5
18FB
 10
-5.84838
 20
-285.345
 30
0.000000
  70
    32
  0
VERTEX
  8
0
  5
18FC
 10
-5.93980
 20
-285.073
 30
0.000000
  70
    32
  0
VERTEX
  8
0
  5
18FD
 10
-6.03413
 20
-284.806
 30
0.000000
  70
    32
  0
VERTEX
  8
0
  5
18FE
 10
-6.13134
 20
-284.544
 30
0.000000
  70
    32
  0
VERTEX
  8
0
  5
18FF
 10
-6.23135
 20
-284.288
 30
0.000000
  70
    32
  0
VERTEX
  8
0
  5
1900
 10
-6.33410
 20
-284.038
 30
0.000000
  70
    32
  0
VERTEX
  8
0
  5
1901
 10
-6.43954
 20
-283.794
 30
0.000000
  70
    32
  0
VERTEX
  8
0
  5
1902
 10
-6.54759
 20
-283.555
 30
0.000000
  70
    32
  0
VERTEX
  8
0
  5
1903
 10
-6.65821
 20
-283.322
 30
0.000000
  70
    32
  0
VERTEX
  8
0
  5
1904
 10
-6.77131
 20
-283.096
 30
0.000000
  70
    32
  0
VERTEX
  8
0
  5
1905
 10
-6.88683
 20
-282.876
 30
0.000000
  70
    32
  0
VERTEX
  8
0
  5
1906
 10
-7.00470
 20
-282.663
 30
0.000000
  70
    32
  0
VERTEX
  8
0
  5
1907
 10
-7.12485
 20
-282.456
 30
0.000000
  70
    32
  0
VERTEX
  8
0
  5
1908
 10
-7.24721
 20
-282.256
 30
0.000000
  70
    32
  0
VERTEX
  8
0
  5
1909
 10
-7.37170
 20
-282.062
 30
0.000000
  70
    32
  0
VERTEX
  8
0
  5
190A
 10
-7.49826
 20
-281.876
 30
0.000000
  70
    32
  0
VERTEX
  8
0
  5
190B
 10
-7.62679
 20
-281.697
 30
0.000000
  70
    32
  0
VERTEX
  8
0
  5
190C
 10
-7.75723
 20
-281.525
 30
0.000000
  70
    32
  0
VERTEX
  8
0
  5
190D
 10
-7.88949
 20
-281.360
 30
0.000000
  70
    32
  0
VERTEX
  8
0
  5
190E
 10
-8.02350
 20
-281.203
 30
0.000000
  70
    32
  0
VERTEX
  8
0
  5
190F
 10
-8.15918
 20
-281.053
 30
0.000000
  70
    32
  0
VERTEX
  8
0
  5
1910
 10
-8.29644
 20
-280.910
 30
0.000000
  70
    32
  0
VERTEX
  8
0
  5
1911
 10
-8.43521
 20
-280.776
 30
0.000000
  70
    32
  0
VERTEX
  8
0
  5
1912
 10
-8.57539
 20
-280.649
 30
0.000000
  70
    32
  0
VERTEX
  8
0
  5
1913
 10
-8.71690
 20
-280.530
 30
0.000000
  70
    32
  0
VERTEX
  8
0
  5
1914
 10
-8.85967
 20
-280.419
 30
0.000000
  70
    32
  0
VERTEX
  8
0
  5
1915
 10
-9.00359
 20
-280.316
 30
0.000000
  70
    32
  0
VERTEX
  8
0
  5
1916
 10
-9.14859
 20
-280.220
 30
0.000000
  70
    32
  0
VERTEX
  8
0
  5
1917
 10
-9.29458
 20
-280.133
 30
0.000000
  70
    32
  0
VERTEX
  8
0
  5
1918
 10
-9.44147
 20
-280.054
 30
0.000000
  70
    32
  0
VERTEX
  8
0
  5
1919
 10
-9.58918
 20
-279.984
 30
0.000000
  70
    32
  0
VERTEX
  8
0
  5
191A
 10
-9.73760
 20
-279.921
 30
0.000000
  70
    32
  0
VERTEX
  8
0
  5
191B
 10
-9.88666
 20
-279.867
 30
0.000000
  70
    32
  0
VERTEX
  8
0
  5
191C
 10
-10.0363
 20
-279.821
 30
0.000000
  70
    32
  0
VERTEX
  8
0
  5
191D
 10
-10.1863
 20
-279.783
 30
0.000000
  70
    32
  0
VERTEX
  8
0
  5
191E
 10
-10.3367
 20
-279.754
 30
0.000000
  70
    32
  0
VERTEX
  8
0
  5
191F
 10
-10.4874
 20
-279.733
 30
0.000000
  70
    32
  0
VERTEX
  8
0
  5
1920
 10
-10.6383
 20
-279.720
 30
0.000000
  70
    32
  0
VERTEX
  8
0
  5
1921
 10
-10.7893
 20
-279.716
 30
0.000000
  70
    32
  0
SEQEND
  8
0
  5
1922
  0
CIRCLE
  5
14D0
  8
0
 10
7.9162507290235729
 20
-291.06235138885319
 30
0.0
 40
2.0
  0
POLYLINE
  5
14D2
  8
0
  6
CONTINUOUS
 66
     1
 10
0.0
 20
0.0
 30
0.0
 70
   129
1001
GENIUS_GENREC_14
1002
{
1000
PYDIR
1011
314.92283500422491
1021
0.0
1031
0.0
1021
201.91067870703321
1031
0.0
1002
}
1002
{
1000
PXDIR
1011
313.42283500422491
1021
0.0
1031
0.0
1021
194.91067870703321
1031
0.0
1002
}
1002
{
1000
PORI
1011
313.42283500422491
1021
0.0
1031
0.0
1021
201.91067870703321
1031
0.0
1002
}
1002
{
1000
PINS
1011
313.42283500422491
1021
0.0
1031
0.0
1021
201.91067870703321
1031
0.0
1002
}
1002
{
1000
PINS2
1011
314.92283500422491
1021
0.0
1031
0.0
1021
194.91067870703321
1031
0.0
1002
}
1002
{
1000
C
1070
     1
1002
}
1001
GENIUS_GENOBJ-N-REC_13
1002
{
1000
OWNER
1000
GEN
1002
}
1001
GENIUS_GENODEF_13
1002
{
1000
HIER
1070
     0
1002
}
1002
{
1000
MANEDIT
1070
     0
1002
}
1002
{
1000
NOSEL
1070
     0
1002
}
1002
{
1000
BEHIND
1070
     0
1002
}
1002
{
1000
OTHER
1070
     0
1002
}
1002
{
1000
REACTOR
1002
}
1001
ACDBBLOCKREPETAG
1070
     1
1071
        0
1005
14D2
  0
VERTEX
  5
1642
  8
0
  6
CONTINUOUS
 10
313.42283500422491
 20
201.91067870703321
 30
0.0
  0
VERTEX
  5
1643
  8
0
  6
CONTINUOUS
 10
313.42283500422491
 20
194.91067870703321
 30
0.0
  0
VERTEX
  5
1644
  8
0
  6
CONTINUOUS
 10
314.92283500422491
 20
194.91067870703321
 30
0.0
  0
VERTEX
  5
1645
  8
0
  6
CONTINUOUS
 10
314.92283500422491
 20
201.91067870703321
 30
0.0
  0
SEQEND
  5
1646
  8
0
  6
CONTINUOUS
  0
LINE
  5
14D3
  8
0
  6
CONTINUOUS
 10
276.08950167089188
 20
199.41067870703321
 30
0.0
 11
273.42283500422491
 21
198.41067870703321
 31
0.0
1001
GENIUS_GENREC_14
1002
{
1000
PYDIR
1011
313.42283500422491
1021
0.0
1031
0.0
1021
199.1606787070331
1031
0.0
1002
}
1002
{
1000
PXDIR
1011
276.1348353163358
1021
0.0
1031
0.0
1021
197.66067870703321
1031
0.0
1002
}
1002
{
1000
PORI
1011
276.1348353163358
1021
0.0
1031
0.0
1021
199.1606787070331
1031
0.0
1002
}
1002
{
1000
PINS
1011
276.1348353163358
1021
0.0
1031
0.0
1021
199.1606787070331
1031
0.0
1002
}
1002
{
1000
PINS2
1011
313.42283500422491
1021
0.0
1031
0.0
1021
197.66067870703321
1031
0.0
1002
}
1002
{
1000
C
1070
     1
1002
}
1001
GENIUS_GENOBJ-N-REC_13
1002
{
1000
OWNER
1000
GEN
1002
}
1001
GENIUS_GENODEF_13
1002
{
1000
HIER
1070
     0
1002
}
1002
{
1000
MANEDIT
1070
     0
1002
}
1002
{
1000
NOSEL
1070
     0
1002
}
1002
{
1000
BEHIND
1070
     0
1002
}
1002
{
1000
OTHER
1070
     0
1002
}
1002
{
1000
REACTOR
1002
}
1001
ACDBBLOCKREPETAG
1070
     1
1071
        1
1005
14D3
  0
LINE
  5
14D4
  8
0
  6
CONTINUOUS
 10
273.42283500422491
 20
198.41067870703321
 30
0.0
 11
276.08950167089188
 21
197.41067870703321
 31
0.0
1001
GENIUS_GENREC_14
1002
{
1000
PYDIR
1011
313.42283500422491
1021
0.0
1031
0.0
1021
199.1606787070331
1031
0.0
1002
}
1002
{
1000
PXDIR
1011
276.1348353163358
1021
0.0
1031
0.0
1021
197.66067870703321
1031
0.0
1002
}
1002
{
1000
PORI
1011
276.1348353163358
1021
0.0
1031
0.0
1021
199.1606787070331
1031
0.0
1002
}
1002
{
1000
PINS
1011
276.1348353163358
1021
0.0
1031
0.0
1021
199.1606787070331
1031
0.0
1002
}
1002
{
1000
PINS2
1011
313.42283500422491
1021
0.0
1031
0.0
1021
197.66067870703321
1031
0.0
1002
}
1002
{
1000
C
1070
     1
1002
}
1001
GENIUS_GENOBJ-N-REC_13
1002
{
1000
OWNER
1000
GEN
1002
}
1001
GENIUS_GENODEF_13
1002
{
1000
HIER
1070
     0
1002
}
1002
{
1000
MANEDIT
1070
     0
1002
}
1002
{
1000
NOSEL
1070
     0
1002
}
1002
{
1000
BEHIND
1070
     0
1002
}
1002
{
1000
OTHER
1070
     0
1002
}
1002
{
1000
REACTOR
1002
}
1001
ACDBBLOCKREPETAG
1070
     1
1071
        2
1005
14D4
  0
LINE
  5
14D5
  8
0
  6
CONTINUOUS
 10
276.08950167089188
 20
197.41067870703321
 30
0.0
 11
313.42283500422491
 21
197.41067870703321
 31
0.0
1001
GENIUS_GENREC_14
1002
{
1000
PYDIR
1011
313.42283500422491
1021
0.0
1031
0.0
1021
199.1606787070331
1031
0.0
1002
}
1002
{
1000
PXDIR
1011
276.1348353163358
1021
0.0
1031
0.0
1021
197.66067870703321
1031
0.0
1002
}
1002
{
1000
PORI
1011
276.1348353163358
1021
0.0
1031
0.0
1021
199.1606787070331
1031
0.0
1002
}
1002
{
1000
PINS
1011
276.1348353163358
1021
0.0
1031
0.0
1021
199.1606787070331
1031
0.0
1002
}
1002
{
1000
PINS2
1011
313.42283500422491
1021
0.0
1031
0.0
1021
197.66067870703321
1031
0.0
1002
}
1002
{
1000
C
1070
     1
1002
}
1001
GENIUS_GENOBJ-N-REC_13
1002
{
1000
OWNER
1000
GEN
1002
}
1001
GENIUS_GENODEF_13
1002
{
1000
HIER
1070
     0
1002
}
1002
{
1000
MANEDIT
1070
     0
1002
}
1002
{
1000
NOSEL
1070
     0
1002
}
1002
{
1000
BEHIND
1070
     0
1002
}
1002
{
1000
OTHER
1070
     0
1002
}
1002
{
1000
REACTOR
1002
}
1001
ACDBBLOCKREPETAG
1070
     1
1071
        3
1005
14D5
  0
LINE
  5
14D6
  8
0
  6
CONTINUOUS
 10
313.42283500422491
 20
197.41067870703321
 30
0.0
 11
313.42283500422491
 21
199.41067870703321
 31
0.0
1001
GENIUS_GENREC_14
1002
{
1000
PYDIR
1011
313.42283500422491
1021
0.0
1031
0.0
1021
199.1606787070331
1031
0.0
1002
}
1002
{
1000
PXDIR
1011
276.1348353163358
1021
0.0
1031
0.0
1021
197.66067870703321
1031
0.0
1002
}
1002
{
1000
PORI
1011
276.1348353163358
1021
0.0
1031
0.0
1021
199.1606787070331
1031
0.0
1002
}
1002
{
1000
PINS
1011
276.1348353163358
1021
0.0
1031
0.0
1021
199.1606787070331
1031
0.0
1002
}
1002
{
1000
PINS2
1011
313.42283500422491
1021
0.0
1031
0.0
1021
197.66067870703321
1031
0.0
1002
}
1002
{
1000
C
1070
     1
1002
}
1001
GENIUS_GENOBJ-N-REC_13
1002
{
1000
OWNER
1000
GEN
1002
}
1001
GENIUS_GENODEF_13
1002
{
1000
HIER
1070
     0
1002
}
1002
{
1000
MANEDIT
1070
     0
1002
}
1002
{
1000
NOSEL
1070
     0
1002
}
1002
{
1000
BEHIND
1070
     0
1002
}
1002
{
1000
OTHER
1070
     0
1002
}
1002
{
1000
REACTOR
1002
}
1001
ACDBBLOCKREPETAG
1070
     1
1071
        4
1005
14D6
  0
LINE
  5
14D7
  8
0
  6
CONTINUOUS
 10
313.42283500422491
 20
199.41067870703321
 30
0.0
 11
276.08950167089188
 21
199.41067870703321
 31
0.0
1001
GENIUS_GENREC_14
1002
{
1000
PYDIR
1011
313.42283500422491
1021
0.0
1031
0.0
1021
199.1606787070331
1031
0.0
1002
}
1002
{
1000
PXDIR
1011
276.1348353163358
1021
0.0
1031
0.0
1021
197.66067870703321
1031
0.0
1002
}
1002
{
1000
PORI
1011
276.1348353163358
1021
0.0
1031
0.0
1021
199.1606787070331
1031
0.0
1002
}
1002
{
1000
PINS
1011
276.1348353163358
1021
0.0
1031
0.0
1021
199.1606787070331
1031
0.0
1002
}
1002
{
1000
PINS2
1011
313.42283500422491
1021
0.0
1031
0.0
1021
197.66067870703321
1031
0.0
1002
}
1002
{
1000
C
1070
     1
1002
}
1001
GENIUS_GENOBJ-N-REC_13
1002
{
1000
OWNER
1000
GEN
1002
}
1001
GENIUS_GENODEF_13
1002
{
1000
HIER
1070
     0
1002
}
1002
{
1000
MANEDIT
1070
     0
1002
}
1002
{
1000
NOSEL
1070
     0
1002
}
1002
{
1000
BEHIND
1070
     0
1002
}
1002
{
1000
OTHER
1070
     0
1002
}
1002
{
1000
REACTOR
1002
}
1001
ACDBBLOCKREPETAG
1070
     1
1071
        5
1005
14D7
  0
POLYLINE
  5
14D8
  8
0
  6
CONTINUOUS
 66
     1
 10
0.0
 20
0.0
 30
0.0
 70
   129
1001
GENIUS_GENREC_14
1002
{
1000
PYDIR
1011
190.5584109091823
1021
0.0
1031
0.0
1021
259.12872764921423
1031
0.0
1002
}
1002
{
1000
PXDIR
1011
197.5584109091823
1021
0.0
1031
0.0
1021
257.62872764921423
1031
0.0
1002
}
1002
{
1000
PORI
1011
190.5584109091823
1021
0.0
1031
0.0
1021
257.62872764921423
1031
0.0
1002
}
1002
{
1000
PINS
1011
190.5584109091823
1021
0.0
1031
0.0
1021
257.62872764921423
1031
0.0
1002
}
1002
{
1000
PINS2
1011
197.5584109091823
1021
0.0
1031
0.0
1021
259.12872764921423
1031
0.0
1002
}
1002
{
1000
C
1070
     1
1002
}
1001
GENIUS_GENOBJ-N-REC_13
1002
{
1000
OWNER
1000
GEN
1002
}
1001
GENIUS_GENODEF_13
1002
{
1000
HIER
1070
     0
1002
}
1002
{
1000
MANEDIT
1070
     0
1002
}
1002
{
1000
NOSEL
1070
     0
1002
}
1002
{
1000
BEHIND
1070
     0
1002
}
1002
{
1000
OTHER
1070
     0
1002
}
1002
{
1000
REACTOR
1002
}
1001
ACDBBLOCKREPETAG
1070
     1
1071
        0
1005
14D8
  0
VERTEX
  5
1647
  8
0
  6
CONTINUOUS
 10
190.5584109091823
 20
257.62872764921423
 30
0.0
  0
VERTEX
  5
1648
  8
0
  6
CONTINUOUS
 10
197.5584109091823
 20
257.62872764921423
 30
0.0
  0
VERTEX
  5
1649
  8
0
  6
CONTINUOUS
 10
197.5584109091823
 20
259.12872764921423
 30
0.0
  0
VERTEX
  5
164A
  8
0
  6
CONTINUOUS
 10
190.5584109091823
 20
259.12872764921423
 30
0.0
  0
SEQEND
  5
164B
  8
0
  6
CONTINUOUS
  0
LINE
  5
14D9
  8
0
  6
CONTINUOUS
 10
193.0584109091823
 20
236.7953943158812
 30
0.0
 11
194.0584109091823
 21
234.1287276492142
 31
0.0
1001
GENIUS_GENREC_14
1002
{
1000
PYDIR
1011
193.3084109091823
1021
0.0
1031
0.0
1021
257.62872764921423
1031
0.0
1002
}
1002
{
1000
PXDIR
1011
194.8084109091823
1021
0.0
1031
0.0
1021
236.84072796132509
1031
0.0
1002
}
1002
{
1000
PORI
1011
193.3084109091823
1021
0.0
1031
0.0
1021
236.84072796132509
1031
0.0
1002
}
1002
{
1000
PINS
1011
193.3084109091823
1021
0.0
1031
0.0
1021
236.84072796132509
1031
0.0
1002
}
1002
{
1000
PINS2
1011
194.8084109091823
1021
0.0
1031
0.0
1021
257.62872764921423
1031
0.0
1002
}
1002
{
1000
C
1070
     1
1002
}
1001
GENIUS_GENOBJ-N-REC_13
1002
{
1000
OWNER
1000
GEN
1002
}
1001
GENIUS_GENODEF_13
1002
{
1000
HIER
1070
     0
1002
}
1002
{
1000
MANEDIT
1070
     0
1002
}
1002
{
1000
NOSEL
1070
     0
1002
}
1002
{
1000
BEHIND
1070
     0
1002
}
1002
{
1000
OTHER
1070
     0
1002
}
1002
{
1000
REACTOR
1002
}
1001
ACDBBLOCKREPETAG
1070
     1
1071
        1
1005
14D9
  0
LINE
  5
14DA
  8
0
  6
CONTINUOUS
 10
194.0584109091823
 20
234.1287276492142
 30
0.0
 11
195.0584109091823
 21
236.7953943158812
 31
0.0
1001
GENIUS_GENREC_14
1002
{
1000
PYDIR
1011
193.3084109091823
1021
0.0
1031
0.0
1021
257.62872764921423
1031
0.0
1002
}
1002
{
1000
PXDIR
1011
194.8084109091823
1021
0.0
1031
0.0
1021
236.84072796132509
1031
0.0
1002
}
1002
{
1000
PORI
1011
193.3084109091823
1021
0.0
1031
0.0
1021
236.84072796132509
1031
0.0
1002
}
1002
{
1000
PINS
1011
193.3084109091823
1021
0.0
1031
0.0
1021
236.84072796132509
1031
0.0
1002
}
1002
{
1000
PINS2
1011
194.8084109091823
1021
0.0
1031
0.0
1021
257.62872764921423
1031
0.0
1002
}
1002
{
1000
C
1070
     1
1002
}
1001
GENIUS_GENOBJ-N-REC_13
1002
{
1000
OWNER
1000
GEN
1002
}
1001
GENIUS_GENODEF_13
1002
{
1000
HIER
1070
     0
1002
}
1002
{
1000
MANEDIT
1070
     0
1002
}
1002
{
1000
NOSEL
1070
     0
1002
}
1002
{
1000
BEHIND
1070
     0
1002
}
1002
{
1000
OTHER
1070
     0
1002
}
1002
{
1000
REACTOR
1002
}
1001
ACDBBLOCKREPETAG
1070
     1
1071
        2
1005
14DA
  0
LINE
  5
14DB
  8
0
  6
CONTINUOUS
 10
195.0584109091823
 20
236.7953943158812
 30
0.0
 11
195.0584109091823
 21
257.62872764921423
 31
0.0
1001
GENIUS_GENREC_14
1002
{
1000
PYDIR
1011
193.3084109091823
1021
0.0
1031
0.0
1021
257.62872764921423
1031
0.0
1002
}
1002
{
1000
PXDIR
1011
194.8084109091823
1021
0.0
1031
0.0
1021
236.84072796132509
1031
0.0
1002
}
1002
{
1000
PORI
1011
193.3084109091823
1021
0.0
1031
0.0
1021
236.84072796132509
1031
0.0
1002
}
1002
{
1000
PINS
1011
193.3084109091823
1021
0.0
1031
0.0
1021
236.84072796132509
1031
0.0
1002
}
1002
{
1000
PINS2
1011
194.8084109091823
1021
0.0
1031
0.0
1021
257.62872764921423
1031
0.0
1002
}
1002
{
1000
C
1070
     1
1002
}
1001
GENIUS_GENOBJ-N-REC_13
1002
{
1000
OWNER
1000
GEN
1002
}
1001
GENIUS_GENODEF_13
1002
{
1000
HIER
1070
     0
1002
}
1002
{
1000
MANEDIT
1070
     0
1002
}
1002
{
1000
NOSEL
1070
     0
1002
}
1002
{
1000
BEHIND
1070
     0
1002
}
1002
{
1000
OTHER
1070
     0
1002
}
1002
{
1000
REACTOR
1002
}
1001
ACDBBLOCKREPETAG
1070
     1
1071
        3
1005
14DB
  0
LINE
  5
14DC
  8
0
  6
CONTINUOUS
 10
195.0584109091823
 20
257.62872764921423
 30
0.0
 11
193.0584109091823
 21
257.62872764921423
 31
0.0
1001
GENIUS_GENREC_14
1002
{
1000
PYDIR
1011
193.3084109091823
1021
0.0
1031
0.0
1021
257.62872764921423
1031
0.0
1002
}
1002
{
1000
PXDIR
1011
194.8084109091823
1021
0.0
1031
0.0
1021
220.34072796132509
1031
0.0
1002
}
1002
{
1000
PORI
1011
193.3084109091823
1021
0.0
1031
0.0
1021
220.34072796132509
1031
0.0
1002
}
1002
{
1000
PINS
1011
193.3084109091823
1021
0.0
1031
0.0
1021
220.34072796132509
1031
0.0
1002
}
1002
{
1000
PINS2
1011
194.8084109091823
1021
0.0
1031
0.0
1021
257.62872764921423
1031
0.0
1002
}
1002
{
1000
C
1070
     1
1002
}
1001
GENIUS_GENOBJ-N-REC_13
1002
{
1000
OWNER
1000
GEN
1002
}
1001
GENIUS_GENODEF_13
1002
{
1000
HIER
1070
     0
1002
}
1002
{
1000
MANEDIT
1070
     0
1002
}
1002
{
1000
NOSEL
1070
     0
1002
}
1002
{
1000
BEHIND
1070
     0
1002
}
1002
{
1000
OTHER
1070
     0
1002
}
1002
{
1000
REACTOR
1002
}
1001
ACDBBLOCKREPETAG
1070
     1
1071
        4
1005
14DC
  0
LINE
  5
14DD
  8
0
  6
CONTINUOUS
 10
193.0584109091823
 20
257.62872764921423
 30
0.0
 11
193.0584109091823
 21
236.7953943158812
 31
0.0
1001
GENIUS_GENREC_14
1002
{
1000
PYDIR
1011
193.3084109091823
1021
0.0
1031
0.0
1021
257.62872764921423
1031
0.0
1002
}
1002
{
1000
PXDIR
1011
194.8084109091823
1021
0.0
1031
0.0
1021
236.84072796132509
1031
0.0
1002
}
1002
{
1000
PORI
1011
193.3084109091823
1021
0.0
1031
0.0
1021
236.84072796132509
1031
0.0
1002
}
1002
{
1000
PINS
1011
193.3084109091823
1021
0.0
1031
0.0
1021
236.84072796132509
1031
0.0
1002
}
1002
{
1000
PINS2
1011
194.8084109091823
1021
0.0
1031
0.0
1021
257.62872764921423
1031
0.0
1002
}
1002
{
1000
C
1070
     1
1002
}
1001
GENIUS_GENOBJ-N-REC_13
1002
{
1000
OWNER
1000
GEN
1002
}
1001
GENIUS_GENODEF_13
1002
{
1000
HIER
1070
     0
1002
}
1002
{
1000
MANEDIT
1070
     0
1002
}
1002
{
1000
NOSEL
1070
     0
1002
}
1002
{
1000
BEHIND
1070
     0
1002
}
1002
{
1000
OTHER
1070
     0
1002
}
1002
{
1000
REACTOR
1002
}
1001
ACDBBLOCKREPETAG
1070
     1
1071
        5
1005
14DD
  0
POLYLINE
  5
14DE
  8
0
 66
     1
 10
0.0
 20
0.0
 30
0.0
 70
     1
 40
1.0
 41
1.0
1001
ACDBBLOCKREPETAG
1070
     1
1071
        3
1005
14DE
  0
VERTEX
  5
164C
  8
0
 10
277.92283500422491
 20
115.9999999999999
 30
0.0
  0
VERTEX
  5
164D
  8
0
 10
277.92283500422491
 20
215.0
 30
0.0
  0
VERTEX
  5
164E
  8
0
 10
228.92283500422491
 20
215.0
 30
0.0
  0
VERTEX
  5
164F
  8
0
 10
228.92283500422491
 20
115.9999999999999
 30
0.0
  0
SEQEND
  5
1650
  8
0
  0
LINE
  5
14DF
  8
0
 10
278.42283500422491
 20
115.5
 30
0.0
 11
228.42283500422491
 21
215.5
 31
0.0
1001
ACDBBLOCKREPETAG
1070
     1
1071
        1
1005
14DF
  0
LINE
  5
14E0
  8
0
 10
228.42283500422491
 20
115.5
 30
0.0
 11
278.42283500422491
 21
215.5
 31
0.0
1001
ACDBBLOCKREPETAG
1070
     1
1071
        2
1005
14E0
  0
POLYLINE
  5
14E1
  8
0
 66
     1
 10
0.0
 20
0.0
 30
0.0
 70
     1
1001
ACDBBLOCKREPETAG
1070
     1
1071
        0
1005
14E1
  0
VERTEX
  5
1651
  8
0
 10
278.42283500422491
 20
115.5
 30
0.0
  0
VERTEX
  5
1652
  8
0
 10
278.42283500422491
 20
215.5
 30
0.0
  0
VERTEX
  5
1653
  8
0
 10
228.42283500422491
 20
215.5
 30
0.0
  0
VERTEX
  5
1654
  8
0
 10
228.42283500422491
 20
115.5
 30
0.0
  0
SEQEND
  5
1655
  8
0
  0
POLYLINE
  5
14E2
  8
0
 66
     1
 10
0.0
 20
0.0
 30
0.0
1001
ACDBBLOCKREPETAG
1070
     1
1071
        0
1005
14E2
  0
VERTEX
  5
1656
  8
0
 10
-20.561561401337709
 20
277.64717597243867
 30
0.0
 42
-0.1908635732107996
  0
VERTEX
  5
1657
  8
0
 10
-5.4345537738242911
 20
274.41232802527099
 30
0.0
  0
VERTEX
  5
1658
  8
0
 10
9.5947383534099782
 20
264.3958227387821
 30
0.0
 42
0.3026996289851612
  0
VERTEX
  5
1659
  8
0
 10
32.443612496629839
 20
264.39582273878221
 30
0.0
  0
VERTEX
  5
165A
  8
0
 10
47.47290462386399
 20
274.41232802527099
 30
0.0
 42
-0.3026996289851614
  0
VERTEX
  5
165B
  8
0
 10
70.765446226175641
 20
274.41232802527099
 30
0.0
  0
VERTEX
  5
165C
  8
0
 10
85.794738353409798
 20
264.3958227387821
 30
0.0
 42
0.3026996289851619
  0
VERTEX
  5
165D
  8
0
 10
108.6436124966299
 20
264.39582273878221
 30
0.0
  0
VERTEX
  5
165E
  8
0
 10
123.672904623864
 20
274.41232802527099
 30
0.0
 42
-0.3026996289851614
  0
VERTEX
  5
165F
  8
0
 10
146.96544622617569
 20
274.41232802527099
 30
0.0
  0
VERTEX
  5
1660
  8
0
 10
161.99473835340979
 20
264.3958227387821
 30
0.0
 42
0.3026996289851619
  0
VERTEX
  5
1661
  8
0
 10
184.8436124966299
 20
264.39582273878221
 30
0.0
  0
VERTEX
  5
1662
  8
0
 10
199.87290462386409
 20
274.41232802527099
 30
0.0
 42
-0.3026996289851614
  0
VERTEX
  5
1663
  8
0
 10
223.16544622617579
 20
274.41232802527099
 30
0.0
  0
VERTEX
  5
1664
  8
0
 10
238.19473835341
 20
264.39582273878221
 30
0.0
 42
0.3026996289851637
  0
VERTEX
  5
1665
  8
0
 10
261.04361249662998
 20
264.39582273878221
 30
0.0
  0
VERTEX
  5
1666
  8
0
 10
276.07290462386402
 20
274.41232802527099
 30
0.0
 42
-0.3026996289851647
  0
VERTEX
  5
1667
  8
0
 10
299.36544622617572
 20
274.41232802527099
 30
0.0
  0
VERTEX
  5
1668
  8
0
 10
304.3582114117267
 20
271.08482208208358
 30
0.0
  0
VERTEX
  5
1669
  8
0
 10
304.13637768218098
 20
270.75197106971348
 30
0.0
  0
VERTEX
  5
166A
  8
0
 10
299.14361249662988
 20
274.07947701290078
 30
0.0
 42
0.3026996289851622
  0
VERTEX
  5
166B
  8
0
 10
276.29473835340991
 20
274.07947701290078
 30
0.0
  0
VERTEX
  5
166C
  8
0
 10
261.26544622617581
 20
264.06297172641212
 30
0.0
 42
-0.3026996289851615
  0
VERTEX
  5
166D
  8
0
 10
237.9729046238642
 20
264.06297172641212
 30
0.0
  0
VERTEX
  5
166E
  8
0
 10
222.94361249663001
 20
274.0794770129009
 30
0.0
 42
0.3026996289851622
  0
VERTEX
  5
166F
  8
0
 10
200.09473835341001
 20
274.07947701290078
 30
0.0
  0
VERTEX
  5
1670
  8
0
 10
185.06544622617571
 20
264.06297172641212
 30
0.0
 42
-0.3026996289851623
  0
VERTEX
  5
1671
  8
0
 10
161.77290462386401
 20
264.06297172641212
 30
0.0
  0
VERTEX
  5
1672
  8
0
 10
146.74361249662991
 20
274.0794770129009
 30
0.0
 42
0.3026996289851622
  0
VERTEX
  5
1673
  8
0
 10
123.89473835340991
 20
274.07947701290078
 30
0.0
  0
VERTEX
  5
1674
  8
0
 10
108.86544622617561
 20
264.06297172641212
 30
0.0
 42
-0.3026996289851623
  0
VERTEX
  5
1675
  8
0
 10
85.572904623864034
 20
264.06297172641212
 30
0.0
  0
VERTEX
  5
1676
  8
0
 10
70.543612496629862
 20
274.0794770129009
 30
0.0
 42
0.3026996289851622
  0
VERTEX
  5
1677
  8
0
 10
47.694738353409882
 20
274.07947701290078
 30
0.0
  0
VERTEX
  5
1678
  8
0
 10
32.665446226175618
 20
264.06297172641212
 30
0.0
 42
-0.3026996289851623
  0
VERTEX
  5
1679
  8
0
 10
9.3729046238642013
 20
264.06297172641212
 30
0.0
  0
VERTEX
  5
167A
  8
0
 10
-5.6563875033700688
 20
274.0794770129009
 30
0.0
 42
0.1917095549805499
  0
VERTEX
  5
167B
  8
0
 10
-20.561561401337599
 20
277.24145422738212
 30
0.0
 42
0.1917095549805499
  0
SEQEND
  5
167C
  8
0
  0
POLYLINE
  5
14E3
  8
0
 66
     1
 10
0.0
 20
0.0
 30
0.0
1001
ACDBBLOCKREPETAG
1070
     1
1071
        1
1005
14E3
  0
VERTEX
  5
167D
  8
0
 10
-96.761561401337772
 20
277.64717597243867
 30
0.0
 42
-0.1908635732107996
  0
VERTEX
  5
167E
  8
0
 10
-81.634553773824337
 20
274.41232802527099
 30
0.0
  0
VERTEX
  5
167F
  8
0
 10
-66.605261646590066
 20
264.3958227387821
 30
0.0
 42
0.3026996289851612
  0
VERTEX
  5
1680
  8
0
 10
-43.756387503370199
 20
264.39582273878221
 30
0.0
  0
VERTEX
  5
1681
  8
0
 10
-28.727095376136049
 20
274.41232802527099
 30
0.0
 42
-0.1057277079871779
  0
VERTEX
  5
1682
  8
0
 10
-20.561561401337709
 20
277.64717597243867
 30
0.0
 42
-0.1057277079871779
  0
SEQEND
  5
1683
  8
0
  0
POLYLINE
  5
14E4
  8
0
 66
     1
 10
0.0
 20
0.0
 30
0.0
1001
ACDBBLOCKREPETAG
1070
     1
1071
        2
1005
14E4
  0
VERTEX
  5
1684
  8
0
 10
-20.561561401337709
 20
277.24145422738212
 30
0.0
 42
0.1049025366693819
  0
VERTEX
  5
1685
  8
0
 10
-28.50526164659016
 20
274.07947701290078
 30
0.0
  0
VERTEX
  5
1686
  8
0
 10
-43.53455377382442
 20
264.06297172641212
 30
0.0
 42
-0.3026996289851623
  0
VERTEX
  5
1687
  8
0
 10
-66.827095376135844
 20
264.06297172641212
 30
0.0
  0
VERTEX
  5
1688
  8
0
 10
-81.856387503370115
 20
274.0794770129009
 30
0.0
 42
0.1917095549805499
  0
VERTEX
  5
1689
  8
0
 10
-96.761561401337644
 20
277.24145422738212
 30
0.0
  0
SEQEND
  5
168A
  8
0
  0
POLYLINE
  5
14E5
  8
0
 66
     1
 10
0.0
 20
0.0
 30
0.0
 70
     1
 40
2.0
 41
2.0
  0
VERTEX
  5
168B
  8
0
 10
284.42283500422491
 20
103.9999999999997
 30
0.0
  0
VERTEX
  5
168C
  8
0
 10
307.42283500422491
 20
103.9999999999997
 30
0.0
  0
VERTEX
  5
168D
  8
0
 10
307.42283500422491
 20
251.99999999999969
 30
0.0
  0
VERTEX
  5
168E
  8
0
 10
284.42283500422491
 20
252.0
 30
0.0
  0
SEQEND
  5
168F
  8
0
  0
POLYLINE
  5
14E6
  8
0
 66
     1
 10
0.0
 20
0.0
 30
0.0
 70
     1
  0
VERTEX
  5
1690
  8
0
 10
283.42283500422491
 20
102.9999999999997
 30
0.0
  0
VERTEX
  5
1691
  8
0
 10
308.42283500422491
 20
102.9999999999997
 30
0.0
  0
VERTEX
  5
1692
  8
0
 10
308.42283500422491
 20
252.9999999999998
 30
0.0
  0
VERTEX
  5
1693
  8
0
 10
283.42283500422491
 20
253.0
 30
0.0
  0
SEQEND
  5
1694
  8
0
  0
LINE
  5
14E7
  8
0
 10
285.42283500422491
 20
104.9999999999997
 30
0.0
 11
306.42283500422491
 21
250.9999999999998
 31
0.0
  0
LINE
  5
14E8
  8
0
 10
285.42283500422491
 20
251.0
 30
0.0
 11
306.42283500422491
 21
104.9999999999997
 31
0.0
  0
ENDSEC
  0
EOF
