  0
SECTION
  2
HEADER
  9
$ACADVER
  1
AC1009
  9
$INSBASE
 10
0.0
 20
0.0
 30
0.0
  9
$EXTMIN
 10
-1336.323172683024
 20
-1210.7480658655711
 30
-0.0015258207003583
  9
$EXTMAX
 10
1740.063101225476
 20
1822.870624951091
 30
0.0000000349246037
  9
$LIMMIN
 10
0.0
 20
0.0
  9
$LIMMAX
 10
12.0
 20
9.0
  9
$ORTHOMODE
 70
     0
  9
$REGENMODE
 70
     1
  9
$FILLMODE
 70
     1
  9
$QTEXTMODE
 70
     0
  9
$MIRRTEXT
 70
     0
  9
$DRAGMODE
 70
     2
  9
$LTSCALE
 40
0.2
  9
$OSMODE
 70
     0
  9
$ATTMODE
 70
     1
  9
$TEXTSIZE
 40
25.0
  9
$TRACEWID
 40
0.05
  9
$TEXTSTYLE
  7
ARIAL
  9
$CLAYER
  8
0
  9
$CELTYPE
  6
CONTINUOUS
  9
$CECOLOR
 62
   256
  9
$DIMSCALE
 40
10.0
  9
$DIMASZ
 40
2.0
  9
$DIMEXO
 40
2.0
  9
$DIMDLI
 40
6.0
  9
$DIMRND
 40
0.0
  9
$DIMDLE
 40
2.0
  9
$DIMEXE
 40
2.0
  9
$DIMTP
 40
0.0
  9
$DIMTM
 40
0.0
  9
$DIMTXT
 40
2.0
  9
$DIMCEN
 40
2.0
  9
$DIMTSZ
 40
0.0
  9
$DIMTOL
 70
     0
  9
$DIMLIM
 70
     0
  9
$DIMTIH
 70
     0
  9
$DIMTOH
 70
     0
  9
$DIMSE1
 70
     0
  9
$DIMSE2
 70
     0
  9
$DIMTAD
 70
     1
  9
$DIMZIN
 70
     0
  9
$DIMBLK
  1
ARCHTICK
  9
$DIMASO
 70
     1
  9
$DIMSHO
 70
     1
  9
$DIMPOST
  1

  9
$DIMAPOST
  1

  9
$DIMALT
 70
     0
  9
$DIMALTD
 70
     2
  9
$DIMALTF
 40
0.0394
  9
$DIMLFAC
 40
1.0
  9
$DIMTOFL
 70
     0
  9
$DIMTVP
 40
0.0
  9
$DIMTIX
 70
     0
  9
$DIMSOXD
 70
     0
  9
$DIMSAH
 70
     0
  9
$DIMBLK1
  1

  9
$DIMBLK2
  1

  9
$DIMSTYLE
  2
1_TO_10
  9
$DIMCLRD
 70
   256
  9
$DIMCLRE
 70
   256
  9
$DIMCLRT
 70
   256
  9
$DIMTFAC
 40
1.0
  9
$DIMGAP
 40
1.0
  9
$LUNITS
 70
     2
  9
$LUPREC
 70
     1
  9
$SKETCHINC
 40
0.1
  9
$FILLETRAD
 40
0.0
  9
$AUNITS
 70
     1
  9
$AUPREC
 70
     4
  9
$MENU
  1
.
  9
$ELEVATION
 40
0.0
  9
$PELEVATION
 40
0.0
  9
$THICKNESS
 40
0.0
  9
$LIMCHECK
 70
     0
  9
$BLIPMODE
 70
     0
  9
$CHAMFERA
 40
0.0
  9
$CHAMFERB
 40
0.0
  9
$SKPOLY
 70
     0
  9
$TDCREATE
 40
2452152.65359294
  9
$TDUPDATE
 40
2455419.5927907759
  9
$TDINDWG
 40
25.929474895799999
  9
$TDUSRTIMER
 40
25.929474895799999
  9
$USRTIMER
 70
     1
  9
$ANGBASE
 50
0.0
  9
$ANGDIR
 70
     0
  9
$PDMODE
 70
     0
  9
$PDSIZE
 40
0.0
  9
$PLINEWID
 40
0.0
  9
$COORDS
 70
     1
  9
$SPLFRAME
 70
     0
  9
$SPLINETYPE
 70
     6
  9
$SPLINESEGS
 70
     8
  9
$ATTDIA
 70
     0
  9
$ATTREQ
 70
     0
  9
$HANDLING
 70
     1
  9
$HANDSEED
  5
56B
  9
$SURFTAB1
 70
     6
  9
$SURFTAB2
 70
     6
  9
$SURFTYPE
 70
     6
  9
$SURFU
 70
     6
  9
$SURFV
 70
     6
  9
$UCSNAME
  2

  9
$UCSORG
 10
0.0
 20
0.0
 30
0.0
  9
$UCSXDIR
 10
1.0
 20
0.0
 30
0.0
  9
$UCSYDIR
 10
0.0
 20
1.0
 30
0.0
  9
$PUCSNAME
  2

  9
$PUCSORG
 10
0.0
 20
0.0
 30
0.0
  9
$PUCSXDIR
 10
1.0
 20
0.0
 30
0.0
  9
$PUCSYDIR
 10
0.0
 20
1.0
 30
0.0
  9
$USERI1
 70
     0
  9
$USERI2
 70
     0
  9
$USERI3
 70
     0
  9
$USERI4
 70
     0
  9
$USERI5
 70
     0
  9
$USERR1
 40
0.0
  9
$USERR2
 40
0.0
  9
$USERR3
 40
0.0
  9
$USERR4
 40
0.0
  9
$USERR5
 40
0.0
  9
$WORLDVIEW
 70
     1
  9
$SHADEDGE
 70
     3
  9
$SHADEDIF
 70
    70
  9
$TILEMODE
 70
     1
  9
$MAXACTVP
 70
    48
  9
$PLIMCHECK
 70
     0
  9
$PEXTMIN
 10
0.0
 20
0.0
 30
0.0
  9
$PEXTMAX
 10
208.41041893864801
 20
295.40953368001158
 30
0.0
  9
$PLIMMIN
 10
-0.793749988079071
 20
-0.793749988079071
  9
$PLIMMAX
 10
209.2062500119209
 20
296.20625001192087
  9
$UNITMODE
 70
     0
  9
$VISRETAIN
 70
     1
  9
$PLINEGEN
 70
     1
  9
$PSLTSCALE
 70
     1
  0
ENDSEC
  0
SECTION
  2
TABLES
  0
TABLE
  2
VPORT
 70
     1
  0
VPORT
  2
*ACTIVE
 70
     0
 10
0.0
 20
0.0
 11
1.0
 21
1.0
 12
201.86996427122611
 22
306.06127954275962
 13
0.0
 23
0.0
 14
1.0
 24
1.0
 15
50.0
 25
50.0
 16
0.0
 26
0.0
 36
1.0
 17
0.0
 27
0.0
 37
0.0
 40
3059.1112848571379
 41
1.978962131837307
 42
50.0
 43
0.0
 44
0.0
 50
0.0
 51
0.0
 71
     0
 72
 20000
 73
     1
 74
     3
 75
     0
 76
     0
 77
     0
 78
     0
  0
ENDTAB
  0
TABLE
  2
LTYPE
 70
     2
  0
LTYPE
  2
CONTINUOUS
 70
     0
  3
Solid line
 72
    65
 73
     0
 40
0.0
  0
LTYPE
  2
EURO_COMMON_PENE-PLAN$0$DA
 70
     0
  3
Dashed __ __ __ __ __ __ __ __ __ __ __ __ __ _
 72
    65
 73
     2
 40
19.050000000000001
 49
12.699999999999999
 49
-6.3499999999999988
  0
ENDTAB
  0
TABLE
  2
LAYER
 70
     1
  0
LAYER
  2
0
 70
     0
 62
     7
  6
CONTINUOUS
  0
ENDTAB
  0
TABLE
  2
STYLE
 70
     4
  0
STYLE
  2
STANDARD
 70
     0
 40
0.0
 41
1.0
 50
0.0
 71
     0
 42
1.5
  3
romans.shx
  4

  0
STYLE
  2
ARIAL
 70
     0
 40
0.0
 41
1.0
 50
0.0
 71
     0
 42
25.0
  3
txt
  4

  0
STYLE
  2
EURO_COMMON_PENE-PLAN$0$AR
 70
     0
 40
0.0
 41
1.0
 50
0.0
 71
     0
 42
25.0
  3
txt
  4

  0
ENDTAB
  0
TABLE
  2
VIEW
 70
     2
  0
VIEW
  2
09
 70
     0
 40
2970.0
 10
19050.0
 20
1485.0
 41
2100.0
 11
0.0
 21
0.0
 31
1.0
 12
0.0
 22
0.0
 32
0.0
 42
50.0
 43
0.0
 44
0.0
 50
0.0
 71
     0
  0
VIEW
  2
COMM-04
 70
     1
 40
477.26027331217421
 10
194.21746115522001
 20
180.60494410563541
 41
755.81685306636155
 11
0.0
 21
0.0
 31
1.0
 12
0.0
 22
0.0
 32
0.0
 42
50.0
 43
0.0
 44
0.0
 50
0.0
 71
     0
  0
ENDTAB
  0
TABLE
  2
UCS
 70
     0
  0
ENDTAB
  0
TABLE
  2
APPID
 70
     4
  0
APPID
  2
ACAD
 70
     0
  0
APPID
  2
ACAD_PSEXT
 70
     0
  0
APPID
  2
ACAD_MLEADERVER
 70
     0
  0
APPID
  2
CONTENTBLOCKICON
 70
     0
  0
ENDTAB
  0
TABLE
  2
DIMSTYLE
 70
     3
  0
DIMSTYLE
  2
1_TO_10
 70
     0
  3

  4

  5
ARCHTICK
  6

  7

 40
10.0
 41
2.0
 42
2.0
 43
6.0
 44
2.0
 45
0.0
 46
2.0
 47
0.0
 48
0.0
140
2.0
141
2.0
142
0.0
143
0.0394
144
1.0
145
0.0
146
1.0
147
1.0
 71
     0
 72
     0
 73
     0
 74
     0
 75
     0
 76
     0
 77
     1
 78
     0
170
     0
171
     2
172
     0
173
     0
174
     0
175
     0
176
   256
177
   256
178
   256
  0
DIMSTYLE
  2
EURO_COMMON_PENE-PLAN$0$1_
 70
     0
  3

  4

  5
EURO_COMMON_PENE-PLAN$0$_A
  6

  7

 40
10.0
 41
2.0
 42
2.0
 43
6.0
 44
1.5
 45
0.0
 46
1.5
 47
0.0
 48
0.0
140
2.0
141
2.0
142
0.0
143
0.0394
144
1.0
145
0.0
146
1.0
147
1.0
 71
     0
 72
     0
 73
     0
 74
     0
 75
     0
 76
     0
 77
     0
 78
     0
170
     0
171
     2
172
     1
173
     0
174
     1
175
     0
176
     0
177
     0
178
     0
  0
ENDTAB
  0
ENDSEC
  0
SECTION
  2
BLOCKS
  0
BLOCK
  8
0
  2
$MODEL_SPACE
 70
     0
 10
0.0
 20
0.0
 30
0.0
  3
$MODEL_SPACE
  1

  0
ENDBLK
  5
17
  8
0
  0
BLOCK
 67
     1
  8
0
  2
$PAPER_SPACE
 70
     0
 10
0.0
 20
0.0
 30
0.0
  3
$PAPER_SPACE
  1

  0
ENDBLK
  5
20
 67
     1
  8
0
  0
BLOCK
  8
0
  2
_ARCHTICK
 70
     0
 10
0.0
 20
0.0
 30
0.0
  3
_ARCHTICK
  1

  0
POLYLINE
  5
BA
  8
0
  6
BYBLOCK
 62
     0
 66
     1
 10
0.0
 20
0.0
 30
0.0
 40
0.15
 41
0.15
  0
VERTEX
  5
500
  8
0
  6
BYBLOCK
 62
     0
 10
-0.5
 20
-0.5
 30
0.0
  0
VERTEX
  5
501
  8
0
  6
BYBLOCK
 62
     0
 10
0.5
 20
0.5
 30
0.0
  0
SEQEND
  5
502
  8
0
  6
BYBLOCK
 62
     0
  0
ENDBLK
  5
BB
  8
0
  0
BLOCK
  8
0
  2
EURO_COMMON_PENE-PLAN$0$_A
 70
     0
 10
0.0
 20
0.0
 30
0.0
  3
EURO_COMMON_PENE-PLAN$0$_A
  1

  0
POLYLINE
  5
45A
  8
0
  6
BYBLOCK
 62
     0
 66
     1
 10
0.0
 20
0.0
 30
0.0
 40
0.15
 41
0.15
  0
VERTEX
  5
524
  8
0
  6
BYBLOCK
 62
     0
 10
-0.5
 20
-0.5
 30
0.0
  0
VERTEX
  5
525
  8
0
  6
BYBLOCK
 62
     0
 10
0.5
 20
0.5
 30
0.0
  0
SEQEND
  5
526
  8
0
  6
BYBLOCK
 62
     0
  0
ENDBLK
  5
45B
  8
0
  0
BLOCK
  8
0
  2
*U3
 70
     1
 10
0.0
 20
0.0
 30
0.0
  3
*U3
  1

  0
TEXT
  5
52D
  8
0
  6
CONTINUOUS
 10
285.94226994556851
 20
934.62621496494535
 30
0.0
 40
20.0
  1
B
  7
EURO_COMMON_PENE-PLAN$0$AR
  0
ENDBLK
  5
52F
  8
0
  0
BLOCK
  8
0
  2
*U4
 70
     1
 10
0.0
 20
0.0
 30
0.0
  3
*U4
  1

  0
TEXT
  5
531
  8
0
  6
CONTINUOUS
 10
285.94226994556823
 20
-339.68884894993113
 30
0.0
 40
20.0
  1
B
  7
EURO_COMMON_PENE-PLAN$0$AR
  0
ENDBLK
  5
533
  8
0
  0
BLOCK
  8
0
  2
*U5
 70
     1
 10
0.0
 20
0.0
 30
0.0
  3
*U5
  1

  0
TEXT
  5
535
  8
0
  6
CONTINUOUS
 10
-337.96586449122412
 20
186.4367352188745
 30
0.0
 40
20.0
  1
A
  7
EURO_COMMON_PENE-PLAN$0$AR
  0
ENDBLK
  5
537
  8
0
  0
BLOCK
  8
0
  2
*U6
 70
     1
 10
0.0
 20
0.0
 30
0.0
  3
*U6
  1

  0
TEXT
  5
539
  8
0
  6
CONTINUOUS
 10
676.11914089851416
 20
186.4367352188745
 30
0.0
 40
20.0
  1
A
  7
EURO_COMMON_PENE-PLAN$0$AR
  0
ENDBLK
  5
53B
  8
0
  0
BLOCK
  8
0
  2
*U7
 70
     1
 10
0.0
 20
0.0
 30
0.0
  3
*U7
  1

  0
SOLID
  5
54B
  8
0
 10
825.10174101868677
 20
-59.969191252743883
 30
0.0
 11
845.10174101868688
 21
-63.302524586077197
 31
0.0
 12
825.10174101868677
 22
-66.63585791941054
 32
0.0
 13
825.10174101868677
 23
-66.63585791941054
 33
0.0
  0
POLYLINE
  5
54C
  8
0
 66
     1
 10
0.0
 20
0.0
 30
0.0
  0
VERTEX
  5
54D
  8
0
 10
825.10174101868677
 20
-63.302524586077212
 30
0.0
  0
VERTEX
  5
54E
  8
0
 10
720.05596250305825
 20
-63.302524586077283
 30
0.0
  0
SEQEND
  5
54F
  8
0
  0
ENDBLK
  5
551
  8
0
  0
BLOCK
  8
0
  2
*U8
 70
     1
 10
0.0
 20
0.0
 30
0.0
  3
*U8
  1

  0
TEXT
  5
553
  8
0
  6
CONTINUOUS
 10
654.50002798736932
 20
-73.13881380845109
 30
0.0
 40
20.0
  1
Fall
 50
0.0
  7
EURO_COMMON_PENE-PLAN$0$AR
  0
ENDBLK
  5
555
  8
0
  0
ENDSEC
  0
SECTION
  2
ENTITIES
  0
POLYLINE
  5
47B
  8
0
 66
     1
 10
0.0
 20
0.0
 30
0.0
 70
     1
  0
VERTEX
  5
527
  8
0
 10
480.0831437155303
 20
0.5439346110208591
 30
0.0
  0
VERTEX
  5
528
  8
0
 10
480.0831437155303
 20
605.69028637667225
 30
0.0
  0
VERTEX
  5
529
  8
0
 10
-5.8428142234818781
 20
605.69028637667225
 30
0.0
  0
VERTEX
  5
52A
  8
0
 10
-5.8428142234820832
 20
0.5439346110208591
 30
0.0
  0
SEQEND
  5
52B
  8
0
  0
LINE
  5
47C
  8
0
 10
1424.3782229774599
 20
-199.99999999995509
 30
0.0
 11
-1045.1184959181369
 21
-199.99999999995461
 31
0.0
  0
LINE
  5
47D
  8
0
 10
1424.3782229774599
 20
-209.99999999995529
 30
0.0
 11
-1045.1184959181369
 21
-209.99999999995461
 31
0.0
  0
LINE
  5
47E
  8
0
 10
-1045.1184959181369
 20
810.00000000009436
 30
0.0
 11
1424.3782229774599
 21
809.99999999997658
 31
0.0
  0
LINE
  5
47F
  8
0
 10
-1045.1184959181369
 20
820.00000000009436
 30
0.0
 11
1424.3782229774599
 21
819.99999999997658
 31
0.0
  0
LINE
  5
480
  8
0
 10
-409.99999999998778
 20
310.00000000006418
 30
0.0
 11
-1045.1184959181369
 21
310.0000000000947
 31
0.0
  0
LINE
  5
481
  8
0
 10
-409.99999999998778
 20
310.00000000006418
 30
0.0
 11
-53.841432201213792
 21
310.00000000005338
 31
0.0
  0
LINE
  5
482
  8
0
 10
528.97769386789253
 20
310.00000000001938
 30
0.0
 11
1424.37822297752
 21
309.99999999997669
 31
0.0
  0
LINE
  5
483
  8
0
 10
-53.841432201213792
 20
320.00000000005338
 30
0.0
 11
-1045.1184959181369
 21
320.00000000009459
 31
0.0
  0
LINE
  5
484
  8
0
 10
528.97769386789253
 20
320.00000000000608
 30
0.0
 11
1424.3782229774381
 21
319.99999999998772
 31
0.0
  0
LINE
  5
485
  8
0
  6
CONTINUOUS
 10
321.17091384936617
 20
922.55363314623253
 30
0.0
 11
321.17091384936589
 21
-308.26626818388331
 31
0.0
  0
SOLID
  5
486
  8
0
  6
CONTINUOUS
 10
321.17091384936617
 20
922.55363314623253
 30
0.0
 11
266.83308885633483
 21
922.55363314623253
 31
0.0
 12
321.17091384936617
 22
905.09556801598433
 32
0.0
 13
266.83308885633483
 23
905.09556801598433
 33
0.0
  0
SOLID
  5
487
  8
0
  6
CONTINUOUS
 10
321.17091384936589
 20
-290.80820305363522
 30
0.0
 11
266.8330888563346
 21
-290.80820305363522
 31
0.0
 12
321.17091384936589
 22
-308.26626818388331
 32
0.0
 13
266.8330888563346
 23
-308.26626818388331
 33
0.0
  0
INSERT
  5
488
  8
0
  6
CONTINUOUS
  2
*U3
 10
0.0
 20
0.0
 30
0.0
  0
INSERT
  5
489
  8
0
  6
CONTINUOUS
  2
*U4
 10
0.0
 20
0.0
 30
0.0
  0
LINE
  5
48A
  8
0
  6
CONTINUOUS
 10
-305.99994806035471
 20
170.02093883117459
 30
0.0
 11
664.59602004754186
 21
170.02093883117459
 31
0.0
  0
SOLID
  5
48B
  8
0
  6
CONTINUOUS
 10
-305.99994806035471
 20
224.35876382420591
 30
0.0
 11
-305.99994806035471
 21
170.02093883117459
 31
0.0
 12
-288.54188293010628
 22
224.35876382420591
 32
0.0
 13
-288.54188293010628
 23
170.02093883117459
 33
0.0
  0
SOLID
  5
48C
  8
0
  6
CONTINUOUS
 10
647.13795491729377
 20
224.35876382420591
 30
0.0
 11
647.13795491729377
 21
170.02093883117459
 31
0.0
 12
664.59602004754186
 22
224.35876382420591
 32
0.0
 13
664.59602004754186
 23
170.02093883117459
 33
0.0
  0
INSERT
  5
48D
  8
0
  6
CONTINUOUS
  2
*U5
 10
0.0
 20
0.0
 30
0.0
  0
INSERT
  5
48E
  8
0
  6
CONTINUOUS
  2
*U6
 10
0.0
 20
0.0
 30
0.0
  0
POLYLINE
  5
48F
  8
0
  6
CONTINUOUS
 66
     1
 10
0.0
 20
0.0
 30
0.0
 70
   128
  0
VERTEX
  5
53C
  8
0
  6
CONTINUOUS
 10
-1045.1184959181369
 20
-1210.6554998830379
 30
0.0
  0
VERTEX
  5
53D
  8
0
  6
CONTINUOUS
 10
-1045.1184959181369
 20
292.12254495999798
 30
0.0
  0
VERTEX
  5
53E
  8
0
  6
CONTINUOUS
 10
-1031.3811088208561
 20
297.12254495999707
 30
0.0
  0
VERTEX
  5
53F
  8
0
  6
CONTINUOUS
 10
-1058.8558830153991
 20
307.12254495999707
 30
0.0
  0
VERTEX
  5
540
  8
0
  6
CONTINUOUS
 10
-1045.1184959181369
 20
312.12254495999798
 30
0.0
  0
VERTEX
  5
541
  8
0
  6
CONTINUOUS
 10
-1045.1184959181369
 20
1814.900589803033
 30
0.0
  0
SEQEND
  5
542
  8
0
  6
CONTINUOUS
  0
POLYLINE
  5
490
  8
0
  6
CONTINUOUS
 66
     1
 10
0.0
 20
0.0
 30
0.0
 70
   128
  0
VERTEX
  5
543
  8
0
  6
CONTINUOUS
 10
1424.3782229774599
 20
-1202.7780448430401
 30
0.0
  0
VERTEX
  5
544
  8
0
  6
CONTINUOUS
 10
1424.3782229774599
 20
299.99999999999608
 30
0.0
  0
VERTEX
  5
545
  8
0
  6
CONTINUOUS
 10
1438.115610074741
 20
304.99999999999511
 30
0.0
  0
VERTEX
  5
546
  8
0
  6
CONTINUOUS
 10
1410.640835880198
 20
314.99999999999511
 30
0.0
  0
VERTEX
  5
547
  8
0
  6
CONTINUOUS
 10
1424.3782229774599
 20
319.99999999999602
 30
0.0
  0
VERTEX
  5
548
  8
0
  6
CONTINUOUS
 10
1424.3782229774599
 20
1822.7780448430319
 30
0.0
  0
SEQEND
  5
549
  8
0
  6
CONTINUOUS
  0
INSERT
  5
491
  8
0
  6
CONTINUOUS
  2
*U7
 10
0.0
 20
0.0
 30
0.0
1001
ACAD
1000
DSTYLE
1002
{
1070
   147
1040
1.0
1070
    77
1070
     0
1002
}
  0
INSERT
  5
492
  8
0
  6
CONTINUOUS
  2
*U8
 10
0.0
 20
0.0
 30
0.0
  0
LINE
  5
493
  8
0
  6
EURO_COMMON_PENE-PLAN$0$DA
 10
528.97769386789253
 20
320.00000000000608
 30
0.0
 11
480.0831437155303
 21
320.0000000000212
 31
0.0
  0
LINE
  5
494
  8
0
  6
EURO_COMMON_PENE-PLAN$0$DA
 10
479.99999999999989
 20
310.00000000002171
 30
0.0
 11
528.97769386789253
 21
310.00000000001938
 31
0.0
  0
LINE
  5
495
  8
0
  6
CONTINUOUS
 10
-53.841432201213678
 20
810.00000000005321
 30
0.0
 11
-53.841432201213912
 21
-199.99999999995489
 31
0.0
  0
LINE
  5
496
  8
0
  6
EURO_COMMON_PENE-PLAN$0$DA
 10
-99.539855207246887
 20
810.00000000005343
 30
0.0
 11
-99.539855207247115
 21
-199.99999999995481
 31
0.0
  0
LINE
  5
497
  8
0
  6
EURO_COMMON_PENE-PLAN$0$DA
 10
-187.5097560687926
 20
810.00000000005343
 30
0.0
 11
-187.50975606879291
 21
-199.9999999999547
 31
0.0
  0
LINE
  5
498
  8
0
  6
EURO_COMMON_PENE-PLAN$0$DA
 10
-231.92071610060071
 20
810.00000000005502
 30
0.0
 11
-231.92071610060091
 21
-199.99999999995319
 31
0.0
  0
LINE
  5
499
  8
0
  6
CONTINUOUS
 10
554.35376247621946
 20
660.24028637667288
 30
0.0
 11
554.35376247621946
 21
-54.006065388979827
 31
0.0
  0
LINE
  5
49A
  8
0
  6
CONTINUOUS
 10
554.35376247621946
 20
-54.006065388979827
 30
0.0
 11
-15.84281422348193
 21
-54.006065388980012
 31
0.0
  0
LINE
  5
49B
  8
0
  6
CONTINUOUS
 10
554.35376247621946
 20
660.24028637667288
 30
0.0
 11
-15.842814223481851
 21
660.24028637667288
 31
0.0
  0
LINE
  5
49C
  8
0
  6
CONTINUOUS
 10
-15.84281422348176
 20
810.00000000004491
 30
0.0
 11
-15.84281422348187
 21
615.69028637667236
 31
0.0
  0
LINE
  5
49D
  8
0
  6
EURO_COMMON_PENE-PLAN$0$DA
 10
-15.84281422348193
 20
-44.006065388979827
 30
0.0
 11
528.97769386789253
 21
-44.006065388979827
 31
0.0
  0
LINE
  5
49E
  8
0
  6
EURO_COMMON_PENE-PLAN$0$DA
 10
-15.842814223481851
 20
650.24028637667323
 30
0.0
 11
528.97769386789253
 21
650.24028637667311
 31
0.0
  0
LINE
  5
49F
  8
0
  6
EURO_COMMON_PENE-PLAN$0$DA
 10
480.0831437155303
 20
615.69028637667225
 30
0.0
 11
480.0831437155303
 21
660.24028637667288
 31
0.0
  0
LINE
  5
4A0
  8
0
  6
EURO_COMMON_PENE-PLAN$0$DA
 10
480.0831437155303
 20
-44.006065388979771
 30
0.0
 11
480.0831437155303
 21
-9.4560653889791411
 31
0.0
  0
LINE
  5
4A1
  8
0
  6
CONTINUOUS
 10
-15.84281422348192
 20
-9.4560653889791393
 30
0.0
 11
490.0831437155303
 21
-9.4560653889791411
 31
0.0
  0
LINE
  5
4A2
  8
0
  6
CONTINUOUS
 10
490.08314371553041
 20
615.69028637667225
 30
0.0
 11
-15.84281422348187
 21
615.69028637667236
 31
0.0
  0
LINE
  5
4A3
  8
0
  6
CONTINUOUS
 10
-15.84281422348192
 20
-9.4560653889791393
 30
0.0
 11
-15.84281422348192
 21
615.69028637667236
 31
0.0
  0
LINE
  5
4A4
  8
0
  6
CONTINUOUS
 10
-15.84281422348192
 20
-9.4560653889791393
 30
0.0
 11
-15.84281422348198
 21
-199.99999999995481
 31
0.0
  0
LINE
  5
4A5
  8
0
  6
CONTINUOUS
 10
490.0831437155303
 20
-9.4560653889791411
 30
0.0
 11
490.08314371553041
 21
615.69028637667225
 31
0.0
  0
POLYLINE
  5
4A6
  8
0
  6
CONTINUOUS
 66
     1
 10
0.0
 20
0.0
 30
0.0
 70
   128
  0
VERTEX
  5
556
  8
0
  6
CONTINUOUS
 10
-1045.1184959181369
 20
-1210.6554998830379
 30
0.0
  0
VERTEX
  5
557
  8
0
  6
CONTINUOUS
 10
-1045.1184959181369
 20
292.12254495999798
 30
0.0
  0
VERTEX
  5
558
  8
0
  6
CONTINUOUS
 10
-1031.3811088208561
 20
297.12254495999707
 30
0.0
  0
VERTEX
  5
559
  8
0
  6
CONTINUOUS
 10
-1058.8558830153991
 20
307.12254495999707
 30
0.0
  0
VERTEX
  5
55A
  8
0
  6
CONTINUOUS
 10
-1045.1184959181369
 20
312.12254495999798
 30
0.0
  0
VERTEX
  5
55B
  8
0
  6
CONTINUOUS
 10
-1045.1184959181369
 20
1814.900589803033
 30
0.0
  0
SEQEND
  5
55C
  8
0
  6
CONTINUOUS
  0
POLYLINE
  5
4A7
  8
0
  6
CONTINUOUS
 66
     1
 10
0.0
 20
0.0
 30
0.0
 70
   128
  0
VERTEX
  5
55D
  8
0
  6
CONTINUOUS
 10
-1285.5868737516271
 20
-598.40540476166586
 30
0.0
  0
VERTEX
  5
55E
  8
0
  6
CONTINUOUS
 10
217.19117109140819
 20
-598.4054047616662
 30
0.0
  0
VERTEX
  5
55F
  8
0
  6
CONTINUOUS
 10
222.19117109140731
 20
-612.14279185894645
 30
0.0
  0
VERTEX
  5
560
  8
0
  6
CONTINUOUS
 10
232.1911710914074
 20
-584.66801766440381
 30
0.0
  0
VERTEX
  5
561
  8
0
  6
CONTINUOUS
 10
237.19117109140831
 20
-598.4054047616662
 30
0.0
  0
VERTEX
  5
562
  8
0
  6
CONTINUOUS
 10
1739.969215934444
 20
-598.40540476166643
 30
0.0
  0
SEQEND
  5
563
  8
0
  6
CONTINUOUS
  0
POLYLINE
  5
4A8
  8
0
  6
CONTINUOUS
 66
     1
 10
0.0
 20
0.0
 30
0.0
 70
   128
  0
VERTEX
  5
564
  8
0
  6
CONTINUOUS
 10
-1336.2293017166569
 20
1201.953734593111
 30
0.0
  0
VERTEX
  5
565
  8
0
  6
CONTINUOUS
 10
166.54874312637841
 20
1201.953734593111
 30
0.0
  0
VERTEX
  5
566
  8
0
  6
CONTINUOUS
 10
171.54874312637739
 20
1188.2163474958311
 30
0.0
  0
VERTEX
  5
567
  8
0
  6
CONTINUOUS
 10
181.5487431263775
 20
1215.6911216903741
 30
0.0
  0
VERTEX
  5
568
  8
0
  6
CONTINUOUS
 10
186.54874312637841
 20
1201.953734593111
 30
0.0
  0
VERTEX
  5
569
  8
0
  6
CONTINUOUS
 10
1689.326787969414
 20
1201.953734593111
 30
0.0
  0
SEQEND
  5
56A
  8
0
  6
CONTINUOUS
  0
ENDSEC
  0
EOF
