  0
SECTION
  2
HEADER
  9
$ACADVER
  1
AC1009
  9
$INSBASE
 10
0.0
 20
0.0
 30
0.0
  9
$EXTMIN
 10
201.30172868975771
 20
-47.275460670899058
 30
-0.0000000000004164
  9
$EXTMAX
 10
814.22653743049625
 20
618.96345193368586
 30
0.0000000000002879
  9
$LIMMIN
 10
0.0
 20
0.0
  9
$LIMMAX
 10
12.0
 20
9.0
  9
$ORTHOMODE
 70
     0
  9
$REGENMODE
 70
     1
  9
$FILLMODE
 70
     1
  9
$QTEXTMODE
 70
     0
  9
$MIRRTEXT
 70
     0
  9
$DRAGMODE
 70
     2
  9
$LTSCALE
 40
1.0
  9
$OSMODE
 70
     0
  9
$ATTMODE
 70
     1
  9
$TEXTSIZE
 40
35.0
  9
$TRACEWID
 40
0.05
  9
$TEXTSTYLE
  7
ARIAL
  9
$CLAYER
  8
0
  9
$CELTYPE
  6
CONTINUOUS
  9
$CECOLOR
 62
   256
  9
$DIMSCALE
 40
5.0
  9
$DIMASZ
 40
2.0
  9
$DIMEXO
 40
2.0
  9
$DIMDLI
 40
6.0
  9
$DIMRND
 40
0.0
  9
$DIMDLE
 40
2.0
  9
$DIMEXE
 40
2.0
  9
$DIMTP
 40
0.0
  9
$DIMTM
 40
0.0
  9
$DIMTXT
 40
2.0
  9
$DIMCEN
 40
2.0
  9
$DIMTSZ
 40
0.0
  9
$DIMTOL
 70
     0
  9
$DIMLIM
 70
     0
  9
$DIMTIH
 70
     0
  9
$DIMTOH
 70
     0
  9
$DIMSE1
 70
     0
  9
$DIMSE2
 70
     0
  9
$DIMTAD
 70
     1
  9
$DIMZIN
 70
     0
  9
$DIMBLK
  1
ARCHTICK
  9
$DIMASO
 70
     1
  9
$DIMSHO
 70
     1
  9
$DIMPOST
  1

  9
$DIMAPOST
  1

  9
$DIMALT
 70
     0
  9
$DIMALTD
 70
     2
  9
$DIMALTF
 40
0.0394
  9
$DIMLFAC
 40
1.0
  9
$DIMTOFL
 70
     0
  9
$DIMTVP
 40
0.0
  9
$DIMTIX
 70
     0
  9
$DIMSOXD
 70
     0
  9
$DIMSAH
 70
     0
  9
$DIMBLK1
  1

  9
$DIMBLK2
  1

  9
$DIMSTYLE
  2
1_TO_5
  9
$DIMCLRD
 70
   256
  9
$DIMCLRE
 70
   256
  9
$DIMCLRT
 70
   256
  9
$DIMTFAC
 40
1.0
  9
$DIMGAP
 40
1.0
  9
$LUNITS
 70
     2
  9
$LUPREC
 70
     1
  9
$SKETCHINC
 40
0.1
  9
$FILLETRAD
 40
0.0
  9
$AUNITS
 70
     1
  9
$AUPREC
 70
     4
  9
$MENU
  1
.
  9
$ELEVATION
 40
0.0
  9
$PELEVATION
 40
0.0
  9
$THICKNESS
 40
0.0
  9
$LIMCHECK
 70
     0
  9
$BLIPMODE
 70
     0
  9
$CHAMFERA
 40
0.0
  9
$CHAMFERB
 40
0.0
  9
$SKPOLY
 70
     0
  9
$TDCREATE
 40
2452152.65359294
  9
$TDUPDATE
 40
2455419.5925440281
  9
$TDINDWG
 40
25.836992476900001
  9
$TDUSRTIMER
 40
25.836992476900001
  9
$USRTIMER
 70
     1
  9
$ANGBASE
 50
0.0
  9
$ANGDIR
 70
     0
  9
$PDMODE
 70
     0
  9
$PDSIZE
 40
0.0
  9
$PLINEWID
 40
0.0
  9
$COORDS
 70
     1
  9
$SPLFRAME
 70
     0
  9
$SPLINETYPE
 70
     6
  9
$SPLINESEGS
 70
     8
  9
$ATTDIA
 70
     0
  9
$ATTREQ
 70
     0
  9
$HANDLING
 70
     1
  9
$HANDSEED
  5
DF5
  9
$SURFTAB1
 70
     6
  9
$SURFTAB2
 70
     6
  9
$SURFTYPE
 70
     6
  9
$SURFU
 70
     6
  9
$SURFV
 70
     6
  9
$UCSNAME
  2

  9
$UCSORG
 10
0.0
 20
0.0
 30
0.0
  9
$UCSXDIR
 10
1.0
 20
0.0
 30
0.0
  9
$UCSYDIR
 10
0.0
 20
1.0
 30
0.0
  9
$PUCSNAME
  2

  9
$PUCSORG
 10
0.0
 20
0.0
 30
0.0
  9
$PUCSXDIR
 10
1.0
 20
0.0
 30
0.0
  9
$PUCSYDIR
 10
0.0
 20
1.0
 30
0.0
  9
$USERI1
 70
     0
  9
$USERI2
 70
     0
  9
$USERI3
 70
     0
  9
$USERI4
 70
     0
  9
$USERI5
 70
     0
  9
$USERR1
 40
0.0
  9
$USERR2
 40
0.0
  9
$USERR3
 40
0.0
  9
$USERR4
 40
0.0
  9
$USERR5
 40
0.0
  9
$WORLDVIEW
 70
     1
  9
$SHADEDGE
 70
     3
  9
$SHADEDIF
 70
    70
  9
$TILEMODE
 70
     1
  9
$MAXACTVP
 70
    48
  9
$PLIMCHECK
 70
     0
  9
$PEXTMIN
 10
0.0
 20
0.0
 30
0.0
  9
$PEXTMAX
 10
208.41041893864801
 20
295.40953368001158
 30
0.0
  9
$PLIMMIN
 10
-0.793749988079071
 20
-0.793749988079071
  9
$PLIMMAX
 10
209.2062500119209
 20
296.20625001192087
  9
$UNITMODE
 70
     0
  9
$VISRETAIN
 70
     1
  9
$PLINEGEN
 70
     1
  9
$PSLTSCALE
 70
     1
  0
ENDSEC
  0
SECTION
  2
TABLES
  0
TABLE
  2
VPORT
 70
     1
  0
VPORT
  2
*ACTIVE
 70
     0
 10
0.0
 20
0.0
 11
1.0
 21
1.0
 12
507.76413306012688
 22
285.8439956313934
 13
0.0
 23
0.0
 14
1.0
 24
1.0
 15
50.0
 25
50.0
 16
0.0
 26
0.0
 36
1.0
 17
0.0
 27
0.0
 37
0.0
 40
671.8375589289933
 41
1.978962131837307
 42
50.0
 43
0.0
 44
0.0
 50
0.0
 51
0.0
 71
     0
 72
 20000
 73
     1
 74
     3
 75
     0
 76
     0
 77
     0
 78
     0
  0
ENDTAB
  0
TABLE
  2
LTYPE
 70
     2
  0
LTYPE
  2
CONTINUOUS
 70
     0
  3
Solid line
 72
    65
 73
     0
 40
0.0
  0
LTYPE
  2
EURO_COMMON_ROOF-MANSARD$0
 70
     0
  3
Hidden __ __ __ __ __ __ __ __ __ __ __ __ __ _
 72
    65
 73
     2
 40
9.5249999999999986
 49
6.3499999999999988
 49
-3.1749999999999989
  0
ENDTAB
  0
TABLE
  2
LAYER
 70
     2
  0
LAYER
  2
0
 70
     0
 62
     7
  6
CONTINUOUS
  0
ENDTAB
  0
TABLE
  2
STYLE
 70
     6
  0
STYLE
  2
STANDARD
 70
     0
 40
0.0
 41
1.0
 50
0.0
 71
     0
 42
1.5
  3
romans.shx
  4

  0
STYLE
  2
ARIAL
 70
     0
 40
0.0
 41
1.0
 50
0.0
 71
     0
 42
35.0
  3
txt
  4

  0
STYLE
  2
EURO_COMMON_ROOF-MANSARD$0
 70
     0
 40
0.0
 41
1.0
 50
0.0
 71
     0
 42
35.0
  3
txt
  4

  0
STYLE
  2
EURO_COMMON_ROOF-MANSARD$1
 70
     0
 40
0.0
 41
1.0
 50
330.0
 71
     0
 42
20.0
  3
txt
  4

  0
STYLE
  2
EURO_COMMON_ROOF-MANSARD$2
 70
     0
 40
0.0
 41
1.0
 50
30.0
 71
     0
 42
20.0
  3
txt
  4

  0
ENDTAB
  0
TABLE
  2
VIEW
 70
     2
  0
VIEW
  2
09
 70
     0
 40
2970.0
 10
19050.0
 20
1485.0
 41
2100.0
 11
0.0
 21
0.0
 31
1.0
 12
0.0
 22
0.0
 32
0.0
 42
50.0
 43
0.0
 44
0.0
 50
0.0
 71
     0
  0
VIEW
  2
COMM-04
 70
     1
 40
477.26027331217421
 10
194.21746115522001
 20
180.60494410563541
 41
755.81685306636155
 11
0.0
 21
0.0
 31
1.0
 12
0.0
 22
0.0
 32
0.0
 42
50.0
 43
0.0
 44
0.0
 50
0.0
 71
     0
  0
ENDTAB
  0
TABLE
  2
UCS
 70
     0
  0
ENDTAB
  0
TABLE
  2
APPID
 70
     8
  0
APPID
  2
ACAD
 70
     0
  0
APPID
  2
ACAD_PSEXT
 70
     0
  0
APPID
  2
ACAD_MLEADERVER
 70
     0
  0
APPID
  2
ACAD_EXEMPT_FROM_CAD_STANDARDS
 70
     0
  0
APPID
  2
ACAUTHENVIRON
 70
     0
  0
APPID
  2
ACDBDYNAMICBLOCKTRUENAME
 70
     0
  0
APPID
  2
ACDBDYNAMICBLOCKGUID
 70
     0
  0
APPID
  2
CONTENTBLOCKICON
 70
     0
  0
ENDTAB
  0
TABLE
  2
DIMSTYLE
 70
     2
  0
DIMSTYLE
  2
1_TO_5
 70
     0
  3

  4

  5
ARCHTICK
  6

  7

 40
5.0
 41
2.0
 42
2.0
 43
6.0
 44
2.0
 45
0.0
 46
2.0
 47
0.0
 48
0.0
140
2.0
141
2.0
142
0.0
143
0.0394
144
1.0
145
0.0
146
1.0
147
1.0
 71
     0
 72
     0
 73
     0
 74
     0
 75
     0
 76
     0
 77
     1
 78
     0
170
     0
171
     2
172
     0
173
     0
174
     0
175
     0
176
   256
177
   256
178
   256
  0
DIMSTYLE
  2
EURO_COMMON_ROOF-MANSARD$0
 70
     0
  3

  4

  5
EURO_COMMON_ROOF-MANSARD$0
  6

  7

 40
5.0
 41
2.0
 42
2.0
 43
6.0
 44
2.0
 45
0.0
 46
2.0
 47
0.0
 48
0.0
140
2.0
141
2.0
142
0.0
143
0.0394
144
1.0
145
0.0
146
1.0
147
1.0
 71
     0
 72
     0
 73
     0
 74
     0
 75
     0
 76
     0
 77
     1
 78
     0
170
     0
171
     2
172
     0
173
     0
174
     0
175
     0
176
   256
177
   256
178
   256
  0
ENDTAB
  0
ENDSEC
  0
SECTION
  2
BLOCKS
  0
BLOCK
  8
0
  2
$MODEL_SPACE
 70
     0
 10
0.0
 20
0.0
 30
0.0
  3
$MODEL_SPACE
  1

  0
ENDBLK
  5
17
  8
0
  0
BLOCK
 67
     1
  8
0
  2
$PAPER_SPACE
 70
     0
 10
0.0
 20
0.0
 30
0.0
  3
$PAPER_SPACE
  1

  0
ENDBLK
  5
20
 67
     1
  8
0
  0
BLOCK
  8
0
  2
_ARCHTICK
 70
     0
 10
0.0
 20
0.0
 30
0.0
  3
_ARCHTICK
  1

  0
POLYLINE
  5
170
  8
0
  6
BYBLOCK
 62
     0
 66
     1
 10
0.0
 20
0.0
 30
0.0
 40
0.15
 41
0.15
  0
VERTEX
  5
810
  8
0
  6
BYBLOCK
 62
     0
 10
-0.5
 20
-0.5
 30
0.0
  0
VERTEX
  5
811
  8
0
  6
BYBLOCK
 62
     0
 10
0.5
 20
0.5
 30
0.0
  0
SEQEND
  5
812
  8
0
  6
BYBLOCK
 62
     0
  0
ENDBLK
  5
171
  8
0
  0
BLOCK
  8
0
  2
EURO_COMMON_ROOF-MANSARD$0
 70
     0
 10
0.0
 20
0.0
 30
0.0
  3
EURO_COMMON_ROOF-MANSARD$0
  1

  0
POLYLINE
  5
6BE
  8
0
  6
BYBLOCK
 62
     0
 66
     1
 10
0.0
 20
0.0
 30
0.0
 40
0.15
 41
0.15
  0
VERTEX
  5
834
  8
0
  6
BYBLOCK
 62
     0
 10
-0.5
 20
-0.5
 30
0.0
  0
VERTEX
  5
835
  8
0
  6
BYBLOCK
 62
     0
 10
0.5
 20
0.5
 30
0.0
  0
SEQEND
  5
836
  8
0
  6
BYBLOCK
 62
     0
  0
ENDBLK
  5
6BF
  8
0
  0
BLOCK
  8
0
  2
*U5
 70
     1
 10
0.0
 20
0.0
 30
0.0
  3
*U5
  1

  0
SOLID
  5
838
  8
0
 10
612.92161252484073
 20
-16.691019440044801
 30
0.0
 11
604.53161684040413
 21
-22.381867372727019
 31
0.0
 12
610.62241883400122
 22
-14.27755316037252
 32
0.0
 13
610.62241883400122
 23
-14.27755316037252
 33
0.0
  0
POLYLINE
  5
839
  8
0
 66
     1
 10
0.0
 20
0.0
 30
0.0
  0
VERTEX
  5
83A
  8
0
 10
611.77201567942086
 20
-15.484286300208661
 30
0.0
  0
VERTEX
  5
83B
  8
0
 10
667.87220206879056
 20
37.959673405277741
 30
0.0
  0
VERTEX
  5
83C
  8
0
 10
677.87220206879044
 20
37.959673405277741
 30
0.0
  0
SEQEND
  5
83D
  8
0
  0
ENDBLK
  5
83F
  8
0
  0
BLOCK
  8
0
  2
*U6
 70
     1
 10
0.0
 20
0.0
 30
0.0
  3
*U6
  1

  0
TEXT
  5
841
  8
0
  6
CONTINUOUS
 10
681.76715431981359
 20
42.677727066032617
 30
0.0
 40
10.0
  1
Euroline Seamlok
  7
EURO_COMMON_ROOF-MANSARD$0
  0
TEXT
  5
842
  8
0
  6
CONTINUOUS
 10
682.83127437438395
 20
26.011060399365959
 30
0.0
 40
10.0
  1
wall cladding
  7
EURO_COMMON_ROOF-MANSARD$0
  0
ENDBLK
  5
844
  8
0
  0
BLOCK
  8
0
  2
*U7
 70
     1
 10
0.0
 20
0.0
 30
0.0
  3
*U7
  1

  0
TEXT
  5
846
  8
0
  6
CONTINUOUS
 10
265.59225770876861
 20
183.51440820613689
 30
0.0
 40
17.5
  1
Wall
 50
330.0
 51
330.0
  7
EURO_COMMON_ROOF-MANSARD$1
  0
ENDBLK
  5
848
  8
0
  0
BLOCK
  8
0
  2
*U8
 70
     1
 10
0.0
 20
0.0
 30
0.0
  3
*U8
  1

  0
TEXT
  5
84A
  8
0
  6
CONTINUOUS
 10
287.91936315179731
 20
454.60506296446158
 30
0.0
 40
17.5
  1
Roof
 50
330.0
 51
30.0
  7
EURO_COMMON_ROOF-MANSARD$2
  0
ENDBLK
  5
84C
  8
0
  0
BLOCK
  8
0
  2
*U9
 70
     1
 10
0.0
 20
0.0
 30
0.0
  3
*U9
  1

  0
TEXT
  5
84E
  8
0
  6
CONTINUOUS
 10
265.0779827960406
 20
380.61469928684312
 30
-0.0000000000000284
 40
17.5
  1
Wall
 50
330.0
 51
330.0
  7
EURO_COMMON_ROOF-MANSARD$1
  0
ENDBLK
  5
850
  8
0
  0
BLOCK
  8
0
  2
*U10
 70
     1
 10
0.0
 20
0.0
 30
0.0
  3
*U10
  1

  0
SOLID
  5
852
  8
0
 10
761.69656444413806
 20
397.75506182078442
 30
0.0
 11
765.69406591949667
 21
388.43853029170748
 31
0.0
 12
758.89106781175406
 22
395.95497855693418
 32
0.0
 13
758.89106781175406
 23
395.95497855693418
 33
0.0
  0
POLYLINE
  5
853
  8
0
 66
     1
 10
0.0
 20
0.0
 30
0.0
  0
VERTEX
  5
854
  8
0
 10
760.293816127946
 20
396.85502018885933
 30
0.0
  0
VERTEX
  5
855
  8
0
 10
725.9768708700235
 20
450.33925410639489
 30
0.0
  0
VERTEX
  5
856
  8
0
 10
715.9768708700235
 20
450.33925410639489
 30
0.0
  0
SEQEND
  5
857
  8
0
  0
ENDBLK
  5
859
  8
0
  0
BLOCK
  8
0
  2
*U11
 70
     1
 10
0.0
 20
0.0
 30
0.0
  3
*U11
  1

  0
TEXT
  5
85B
  8
0
  6
CONTINUOUS
 10
601.54303730931395
 20
455.14257379716338
 30
0.0
 40
10.0
  1
Euroline Seamlok
  7
EURO_COMMON_ROOF-MANSARD$0
  0
TEXT
  5
85C
  8
0
  6
CONTINUOUS
 10
631.91820784137406
 20
438.30537507046949
 30
0.0
 40
10.0
  1
roof cladding
  7
EURO_COMMON_ROOF-MANSARD$0
  0
ENDBLK
  5
85E
  8
0
  0
ENDSEC
  0
SECTION
  2
ENTITIES
  0
INSERT
  5
6D2
  8
0
  6
CONTINUOUS
  2
*U5
 10
0.0
 20
0.0
 30
0.0
1001
ACAD
1000
DSTYLE
1002
{
1070
   147
1040
1.0
1070
    77
1070
     0
1002
}
  0
INSERT
  5
6D3
  8
0
  6
CONTINUOUS
  2
*U6
 10
0.0
 20
0.0
 30
0.0
  0
INSERT
  5
6D4
  8
0
  6
CONTINUOUS
  2
*U7
 10
0.0
 20
0.0
 30
0.0
  0
INSERT
  5
6D5
  8
0
  6
CONTINUOUS
  2
*U8
 10
0.0
 20
0.0
 30
0.0
  0
INSERT
  5
6D6
  8
0
  6
CONTINUOUS
  2
*U9
 10
0.0
 20
0.0
 30
0.0
  0
INSERT
  5
6D7
  8
0
  6
CONTINUOUS
  2
*U10
 10
0.0
 20
0.0
 30
0.0
1001
ACAD
1000
DSTYLE
1002
{
1070
   147
1040
1.0
1070
    77
1070
     0
1002
}
  0
INSERT
  5
6D8
  8
0
  6
CONTINUOUS
  2
*U11
 10
0.0
 20
0.0
 30
0.0
  0
LINE
  5
6D9
  8
0
  6
CONTINUOUS
 10
735.14397820118631
 20
383.05172556395911
 30
0.0
 11
735.1439782011862
 21
342.33694561665578
 31
0.0
210
0.0
220
1.0
230
0.0
  0
LINE
  5
6DA
  8
0
  6
CONTINUOUS
 10
735.14397820118631
 20
383.05172556395911
 30
0.0
 11
807.15549898536744
 21
395.74929960005858
 31
0.0
210
0.0
220
1.0
230
0.0
  0
LINE
  5
6DB
  8
0
  6
CONTINUOUS
 10
814.201688071131
 20
355.78837554038108
 30
0.0
 11
807.15549898536767
 21
395.74929960005881
 31
0.0
210
0.0
220
1.0
230
0.0
  0
ARC
  5
6DC
  8
0
  6
CONTINUOUS
 10
735.84024194483868
 20
338.38823770562033
 30
0.0
 40
4.009623095429026
 50
99.999999999998607
 51
279.99999999999858
  0
LINE
  5
6DD
  8
0
  6
CONTINUOUS
 10
752.33133733263253
 20
337.22458476919502
 30
0.0
 11
736.53650568849116
 21
334.4395297945851
 31
0.0
210
0.0
220
1.0
230
0.0
  0
LINE
  5
6DE
  8
0
  6
CONTINUOUS
 10
752.24778568339423
 20
337.69842971851921
 30
0.0
 11
752.33133733263253
 21
337.22458476919502
 31
0.0
210
0.0
220
1.0
230
0.0
  0
LINE
  5
6DF
  8
0
  6
CONTINUOUS
 10
736.45295403925286
 20
334.91337474390917
 30
0.0
 11
752.24778568339423
 21
337.69842971851921
 31
0.0
210
0.0
220
1.0
230
0.0
  0
ARC
  5
6E0
  8
0
  6
CONTINUOUS
 10
735.84024194483868
 20
338.38823770562033
 30
0.0
 40
3.5284683239775529
 50
99.999999999998607
 51
279.99999999999858
  0
LINE
  5
6E1
  8
0
  6
CONTINUOUS
 10
814.20168807113077
 20
355.78837554038108
 30
0.0
 11
735.2275298504245
 21
341.86310066733142
 31
0.0
210
0.0
220
1.0
230
0.0
  0
LINE
  5
6E2
  8
0
  6
CONTINUOUS
 10
604.53161684040413
 20
118.074001569365
 30
0.0
 11
604.53161684040413
 21
-47.255131464814554
 31
0.0
210
0.0
220
1.0
230
0.0
  0
LINE
  5
6E3
  8
0
  6
CONTINUOUS
 10
557.34386072525444
 20
109.78605374163379
 30
0.0
 11
557.34386072525444
 21
-47.255131464814554
 31
0.0
210
0.0
220
1.0
230
0.0
  0
LINE
  5
6E4
  8
0
  6
CONTINUOUS
 10
557.34386072525444
 20
109.78605374163379
 30
0.0
 11
604.53161684040413
 21
118.07400156936509
 31
0.0
210
0.0
220
1.0
230
0.0
  0
LINE
  5
6E5
  8
0
  6
CONTINUOUS
 10
604.53161684040413
 20
-47.25513146481461
 30
0.0
 11
557.34386072525444
 21
-47.25513146481461
 31
0.0
210
0.0
220
1.0
230
0.0
  0
LINE
  5
6E6
  8
0
  6
CONTINUOUS
 10
557.34386072525444
 20
350.79399358011938
 30
0.0
 11
640.26672685699623
 21
365.41553219682157
 31
0.0
210
0.0
220
1.0
230
0.0
  0
LINE
  5
6E7
  8
0
  6
CONTINUOUS
 10
647.31291594275945
 20
325.45460813714419
 30
0.0
 11
640.26672685699623
 21
365.41553219682157
 31
0.0
210
0.0
220
1.0
230
0.0
  0
ARC
  5
6E8
  8
0
  6
CONTINUOUS
 10
558.03456206971578
 20
306.12952492072583
 30
0.0
 40
4.0096230954290286
 50
99.999999999998607
 51
279.99999999999858
  0
LINE
  5
6E9
  8
0
  6
CONTINUOUS
 10
574.52565745750951
 20
304.96587198430052
 30
0.0
 11
558.73082581336826
 21
302.1808170096906
 31
0.0
210
0.0
220
1.0
230
0.0
  0
LINE
  5
6EA
  8
0
  6
CONTINUOUS
 10
574.44210580827109
 20
305.4397169336246
 30
0.0
 11
574.52565745750951
 21
304.96587198430052
 31
0.0
210
0.0
220
1.0
230
0.0
  0
LINE
  5
6EB
  8
0
  6
CONTINUOUS
 10
558.64727416412995
 20
302.65466195901467
 30
0.0
 11
574.44210580827109
 21
305.4397169336246
 31
0.0
210
0.0
220
1.0
230
0.0
  0
ARC
  5
6EC
  8
0
  6
CONTINUOUS
 10
558.03456206971578
 20
306.12952492072583
 30
0.0
 40
3.5284683239775458
 50
99.999999999998607
 51
279.99999999999858
  0
LINE
  5
6ED
  8
0
  6
CONTINUOUS
 10
647.31291594275945
 20
325.45460813714419
 30
0.0
 11
557.4218499753016
 21
309.60438788243692
 31
0.0
210
0.0
220
1.0
230
0.0
  0
LINE
  5
6EE
  8
0
  6
CONTINUOUS
 10
604.52605444121309
 20
359.11348734125619
 30
0.0
 11
604.52605444121309
 21
193.7843543070766
 31
0.0
210
0.0
220
1.0
230
0.0
  0
LINE
  5
6EF
  8
0
  6
CONTINUOUS
 10
557.33829832606341
 20
350.82553951352497
 30
0.0
 11
557.33829832606341
 21
193.7843543070766
 31
0.0
210
0.0
220
1.0
230
0.0
  0
LINE
  5
6F0
  8
0
  6
CONTINUOUS
 10
557.33829832606352
 20
350.82553951352497
 30
0.0
 11
604.52605444121309
 21
359.11348734125619
 31
0.0
210
0.0
220
1.0
230
0.0
  0
LINE
  5
6F1
  8
0
  6
CONTINUOUS
 10
604.52605444121309
 20
193.7843543070766
 30
0.0
 11
557.33829832606352
 21
193.7843543070766
 31
0.0
210
0.0
220
1.0
230
0.0
  0
LINE
  5
6F2
  8
0
  6
EURO_COMMON_ROOF-MANSARD$0
 10
735.14397820118631
 20
383.05172556395911
 30
0.0
 11
735.1439782011862
 21
342.33694561665578
 31
0.0
210
0.0
220
1.0
230
0.0
  0
LINE
  5
6F3
  8
0
  6
EURO_COMMON_ROOF-MANSARD$0
 10
735.1439782011862
 20
342.33694561665573
 30
0.0
 11
814.11813642189259
 21
356.2622204897055
 31
0.0
210
0.0
220
1.0
230
0.0
  0
LINE
  5
6F4
  8
0
  6
EURO_COMMON_ROOF-MANSARD$0
 10
604.05046206895258
 20
72.99114111400462
 30
0.0
 11
568.99324564108633
 21
66.809607989235744
 31
0.0
210
0.0
220
1.0
230
0.0
  0
LINE
  5
6F5
  8
0
  6
EURO_COMMON_ROOF-MANSARD$0
 10
568.99324564108633
 20
66.809607989235815
 30
0.0
 11
568.90969399184803
 21
67.283452938560004
 31
0.0
210
0.0
220
1.0
230
0.0
  0
LINE
  5
6F6
  8
0
  6
EURO_COMMON_ROOF-MANSARD$0
 10
568.90969399184803
 20
67.283452938560004
 30
0.0
 11
604.44806519116582
 21
73.549826631432381
 31
0.0
210
0.0
220
1.0
230
0.0
  0
LINE
  5
6F7
  8
0
  6
EURO_COMMON_ROOF-MANSARD$0
 10
604.44806519116582
 20
73.549826631432381
 30
0.0
 11
604.53161684040413
 21
73.075981682108136
 31
0.0
210
0.0
220
1.0
230
0.0
  0
LINE
  5
6F8
  8
0
  6
EURO_COMMON_ROOF-MANSARD$0
 10
604.05046206895258
 20
-47.255131464814554
 30
0.0
 11
604.05046206895258
 21
72.991141114004677
 31
0.0
210
0.0
220
1.0
230
0.0
  0
LINE
  5
6F9
  8
0
  6
EURO_COMMON_ROOF-MANSARD$0
 10
557.33829832606341
 20
310.07823283176123
 30
0.0
 11
647.22936429352114
 21
325.92845308646838
 31
0.0
210
0.0
220
1.0
230
0.0
  0
LINE
  5
6FA
  8
0
  6
EURO_COMMON_ROOF-MANSARD$0
 10
604.04489966976155
 20
314.0306268858958
 30
0.0
 11
558.07077549514372
 21
305.92414837946922
 31
0.0
210
0.0
220
1.0
230
0.0
  0
LINE
  5
6FB
  8
0
  6
EURO_COMMON_ROOF-MANSARD$0
 10
558.07077549514372
 20
305.92414837946927
 30
0.0
 11
557.98722384590542
 21
306.39799332879352
 31
0.0
210
0.0
220
1.0
230
0.0
  0
LINE
  5
6FC
  8
0
  6
EURO_COMMON_ROOF-MANSARD$0
 10
557.98722384590553
 20
306.39799332879352
 30
0.0
 11
604.44250279197468
 21
314.58931240332339
 31
0.0
210
0.0
220
1.0
230
0.0
  0
LINE
  5
6FD
  8
0
  6
EURO_COMMON_ROOF-MANSARD$0
 10
604.44250279197468
 20
314.58931240332339
 30
0.0
 11
604.52605444121309
 21
314.1154674539992
 31
0.0
210
0.0
220
1.0
230
0.0
  0
LINE
  5
6FE
  8
0
  6
EURO_COMMON_ROOF-MANSARD$0
 10
604.04489966976155
 20
193.7843543070766
 30
0.0
 11
604.04489966976155
 21
314.0306268858958
 31
0.0
210
0.0
220
1.0
230
0.0
  0
LINE
  5
6FF
  8
0
  6
CONTINUOUS
 10
330.44577024282012
 20
545.93353496477789
 30
0.0000000000001137
 11
330.44577024282012
 21
579.17701358497584
 31
0.0000000000002073
210
-0.0000000000000001
220
0.816496580927726
230
0.5773502691896258
  0
LINE
  5
700
  8
0
  6
CONTINUOUS
 10
330.44577024282029
 20
579.17701358497595
 30
0.0000000000002274
 11
330.7859980445138
 21
578.98058297208229
 31
0.0
210
-0.0000000000000001
220
0.816496580927726
230
0.5773502691896258
  0
LINE
  5
701
  8
0
  6
CONTINUOUS
 10
330.44577024282017
 20
579.17701358497595
 30
0.0000000000002073
 11
381.36560491287082
 21
618.94311962537279
 31
0.0
210
-0.0000000000000001
220
0.816496580927726
230
0.5773502691896258
  0
LINE
  5
702
  8
0
  6
CONTINUOUS
 10
381.70583271456439
 20
618.74668901247912
 30
0.0000000000001705
 11
381.36560491287082
 21
618.94311962537279
 31
0.0
210
-0.0000000000000001
220
0.816496580927726
230
0.5773502691896258
  0
LINE
  5
703
  8
0
  6
CONTINUOUS
 10
330.7859980445138
 20
578.98058297208229
 30
0.0
 11
330.7859980445138
 21
545.73710435188434
 31
0.0
210
-0.0000000000000001
220
0.816496580927726
230
0.5773502691896258
  0
LINE
  5
704
  8
0
  6
CONTINUOUS
 10
330.7859980445138
 20
578.98058297208229
 30
0.000000000000015
 11
381.70583271456439
 21
618.74668901247912
 31
0.0000000000001705
210
-0.0000000000000001
220
0.816496580927726
230
0.5773502691896258
  0
LINE
  5
705
  8
0
  6
CONTINUOUS
 10
386.62916086087449
 20
589.348108758634
 30
0.0000000000000568
 11
381.70583271456439
 21
618.74668901247912
 31
0.0000000000001705
210
-0.0000000000000001
220
0.816496580927726
230
0.5773502691896258
  0
LINE
  5
706
  8
0
  6
CONTINUOUS
 10
472.26643421957942
 20
463.73466329606549
 30
0.0000000000000568
 11
471.92620641788562
 21
463.9310939089591
 31
0.0000000000001137
210
-0.0000000000000001
220
0.816496580927726
230
0.5773502691896258
  0
LINE
  5
707
  8
0
  6
CONTINUOUS
 10
471.92620641788562
 20
463.9310939089591
 30
0.0000000000001137
 11
471.92620641788562
 21
497.57349427259942
 31
0.0000000000001212
210
-0.0000000000000001
220
0.816496580927726
230
0.5773502691896258
  0
LINE
  5
708
  8
0
  6
CONTINUOUS
 10
471.92620641788562
 20
497.57349427259959
 30
0.0000000000001061
 11
472.26643421957942
 21
497.37706365970593
 31
0.0000000000000493
210
-0.0000000000000001
220
0.816496580927726
230
0.5773502691896258
  0
LINE
  5
709
  8
0
  6
CONTINUOUS
 10
471.92620641788562
 20
497.57349427259948
 30
0.0000000000001212
 11
522.78696115018033
 21
537.29346153259996
 31
0.0000000000001705
210
-0.0000000000000001
220
0.816496580927726
230
0.5773502691896258
  0
LINE
  5
70A
  8
0
  6
CONTINUOUS
 10
523.1271889518739
 20
537.09703091970664
 30
0.0000000000002274
 11
522.78696115018045
 21
537.2934615326003
 31
0.0000000000001137
210
-0.0000000000000001
220
0.816496580927726
230
0.5773502691896258
  0
LINE
  5
70B
  8
0
  6
CONTINUOUS
 10
472.26643421957942
 20
497.37706365970593
 30
0.0000000000000493
 11
472.26643421957942
 21
463.73466329606549
 31
0.0000000000000568
210
-0.0000000000000001
220
0.816496580927726
230
0.5773502691896258
  0
LINE
  5
70C
  8
0
  6
CONTINUOUS
 10
472.26643421957942
 20
497.37706365970593
 30
0.0000000000000493
 11
523.1271889518739
 21
537.09703091970641
 31
0.0
210
-0.0000000000000001
220
0.816496580927726
230
0.5773502691896258
  0
LINE
  5
70D
  8
0
  6
CONTINUOUS
 10
528.10959703594006
 20
507.34566770281532
 30
0.0000000000001137
 11
523.1271889518739
 21
537.09703091970664
 31
0.0000000000002274
210
-0.0000000000000001
220
0.816496580927726
230
0.5773502691896258
  0
POLYLINE
  5
70E
  8
0
  6
CONTINUOUS
 10
330.44577024281995
 20
545.93353496477778
 30
0.0000000000000564
 66
     1
 70
     8
  0
VERTEX
  8
0
  5
85F
 10
330.446
 20
545.934
 30
5.64262e-014
  70
    32
  0
VERTEX
  8
0
  5
860
 10
330.398
 20
545.896
 30
5.64260e-014
  70
    32
  0
VERTEX
  8
0
  5
861
 10
330.351
 20
545.858
 30
5.64259e-014
  70
    32
  0
VERTEX
  8
0
  5
862
 10
330.304
 20
545.818
 30
5.64258e-014
  70
    32
  0
VERTEX
  8
0
  5
863
 10
330.257
 20
545.778
 30
5.64259e-014
  70
    32
  0
VERTEX
  8
0
  5
864
 10
330.210
 20
545.737
 30
5.64261e-014
  70
    32
  0
VERTEX
  8
0
  5
865
 10
330.163
 20
545.696
 30
5.64264e-014
  70
    32
  0
VERTEX
  8
0
  5
866
 10
330.117
 20
545.653
 30
5.64268e-014
  70
    32
  0
VERTEX
  8
0
  5
867
 10
330.071
 20
545.610
 30
5.64273e-014
  70
    32
  0
VERTEX
  8
0
  5
868
 10
330.025
 20
545.566
 30
5.64280e-014
  70
    32
  0
VERTEX
  8
0
  5
869
 10
329.979
 20
545.521
 30
5.64287e-014
  70
    32
  0
VERTEX
  8
0
  5
86A
 10
329.934
 20
545.476
 30
5.64295e-014
  70
    32
  0
VERTEX
  8
0
  5
86B
 10
329.889
 20
545.429
 30
5.64305e-014
  70
    32
  0
VERTEX
  8
0
  5
86C
 10
329.844
 20
545.382
 30
5.64315e-014
  70
    32
  0
VERTEX
  8
0
  5
86D
 10
329.800
 20
545.335
 30
5.64327e-014
  70
    32
  0
VERTEX
  8
0
  5
86E
 10
329.756
 20
545.287
 30
5.64340e-014
  70
    32
  0
VERTEX
  8
0
  5
86F
 10
329.712
 20
545.238
 30
5.64353e-014
  70
    32
  0
VERTEX
  8
0
  5
870
 10
329.669
 20
545.188
 30
5.64368e-014
  70
    32
  0
VERTEX
  8
0
  5
871
 10
329.626
 20
545.138
 30
5.64384e-014
  70
    32
  0
VERTEX
  8
0
  5
872
 10
329.583
 20
545.087
 30
5.64401e-014
  70
    32
  0
VERTEX
  8
0
  5
873
 10
329.541
 20
545.035
 30
5.64419e-014
  70
    32
  0
VERTEX
  8
0
  5
874
 10
329.499
 20
544.983
 30
5.64438e-014
  70
    32
  0
VERTEX
  8
0
  5
875
 10
329.457
 20
544.931
 30
5.64458e-014
  70
    32
  0
VERTEX
  8
0
  5
876
 10
329.416
 20
544.877
 30
5.64479e-014
  70
    32
  0
VERTEX
  8
0
  5
877
 10
329.376
 20
544.824
 30
5.64501e-014
  70
    32
  0
VERTEX
  8
0
  5
878
 10
329.336
 20
544.769
 30
5.64524e-014
  70
    32
  0
VERTEX
  8
0
  5
879
 10
329.296
 20
544.715
 30
5.64548e-014
  70
    32
  0
VERTEX
  8
0
  5
87A
 10
329.257
 20
544.659
 30
5.64573e-014
  70
    32
  0
VERTEX
  8
0
  5
87B
 10
329.218
 20
544.603
 30
5.64599e-014
  70
    32
  0
VERTEX
  8
0
  5
87C
 10
329.180
 20
544.547
 30
5.64627e-014
  70
    32
  0
VERTEX
  8
0
  5
87D
 10
329.142
 20
544.490
 30
5.64655e-014
  70
    32
  0
VERTEX
  8
0
  5
87E
 10
329.105
 20
544.433
 30
5.64684e-014
  70
    32
  0
VERTEX
  8
0
  5
87F
 10
329.069
 20
544.376
 30
5.64714e-014
  70
    32
  0
VERTEX
  8
0
  5
880
 10
329.033
 20
544.318
 30
5.64745e-014
  70
    32
  0
VERTEX
  8
0
  5
881
 10
328.997
 20
544.259
 30
5.64777e-014
  70
    32
  0
VERTEX
  8
0
  5
882
 10
328.962
 20
544.201
 30
5.64809e-014
  70
    32
  0
VERTEX
  8
0
  5
883
 10
328.928
 20
544.142
 30
5.64843e-014
  70
    32
  0
VERTEX
  8
0
  5
884
 10
328.894
 20
544.082
 30
5.64878e-014
  70
    32
  0
VERTEX
  8
0
  5
885
 10
328.861
 20
544.023
 30
5.64913e-014
  70
    32
  0
VERTEX
  8
0
  5
886
 10
328.828
 20
543.963
 30
5.64950e-014
  70
    32
  0
VERTEX
  8
0
  5
887
 10
328.796
 20
543.902
 30
5.64987e-014
  70
    32
  0
VERTEX
  8
0
  5
888
 10
328.765
 20
543.842
 30
5.65026e-014
  70
    32
  0
VERTEX
  8
0
  5
889
 10
328.734
 20
543.781
 30
5.65065e-014
  70
    32
  0
VERTEX
  8
0
  5
88A
 10
328.704
 20
543.720
 30
5.65105e-014
  70
    32
  0
VERTEX
  8
0
  5
88B
 10
328.675
 20
543.659
 30
5.65146e-014
  70
    32
  0
VERTEX
  8
0
  5
88C
 10
328.646
 20
543.597
 30
5.65187e-014
  70
    32
  0
VERTEX
  8
0
  5
88D
 10
328.618
 20
543.536
 30
5.65230e-014
  70
    32
  0
VERTEX
  8
0
  5
88E
 10
328.590
 20
543.474
 30
5.65273e-014
  70
    32
  0
VERTEX
  8
0
  5
88F
 10
328.564
 20
543.412
 30
5.65317e-014
  70
    32
  0
VERTEX
  8
0
  5
890
 10
328.538
 20
543.350
 30
5.65362e-014
  70
    32
  0
VERTEX
  8
0
  5
891
 10
328.512
 20
543.288
 30
5.65407e-014
  70
    32
  0
VERTEX
  8
0
  5
892
 10
328.488
 20
543.225
 30
5.65454e-014
  70
    32
  0
VERTEX
  8
0
  5
893
 10
328.464
 20
543.163
 30
5.65501e-014
  70
    32
  0
VERTEX
  8
0
  5
894
 10
328.440
 20
543.101
 30
5.65549e-014
  70
    32
  0
VERTEX
  8
0
  5
895
 10
328.418
 20
543.038
 30
5.65597e-014
  70
    32
  0
VERTEX
  8
0
  5
896
 10
328.396
 20
542.976
 30
5.65646e-014
  70
    32
  0
VERTEX
  8
0
  5
897
 10
328.375
 20
542.914
 30
5.65696e-014
  70
    32
  0
VERTEX
  8
0
  5
898
 10
328.355
 20
542.851
 30
5.65747e-014
  70
    32
  0
VERTEX
  8
0
  5
899
 10
328.335
 20
542.789
 30
5.65798e-014
  70
    32
  0
VERTEX
  8
0
  5
89A
 10
328.316
 20
542.727
 30
5.65850e-014
  70
    32
  0
VERTEX
  8
0
  5
89B
 10
328.298
 20
542.665
 30
5.65903e-014
  70
    32
  0
VERTEX
  8
0
  5
89C
 10
328.281
 20
542.602
 30
5.65956e-014
  70
    32
  0
VERTEX
  8
0
  5
89D
 10
328.265
 20
542.541
 30
5.66009e-014
  70
    32
  0
VERTEX
  8
0
  5
89E
 10
328.249
 20
542.479
 30
5.66064e-014
  70
    32
  0
VERTEX
  8
0
  5
89F
 10
328.234
 20
542.417
 30
5.66119e-014
  70
    32
  0
VERTEX
  8
0
  5
8A0
 10
328.220
 20
542.355
 30
5.66174e-014
  70
    32
  0
VERTEX
  8
0
  5
8A1
 10
328.207
 20
542.294
 30
5.66230e-014
  70
    32
  0
VERTEX
  8
0
  5
8A2
 10
328.194
 20
542.233
 30
5.66286e-014
  70
    32
  0
VERTEX
  8
0
  5
8A3
 10
328.182
 20
542.172
 30
5.66343e-014
  70
    32
  0
VERTEX
  8
0
  5
8A4
 10
328.171
 20
542.111
 30
5.66401e-014
  70
    32
  0
VERTEX
  8
0
  5
8A5
 10
328.161
 20
542.051
 30
5.66459e-014
  70
    32
  0
VERTEX
  8
0
  5
8A6
 10
328.152
 20
541.991
 30
5.66517e-014
  70
    32
  0
VERTEX
  8
0
  5
8A7
 10
328.143
 20
541.931
 30
5.66576e-014
  70
    32
  0
VERTEX
  8
0
  5
8A8
 10
328.136
 20
541.871
 30
5.66635e-014
  70
    32
  0
VERTEX
  8
0
  5
8A9
 10
328.129
 20
541.812
 30
5.66694e-014
  70
    32
  0
VERTEX
  8
0
  5
8AA
 10
328.123
 20
541.753
 30
5.66754e-014
  70
    32
  0
VERTEX
  8
0
  5
8AB
 10
328.117
 20
541.695
 30
5.66815e-014
  70
    32
  0
VERTEX
  8
0
  5
8AC
 10
328.113
 20
541.637
 30
5.66875e-014
  70
    32
  0
VERTEX
  8
0
  5
8AD
 10
328.109
 20
541.579
 30
5.66936e-014
  70
    32
  0
VERTEX
  8
0
  5
8AE
 10
328.106
 20
541.522
 30
5.66998e-014
  70
    32
  0
VERTEX
  8
0
  5
8AF
 10
328.104
 20
541.465
 30
5.67059e-014
  70
    32
  0
VERTEX
  8
0
  5
8B0
 10
328.103
 20
541.408
 30
5.67121e-014
  70
    32
  0
VERTEX
  8
0
  5
8B1
 10
328.103
 20
541.352
 30
5.67183e-014
  70
    32
  0
VERTEX
  8
0
  5
8B2
 10
328.103
 20
541.297
 30
5.67245e-014
  70
    32
  0
VERTEX
  8
0
  5
8B3
 10
328.105
 20
541.242
 30
5.67308e-014
  70
    32
  0
VERTEX
  8
0
  5
8B4
 10
328.107
 20
541.187
 30
5.67371e-014
  70
    32
  0
VERTEX
  8
0
  5
8B5
 10
328.110
 20
541.133
 30
5.67434e-014
  70
    32
  0
VERTEX
  8
0
  5
8B6
 10
328.113
 20
541.080
 30
5.67497e-014
  70
    32
  0
VERTEX
  8
0
  5
8B7
 10
328.118
 20
541.027
 30
5.67560e-014
  70
    32
  0
VERTEX
  8
0
  5
8B8
 10
328.123
 20
540.975
 30
5.67624e-014
  70
    32
  0
VERTEX
  8
0
  5
8B9
 10
328.130
 20
540.923
 30
5.67687e-014
  70
    32
  0
VERTEX
  8
0
  5
8BA
 10
328.137
 20
540.872
 30
5.67751e-014
  70
    32
  0
VERTEX
  8
0
  5
8BB
 10
328.145
 20
540.821
 30
5.67814e-014
  70
    32
  0
VERTEX
  8
0
  5
8BC
 10
328.153
 20
540.771
 30
5.67878e-014
  70
    32
  0
VERTEX
  8
0
  5
8BD
 10
328.163
 20
540.722
 30
5.67942e-014
  70
    32
  0
VERTEX
  8
0
  5
8BE
 10
328.173
 20
540.673
 30
5.68006e-014
  70
    32
  0
VERTEX
  8
0
  5
8BF
 10
328.184
 20
540.626
 30
5.68069e-014
  70
    32
  0
VERTEX
  8
0
  5
8C0
 10
328.196
 20
540.578
 30
5.68133e-014
  70
    32
  0
VERTEX
  8
0
  5
8C1
 10
328.209
 20
540.532
 30
5.68197e-014
  70
    32
  0
VERTEX
  8
0
  5
8C2
 10
328.222
 20
540.486
 30
5.68260e-014
  70
    32
  0
VERTEX
  8
0
  5
8C3
 10
328.236
 20
540.441
 30
5.68324e-014
  70
    32
  0
VERTEX
  8
0
  5
8C4
 10
328.251
 20
540.397
 30
5.68387e-014
  70
    32
  0
VERTEX
  8
0
  5
8C5
 10
328.267
 20
540.353
 30
5.68451e-014
  70
    32
  0
VERTEX
  8
0
  5
8C6
 10
328.284
 20
540.310
 30
5.68514e-014
  70
    32
  0
VERTEX
  8
0
  5
8C7
 10
328.301
 20
540.268
 30
5.68577e-014
  70
    32
  0
VERTEX
  8
0
  5
8C8
 10
328.319
 20
540.227
 30
5.68640e-014
  70
    32
  0
VERTEX
  8
0
  5
8C9
 10
328.338
 20
540.186
 30
5.68703e-014
  70
    32
  0
VERTEX
  8
0
  5
8CA
 10
328.358
 20
540.147
 30
5.68765e-014
  70
    32
  0
VERTEX
  8
0
  5
8CB
 10
328.378
 20
540.108
 30
5.68828e-014
  70
    32
  0
VERTEX
  8
0
  5
8CC
 10
328.400
 20
540.070
 30
5.68890e-014
  70
    32
  0
VERTEX
  8
0
  5
8CD
 10
328.421
 20
540.033
 30
5.68952e-014
  70
    32
  0
VERTEX
  8
0
  5
8CE
 10
328.444
 20
539.997
 30
5.69013e-014
  70
    32
  0
VERTEX
  8
0
  5
8CF
 10
328.467
 20
539.961
 30
5.69074e-014
  70
    32
  0
VERTEX
  8
0
  5
8D0
 10
328.491
 20
539.927
 30
5.69135e-014
  70
    32
  0
VERTEX
  8
0
  5
8D1
 10
328.516
 20
539.893
 30
5.69196e-014
  70
    32
  0
VERTEX
  8
0
  5
8D2
 10
328.542
 20
539.861
 30
5.69256e-014
  70
    32
  0
VERTEX
  8
0
  5
8D3
 10
328.568
 20
539.829
 30
5.69316e-014
  70
    32
  0
VERTEX
  8
0
  5
8D4
 10
328.595
 20
539.798
 30
5.69376e-014
  70
    32
  0
VERTEX
  8
0
  5
8D5
 10
328.622
 20
539.768
 30
5.69435e-014
  70
    32
  0
VERTEX
  8
0
  5
8D6
 10
328.651
 20
539.739
 30
5.69493e-014
  70
    32
  0
VERTEX
  8
0
  5
8D7
 10
328.679
 20
539.711
 30
5.69552e-014
  70
    32
  0
VERTEX
  8
0
  5
8D8
 10
328.709
 20
539.684
 30
5.69609e-014
  70
    32
  0
VERTEX
  8
0
  5
8D9
 10
328.739
 20
539.658
 30
5.69667e-014
  70
    32
  0
VERTEX
  8
0
  5
8DA
 10
328.770
 20
539.632
 30
5.69724e-014
  70
    32
  0
VERTEX
  8
0
  5
8DB
 10
328.801
 20
539.608
 30
5.69780e-014
  70
    32
  0
VERTEX
  8
0
  5
8DC
 10
328.833
 20
539.585
 30
5.69836e-014
  70
    32
  0
VERTEX
  8
0
  5
8DD
 10
328.866
 20
539.563
 30
5.69891e-014
  70
    32
  0
VERTEX
  8
0
  5
8DE
 10
328.899
 20
539.541
 30
5.69946e-014
  70
    32
  0
VERTEX
  8
0
  5
8DF
 10
328.933
 20
539.521
 30
5.70000e-014
  70
    32
  0
SEQEND
  8
0
  5
8E0
  0
LINE
  5
70F
  8
0
  6
CONTINUOUS
 10
330.7859980445138
 20
545.73710435188434
 30
0.0
 11
330.44577024282012
 21
545.93353496477789
 31
0.0000000000001137
210
-0.0000000000000001
220
0.816496580927726
230
0.5773502691896258
  0
POLYLINE
  5
710
  8
0
  6
CONTINUOUS
 10
472.20735428182343
 20
464.08744625911152
 30
0.000000000000227
 66
     1
 70
     8
  0
VERTEX
  8
0
  5
8E1
 10
472.207
 20
464.087
 30
2.27026e-013
  70
    32
  0
VERTEX
  8
0
  5
8E2
 10
472.139
 20
464.033
 30
2.27026e-013
  70
    32
  0
VERTEX
  8
0
  5
8E3
 10
472.071
 20
463.977
 30
2.27026e-013
  70
    32
  0
VERTEX
  8
0
  5
8E4
 10
472.003
 20
463.919
 30
2.27026e-013
  70
    32
  0
VERTEX
  8
0
  5
8E5
 10
471.936
 20
463.860
 30
2.27026e-013
  70
    32
  0
VERTEX
  8
0
  5
8E6
 10
471.869
 20
463.798
 30
2.27027e-013
  70
    32
  0
VERTEX
  8
0
  5
8E7
 10
471.803
 20
463.736
 30
2.27028e-013
  70
    32
  0
VERTEX
  8
0
  5
8E8
 10
471.737
 20
463.671
 30
2.27029e-013
  70
    32
  0
VERTEX
  8
0
  5
8E9
 10
471.672
 20
463.606
 30
2.27030e-013
  70
    32
  0
VERTEX
  8
0
  5
8EA
 10
471.608
 20
463.538
 30
2.27031e-013
  70
    32
  0
VERTEX
  8
0
  5
8EB
 10
471.544
 20
463.470
 30
2.27033e-013
  70
    32
  0
VERTEX
  8
0
  5
8EC
 10
471.480
 20
463.399
 30
2.27035e-013
  70
    32
  0
VERTEX
  8
0
  5
8ED
 10
471.418
 20
463.328
 30
2.27037e-013
  70
    32
  0
VERTEX
  8
0
  5
8EE
 10
471.356
 20
463.255
 30
2.27040e-013
  70
    32
  0
VERTEX
  8
0
  5
8EF
 10
471.295
 20
463.181
 30
2.27042e-013
  70
    32
  0
VERTEX
  8
0
  5
8F0
 10
471.235
 20
463.106
 30
2.27045e-013
  70
    32
  0
VERTEX
  8
0
  5
8F1
 10
471.176
 20
463.029
 30
2.27048e-013
  70
    32
  0
VERTEX
  8
0
  5
8F2
 10
471.118
 20
462.952
 30
2.27051e-013
  70
    32
  0
VERTEX
  8
0
  5
8F3
 10
471.061
 20
462.873
 30
2.27055e-013
  70
    32
  0
VERTEX
  8
0
  5
8F4
 10
471.005
 20
462.793
 30
2.27058e-013
  70
    32
  0
VERTEX
  8
0
  5
8F5
 10
470.949
 20
462.712
 30
2.27062e-013
  70
    32
  0
VERTEX
  8
0
  5
8F6
 10
470.895
 20
462.631
 30
2.27066e-013
  70
    32
  0
VERTEX
  8
0
  5
8F7
 10
470.842
 20
462.548
 30
2.27070e-013
  70
    32
  0
VERTEX
  8
0
  5
8F8
 10
470.790
 20
462.465
 30
2.27075e-013
  70
    32
  0
VERTEX
  8
0
  5
8F9
 10
470.739
 20
462.381
 30
2.27079e-013
  70
    32
  0
VERTEX
  8
0
  5
8FA
 10
470.689
 20
462.296
 30
2.27084e-013
  70
    32
  0
VERTEX
  8
0
  5
8FB
 10
470.641
 20
462.210
 30
2.27089e-013
  70
    32
  0
VERTEX
  8
0
  5
8FC
 10
470.594
 20
462.124
 30
2.27095e-013
  70
    32
  0
VERTEX
  8
0
  5
8FD
 10
470.548
 20
462.037
 30
2.27100e-013
  70
    32
  0
VERTEX
  8
0
  5
8FE
 10
470.503
 20
461.949
 30
2.27106e-013
  70
    32
  0
VERTEX
  8
0
  5
8FF
 10
470.460
 20
461.862
 30
2.27111e-013
  70
    32
  0
VERTEX
  8
0
  5
900
 10
470.418
 20
461.773
 30
2.27117e-013
  70
    32
  0
VERTEX
  8
0
  5
901
 10
470.377
 20
461.684
 30
2.27123e-013
  70
    32
  0
VERTEX
  8
0
  5
902
 10
470.338
 20
461.595
 30
2.27130e-013
  70
    32
  0
VERTEX
  8
0
  5
903
 10
470.300
 20
461.506
 30
2.27136e-013
  70
    32
  0
VERTEX
  8
0
  5
904
 10
470.264
 20
461.417
 30
2.27143e-013
  70
    32
  0
VERTEX
  8
0
  5
905
 10
470.229
 20
461.327
 30
2.27149e-013
  70
    32
  0
VERTEX
  8
0
  5
906
 10
470.196
 20
461.237
 30
2.27156e-013
  70
    32
  0
VERTEX
  8
0
  5
907
 10
470.164
 20
461.147
 30
2.27163e-013
  70
    32
  0
VERTEX
  8
0
  5
908
 10
470.133
 20
461.058
 30
2.27170e-013
  70
    32
  0
VERTEX
  8
0
  5
909
 10
470.105
 20
460.968
 30
2.27178e-013
  70
    32
  0
VERTEX
  8
0
  5
90A
 10
470.077
 20
460.878
 30
2.27185e-013
  70
    32
  0
VERTEX
  8
0
  5
90B
 10
470.052
 20
460.789
 30
2.27193e-013
  70
    32
  0
VERTEX
  8
0
  5
90C
 10
470.028
 20
460.699
 30
2.27201e-013
  70
    32
  0
VERTEX
  8
0
  5
90D
 10
470.005
 20
460.610
 30
2.27208e-013
  70
    32
  0
VERTEX
  8
0
  5
90E
 10
469.984
 20
460.522
 30
2.27216e-013
  70
    32
  0
VERTEX
  8
0
  5
90F
 10
469.965
 20
460.433
 30
2.27224e-013
  70
    32
  0
VERTEX
  8
0
  5
910
 10
469.948
 20
460.345
 30
2.27232e-013
  70
    32
  0
VERTEX
  8
0
  5
911
 10
469.932
 20
460.258
 30
2.27241e-013
  70
    32
  0
VERTEX
  8
0
  5
912
 10
469.917
 20
460.171
 30
2.27249e-013
  70
    32
  0
VERTEX
  8
0
  5
913
 10
469.905
 20
460.085
 30
2.27258e-013
  70
    32
  0
VERTEX
  8
0
  5
914
 10
469.894
 20
459.999
 30
2.27266e-013
  70
    32
  0
VERTEX
  8
0
  5
915
 10
469.885
 20
459.914
 30
2.27275e-013
  70
    32
  0
VERTEX
  8
0
  5
916
 10
469.877
 20
459.830
 30
2.27283e-013
  70
    32
  0
VERTEX
  8
0
  5
917
 10
469.872
 20
459.747
 30
2.27292e-013
  70
    32
  0
VERTEX
  8
0
  5
918
 10
469.868
 20
459.664
 30
2.27301e-013
  70
    32
  0
VERTEX
  8
0
  5
919
 10
469.865
 20
459.582
 30
2.27310e-013
  70
    32
  0
VERTEX
  8
0
  5
91A
 10
469.864
 20
459.502
 30
2.27319e-013
  70
    32
  0
VERTEX
  8
0
  5
91B
 10
469.866
 20
459.422
 30
2.27328e-013
  70
    32
  0
VERTEX
  8
0
  5
91C
 10
469.868
 20
459.343
 30
2.27337e-013
  70
    32
  0
VERTEX
  8
0
  5
91D
 10
469.873
 20
459.266
 30
2.27346e-013
  70
    32
  0
VERTEX
  8
0
  5
91E
 10
469.879
 20
459.189
 30
2.27355e-013
  70
    32
  0
VERTEX
  8
0
  5
91F
 10
469.887
 20
459.114
 30
2.27364e-013
  70
    32
  0
VERTEX
  8
0
  5
920
 10
469.896
 20
459.040
 30
2.27373e-013
  70
    32
  0
VERTEX
  8
0
  5
921
 10
469.908
 20
458.967
 30
2.27382e-013
  70
    32
  0
VERTEX
  8
0
  5
922
 10
469.920
 20
458.896
 30
2.27392e-013
  70
    32
  0
VERTEX
  8
0
  5
923
 10
469.935
 20
458.825
 30
2.27401e-013
  70
    32
  0
VERTEX
  8
0
  5
924
 10
469.951
 20
458.757
 30
2.27410e-013
  70
    32
  0
VERTEX
  8
0
  5
925
 10
469.969
 20
458.689
 30
2.27419e-013
  70
    32
  0
VERTEX
  8
0
  5
926
 10
469.989
 20
458.624
 30
2.27428e-013
  70
    32
  0
VERTEX
  8
0
  5
927
 10
470.010
 20
458.559
 30
2.27437e-013
  70
    32
  0
VERTEX
  8
0
  5
928
 10
470.033
 20
458.497
 30
2.27447e-013
  70
    32
  0
VERTEX
  8
0
  5
929
 10
470.057
 20
458.435
 30
2.27456e-013
  70
    32
  0
VERTEX
  8
0
  5
92A
 10
470.083
 20
458.376
 30
2.27465e-013
  70
    32
  0
VERTEX
  8
0
  5
92B
 10
470.111
 20
458.318
 30
2.27474e-013
  70
    32
  0
VERTEX
  8
0
  5
92C
 10
470.140
 20
458.262
 30
2.27483e-013
  70
    32
  0
VERTEX
  8
0
  5
92D
 10
470.171
 20
458.208
 30
2.27492e-013
  70
    32
  0
VERTEX
  8
0
  5
92E
 10
470.203
 20
458.155
 30
2.27501e-013
  70
    32
  0
VERTEX
  8
0
  5
92F
 10
470.237
 20
458.104
 30
2.27509e-013
  70
    32
  0
VERTEX
  8
0
  5
930
 10
470.272
 20
458.055
 30
2.27518e-013
  70
    32
  0
VERTEX
  8
0
  5
931
 10
470.308
 20
458.008
 30
2.27527e-013
  70
    32
  0
VERTEX
  8
0
  5
932
 10
470.347
 20
457.963
 30
2.27535e-013
  70
    32
  0
VERTEX
  8
0
  5
933
 10
470.386
 20
457.919
 30
2.27544e-013
  70
    32
  0
VERTEX
  8
0
  5
934
 10
470.427
 20
457.878
 30
2.27552e-013
  70
    32
  0
VERTEX
  8
0
  5
935
 10
470.469
 20
457.839
 30
2.27561e-013
  70
    32
  0
VERTEX
  8
0
  5
936
 10
470.513
 20
457.801
 30
2.27569e-013
  70
    32
  0
VERTEX
  8
0
  5
937
 10
470.558
 20
457.766
 30
2.27577e-013
  70
    32
  0
VERTEX
  8
0
  5
938
 10
470.604
 20
457.733
 30
2.27585e-013
  70
    32
  0
VERTEX
  8
0
  5
939
 10
470.652
 20
457.701
 30
2.27593e-013
  70
    32
  0
VERTEX
  8
0
  5
93A
 10
470.700
 20
457.672
 30
2.27601e-013
  70
    32
  0
VERTEX
  8
0
  5
93B
 10
470.750
 20
457.645
 30
2.27609e-013
  70
    32
  0
VERTEX
  8
0
  5
93C
 10
470.801
 20
457.620
 30
2.27616e-013
  70
    32
  0
VERTEX
  8
0
  5
93D
 10
470.854
 20
457.597
 30
2.27624e-013
  70
    32
  0
VERTEX
  8
0
  5
93E
 10
470.907
 20
457.576
 30
2.27631e-013
  70
    32
  0
VERTEX
  8
0
  5
93F
 10
470.961
 20
457.558
 30
2.27638e-013
  70
    32
  0
VERTEX
  8
0
  5
940
 10
471.017
 20
457.541
 30
2.27645e-013
  70
    32
  0
VERTEX
  8
0
  5
941
 10
471.073
 20
457.527
 30
2.27652e-013
  70
    32
  0
VERTEX
  8
0
  5
942
 10
471.131
 20
457.515
 30
2.27659e-013
  70
    32
  0
VERTEX
  8
0
  5
943
 10
471.189
 20
457.505
 30
2.27665e-013
  70
    32
  0
VERTEX
  8
0
  5
944
 10
471.249
 20
457.497
 30
2.27672e-013
  70
    32
  0
VERTEX
  8
0
  5
945
 10
471.309
 20
457.492
 30
2.27678e-013
  70
    32
  0
VERTEX
  8
0
  5
946
 10
471.370
 20
457.488
 30
2.27684e-013
  70
    32
  0
VERTEX
  8
0
  5
947
 10
471.432
 20
457.487
 30
2.27690e-013
  70
    32
  0
VERTEX
  8
0
  5
948
 10
471.494
 20
457.488
 30
2.27695e-013
  70
    32
  0
VERTEX
  8
0
  5
949
 10
471.558
 20
457.492
 30
2.27701e-013
  70
    32
  0
VERTEX
  8
0
  5
94A
 10
471.622
 20
457.497
 30
2.27706e-013
  70
    32
  0
VERTEX
  8
0
  5
94B
 10
471.687
 20
457.505
 30
2.27712e-013
  70
    32
  0
VERTEX
  8
0
  5
94C
 10
471.752
 20
457.515
 30
2.27717e-013
  70
    32
  0
VERTEX
  8
0
  5
94D
 10
471.818
 20
457.527
 30
2.27721e-013
  70
    32
  0
VERTEX
  8
0
  5
94E
 10
471.884
 20
457.541
 30
2.27726e-013
  70
    32
  0
VERTEX
  8
0
  5
94F
 10
471.951
 20
457.558
 30
2.27730e-013
  70
    32
  0
VERTEX
  8
0
  5
950
 10
472.018
 20
457.576
 30
2.27735e-013
  70
    32
  0
VERTEX
  8
0
  5
951
 10
472.086
 20
457.597
 30
2.27739e-013
  70
    32
  0
VERTEX
  8
0
  5
952
 10
472.154
 20
457.620
 30
2.27742e-013
  70
    32
  0
VERTEX
  8
0
  5
953
 10
472.223
 20
457.645
 30
2.27746e-013
  70
    32
  0
VERTEX
  8
0
  5
954
 10
472.291
 20
457.672
 30
2.27749e-013
  70
    32
  0
VERTEX
  8
0
  5
955
 10
472.360
 20
457.701
 30
2.27753e-013
  70
    32
  0
VERTEX
  8
0
  5
956
 10
472.429
 20
457.733
 30
2.27756e-013
  70
    32
  0
VERTEX
  8
0
  5
957
 10
472.499
 20
457.766
 30
2.27758e-013
  70
    32
  0
VERTEX
  8
0
  5
958
 10
472.568
 20
457.801
 30
2.27761e-013
  70
    32
  0
VERTEX
  8
0
  5
959
 10
472.638
 20
457.839
 30
2.27763e-013
  70
    32
  0
VERTEX
  8
0
  5
95A
 10
472.707
 20
457.878
 30
2.27765e-013
  70
    32
  0
VERTEX
  8
0
  5
95B
 10
472.777
 20
457.920
 30
2.27767e-013
  70
    32
  0
VERTEX
  8
0
  5
95C
 10
472.847
 20
457.963
 30
2.27769e-013
  70
    32
  0
VERTEX
  8
0
  5
95D
 10
472.916
 20
458.008
 30
2.27770e-013
  70
    32
  0
VERTEX
  8
0
  5
95E
 10
472.985
 20
458.055
 30
2.27771e-013
  70
    32
  0
VERTEX
  8
0
  5
95F
 10
473.054
 20
458.104
 30
2.27772e-013
  70
    32
  0
VERTEX
  8
0
  5
960
 10
473.123
 20
458.155
 30
2.27773e-013
  70
    32
  0
VERTEX
  8
0
  5
961
 10
473.192
 20
458.208
 30
2.27774e-013
  70
    32
  0
SEQEND
  8
0
  5
962
  0
LINE
  5
711
  8
0
  6
CONTINUOUS
 10
484.36065247435749
 20
466.9299310896925
 30
0.0000000000000568
 11
473.1920199110852
 21
458.20773020834253
 31
0.0000000000000568
210
-0.0000000000000001
220
0.816496580927726
230
0.5773502691896258
  0
LINE
  5
712
  8
0
  6
CONTINUOUS
 10
484.30157253660173
 20
467.28271405273858
 30
0.0000000000002274
 11
484.36065247435749
 21
466.9299310896925
 31
0.0000000000000568
210
-0.0000000000000001
220
0.816496580927726
230
0.5773502691896258
  0
LINE
  5
713
  8
0
  6
CONTINUOUS
 10
479.99410806944019
 20
469.7696298223791
 30
0.0000000000001705
 11
484.30157253660173
 21
467.28271405273858
 31
0.0000000000002274
210
-0.0000000000000001
220
0.816496580927726
230
0.5773502691896258
  0
LINE
  5
714
  8
0
  6
CONTINUOUS
 10
473.1329399733296
 20
458.56051317138872
 30
0.0000000000001137
 11
484.30157253660173
 21
467.28271405273858
 31
0.0000000000002274
210
-0.0000000000000001
220
0.816496580927726
230
0.5773502691896258
  0
LINE
  5
715
  8
0
  6
CONTINUOUS
 10
470.24258793253438
 20
460.22925870019458
 30
0.0000000000001705
 11
473.1329399733296
 21
458.56051317138872
 31
0.0000000000001137
210
-0.0000000000000001
220
0.816496580927726
230
0.5773502691896258
  0
POLYLINE
  5
716
  8
0
  6
CONTINUOUS
 10
472.2664342195792
 20
463.73466329606543
 30
0.0000000000002272
 66
     1
 70
     8
  0
VERTEX
  8
0
  5
963
 10
472.266
 20
463.735
 30
2.27172e-013
  70
    32
  0
VERTEX
  8
0
  5
964
 10
472.206
 20
463.687
 30
2.27168e-013
  70
    32
  0
VERTEX
  8
0
  5
965
 10
472.146
 20
463.637
 30
2.27164e-013
  70
    32
  0
VERTEX
  8
0
  5
966
 10
472.087
 20
463.586
 30
2.27161e-013
  70
    32
  0
VERTEX
  8
0
  5
967
 10
472.028
 20
463.534
 30
2.27157e-013
  70
    32
  0
VERTEX
  8
0
  5
968
 10
471.969
 20
463.480
 30
2.27154e-013
  70
    32
  0
VERTEX
  8
0
  5
969
 10
471.911
 20
463.425
 30
2.27151e-013
  70
    32
  0
VERTEX
  8
0
  5
96A
 10
471.853
 20
463.369
 30
2.27148e-013
  70
    32
  0
VERTEX
  8
0
  5
96B
 10
471.795
 20
463.311
 30
2.27145e-013
  70
    32
  0
VERTEX
  8
0
  5
96C
 10
471.739
 20
463.251
 30
2.27143e-013
  70
    32
  0
VERTEX
  8
0
  5
96D
 10
471.682
 20
463.191
 30
2.27140e-013
  70
    32
  0
VERTEX
  8
0
  5
96E
 10
471.627
 20
463.129
 30
2.27138e-013
  70
    32
  0
VERTEX
  8
0
  5
96F
 10
471.572
 20
463.066
 30
2.27136e-013
  70
    32
  0
VERTEX
  8
0
  5
970
 10
471.518
 20
463.002
 30
2.27133e-013
  70
    32
  0
VERTEX
  8
0
  5
971
 10
471.464
 20
462.937
 30
2.27132e-013
  70
    32
  0
VERTEX
  8
0
  5
972
 10
471.411
 20
462.871
 30
2.27130e-013
  70
    32
  0
VERTEX
  8
0
  5
973
 10
471.359
 20
462.803
 30
2.27128e-013
  70
    32
  0
VERTEX
  8
0
  5
974
 10
471.308
 20
462.735
 30
2.27127e-013
  70
    32
  0
VERTEX
  8
0
  5
975
 10
471.257
 20
462.666
 30
2.27126e-013
  70
    32
  0
VERTEX
  8
0
  5
976
 10
471.208
 20
462.596
 30
2.27125e-013
  70
    32
  0
VERTEX
  8
0
  5
977
 10
471.159
 20
462.525
 30
2.27124e-013
  70
    32
  0
VERTEX
  8
0
  5
978
 10
471.112
 20
462.453
 30
2.27123e-013
  70
    32
  0
VERTEX
  8
0
  5
979
 10
471.065
 20
462.380
 30
2.27122e-013
  70
    32
  0
VERTEX
  8
0
  5
97A
 10
471.019
 20
462.307
 30
2.27122e-013
  70
    32
  0
VERTEX
  8
0
  5
97B
 10
470.974
 20
462.233
 30
2.27122e-013
  70
    32
  0
VERTEX
  8
0
  5
97C
 10
470.931
 20
462.158
 30
2.27122e-013
  70
    32
  0
VERTEX
  8
0
  5
97D
 10
470.888
 20
462.082
 30
2.27122e-013
  70
    32
  0
VERTEX
  8
0
  5
97E
 10
470.846
 20
462.007
 30
2.27122e-013
  70
    32
  0
VERTEX
  8
0
  5
97F
 10
470.806
 20
461.930
 30
2.27123e-013
  70
    32
  0
VERTEX
  8
0
  5
980
 10
470.767
 20
461.853
 30
2.27123e-013
  70
    32
  0
VERTEX
  8
0
  5
981
 10
470.729
 20
461.776
 30
2.27124e-013
  70
    32
  0
VERTEX
  8
0
  5
982
 10
470.692
 20
461.698
 30
2.27125e-013
  70
    32
  0
VERTEX
  8
0
  5
983
 10
470.656
 20
461.620
 30
2.27126e-013
  70
    32
  0
VERTEX
  8
0
  5
984
 10
470.621
 20
461.542
 30
2.27127e-013
  70
    32
  0
VERTEX
  8
0
  5
985
 10
470.588
 20
461.463
 30
2.27129e-013
  70
    32
  0
VERTEX
  8
0
  5
986
 10
470.556
 20
461.384
 30
2.27130e-013
  70
    32
  0
VERTEX
  8
0
  5
987
 10
470.525
 20
461.305
 30
2.27132e-013
  70
    32
  0
VERTEX
  8
0
  5
988
 10
470.496
 20
461.226
 30
2.27134e-013
  70
    32
  0
VERTEX
  8
0
  5
989
 10
470.468
 20
461.147
 30
2.27136e-013
  70
    32
  0
VERTEX
  8
0
  5
98A
 10
470.441
 20
461.068
 30
2.27138e-013
  70
    32
  0
VERTEX
  8
0
  5
98B
 10
470.416
 20
460.989
 30
2.27141e-013
  70
    32
  0
VERTEX
  8
0
  5
98C
 10
470.392
 20
460.910
 30
2.27143e-013
  70
    32
  0
VERTEX
  8
0
  5
98D
 10
470.369
 20
460.832
 30
2.27146e-013
  70
    32
  0
VERTEX
  8
0
  5
98E
 10
470.348
 20
460.753
 30
2.27149e-013
  70
    32
  0
VERTEX
  8
0
  5
98F
 10
470.328
 20
460.675
 30
2.27152e-013
  70
    32
  0
VERTEX
  8
0
  5
990
 10
470.310
 20
460.597
 30
2.27155e-013
  70
    32
  0
VERTEX
  8
0
  5
991
 10
470.293
 20
460.519
 30
2.27158e-013
  70
    32
  0
VERTEX
  8
0
  5
992
 10
470.278
 20
460.442
 30
2.27162e-013
  70
    32
  0
VERTEX
  8
0
  5
993
 10
470.264
 20
460.365
 30
2.27165e-013
  70
    32
  0
VERTEX
  8
0
  5
994
 10
470.251
 20
460.288
 30
2.27169e-013
  70
    32
  0
VERTEX
  8
0
  5
995
 10
470.240
 20
460.212
 30
2.27173e-013
  70
    32
  0
VERTEX
  8
0
  5
996
 10
470.231
 20
460.137
 30
2.27177e-013
  70
    32
  0
VERTEX
  8
0
  5
997
 10
470.223
 20
460.062
 30
2.27181e-013
  70
    32
  0
VERTEX
  8
0
  5
998
 10
470.216
 20
459.988
 30
2.27185e-013
  70
    32
  0
VERTEX
  8
0
  5
999
 10
470.211
 20
459.915
 30
2.27190e-013
  70
    32
  0
VERTEX
  8
0
  5
99A
 10
470.207
 20
459.842
 30
2.27194e-013
  70
    32
  0
VERTEX
  8
0
  5
99B
 10
470.205
 20
459.770
 30
2.27199e-013
  70
    32
  0
VERTEX
  8
0
  5
99C
 10
470.205
 20
459.699
 30
2.27204e-013
  70
    32
  0
VERTEX
  8
0
  5
99D
 10
470.206
 20
459.629
 30
2.27209e-013
  70
    32
  0
VERTEX
  8
0
  5
99E
 10
470.208
 20
459.560
 30
2.27214e-013
  70
    32
  0
VERTEX
  8
0
  5
99F
 10
470.212
 20
459.492
 30
2.27219e-013
  70
    32
  0
VERTEX
  8
0
  5
9A0
 10
470.217
 20
459.424
 30
2.27224e-013
  70
    32
  0
VERTEX
  8
0
  5
9A1
 10
470.224
 20
459.358
 30
2.27229e-013
  70
    32
  0
VERTEX
  8
0
  5
9A2
 10
470.233
 20
459.293
 30
2.27235e-013
  70
    32
  0
VERTEX
  8
0
  5
9A3
 10
470.243
 20
459.229
 30
2.27240e-013
  70
    32
  0
VERTEX
  8
0
  5
9A4
 10
470.254
 20
459.166
 30
2.27246e-013
  70
    32
  0
VERTEX
  8
0
  5
9A5
 10
470.267
 20
459.104
 30
2.27252e-013
  70
    32
  0
VERTEX
  8
0
  5
9A6
 10
470.281
 20
459.044
 30
2.27258e-013
  70
    32
  0
VERTEX
  8
0
  5
9A7
 10
470.297
 20
458.984
 30
2.27263e-013
  70
    32
  0
VERTEX
  8
0
  5
9A8
 10
470.314
 20
458.926
 30
2.27269e-013
  70
    32
  0
VERTEX
  8
0
  5
9A9
 10
470.333
 20
458.870
 30
2.27276e-013
  70
    32
  0
VERTEX
  8
0
  5
9AA
 10
470.353
 20
458.815
 30
2.27282e-013
  70
    32
  0
VERTEX
  8
0
  5
9AB
 10
470.374
 20
458.761
 30
2.27288e-013
  70
    32
  0
VERTEX
  8
0
  5
9AC
 10
470.397
 20
458.708
 30
2.27294e-013
  70
    32
  0
VERTEX
  8
0
  5
9AD
 10
470.421
 20
458.658
 30
2.27301e-013
  70
    32
  0
VERTEX
  8
0
  5
9AE
 10
470.447
 20
458.608
 30
2.27307e-013
  70
    32
  0
VERTEX
  8
0
  5
9AF
 10
470.474
 20
458.560
 30
2.27313e-013
  70
    32
  0
VERTEX
  8
0
  5
9B0
 10
470.503
 20
458.514
 30
2.27320e-013
  70
    32
  0
VERTEX
  8
0
  5
9B1
 10
470.532
 20
458.469
 30
2.27327e-013
  70
    32
  0
VERTEX
  8
0
  5
9B2
 10
470.563
 20
458.426
 30
2.27333e-013
  70
    32
  0
VERTEX
  8
0
  5
9B3
 10
470.595
 20
458.385
 30
2.27340e-013
  70
    32
  0
VERTEX
  8
0
  5
9B4
 10
470.629
 20
458.345
 30
2.27346e-013
  70
    32
  0
VERTEX
  8
0
  5
9B5
 10
470.664
 20
458.307
 30
2.27353e-013
  70
    32
  0
VERTEX
  8
0
  5
9B6
 10
470.700
 20
458.270
 30
2.27360e-013
  70
    32
  0
VERTEX
  8
0
  5
9B7
 10
470.737
 20
458.236
 30
2.27367e-013
  70
    32
  0
VERTEX
  8
0
  5
9B8
 10
470.775
 20
458.203
 30
2.27373e-013
  70
    32
  0
VERTEX
  8
0
  5
9B9
 10
470.815
 20
458.172
 30
2.27380e-013
  70
    32
  0
VERTEX
  8
0
  5
9BA
 10
470.856
 20
458.142
 30
2.27387e-013
  70
    32
  0
VERTEX
  8
0
  5
9BB
 10
470.897
 20
458.115
 30
2.27394e-013
  70
    32
  0
VERTEX
  8
0
  5
9BC
 10
470.940
 20
458.089
 30
2.27401e-013
  70
    32
  0
VERTEX
  8
0
  5
9BD
 10
470.984
 20
458.065
 30
2.27408e-013
  70
    32
  0
VERTEX
  8
0
  5
9BE
 10
471.029
 20
458.043
 30
2.27414e-013
  70
    32
  0
VERTEX
  8
0
  5
9BF
 10
471.075
 20
458.023
 30
2.27421e-013
  70
    32
  0
VERTEX
  8
0
  5
9C0
 10
471.122
 20
458.005
 30
2.27428e-013
  70
    32
  0
VERTEX
  8
0
  5
9C1
 10
471.170
 20
457.988
 30
2.27435e-013
  70
    32
  0
VERTEX
  8
0
  5
9C2
 10
471.219
 20
457.974
 30
2.27442e-013
  70
    32
  0
VERTEX
  8
0
  5
9C3
 10
471.269
 20
457.961
 30
2.27448e-013
  70
    32
  0
VERTEX
  8
0
  5
9C4
 10
471.319
 20
457.951
 30
2.27455e-013
  70
    32
  0
VERTEX
  8
0
  5
9C5
 10
471.371
 20
457.942
 30
2.27462e-013
  70
    32
  0
VERTEX
  8
0
  5
9C6
 10
471.423
 20
457.935
 30
2.27468e-013
  70
    32
  0
VERTEX
  8
0
  5
9C7
 10
471.476
 20
457.930
 30
2.27475e-013
  70
    32
  0
VERTEX
  8
0
  5
9C8
 10
471.530
 20
457.928
 30
2.27482e-013
  70
    32
  0
VERTEX
  8
0
  5
9C9
 10
471.584
 20
457.927
 30
2.27488e-013
  70
    32
  0
VERTEX
  8
0
  5
9CA
 10
471.639
 20
457.928
 30
2.27494e-013
  70
    32
  0
VERTEX
  8
0
  5
9CB
 10
471.695
 20
457.930
 30
2.27501e-013
  70
    32
  0
VERTEX
  8
0
  5
9CC
 10
471.751
 20
457.935
 30
2.27507e-013
  70
    32
  0
VERTEX
  8
0
  5
9CD
 10
471.808
 20
457.942
 30
2.27513e-013
  70
    32
  0
VERTEX
  8
0
  5
9CE
 10
471.866
 20
457.951
 30
2.27520e-013
  70
    32
  0
VERTEX
  8
0
  5
9CF
 10
471.924
 20
457.961
 30
2.27526e-013
  70
    32
  0
VERTEX
  8
0
  5
9D0
 10
471.982
 20
457.974
 30
2.27532e-013
  70
    32
  0
VERTEX
  8
0
  5
9D1
 10
472.041
 20
457.988
 30
2.27538e-013
  70
    32
  0
VERTEX
  8
0
  5
9D2
 10
472.100
 20
458.005
 30
2.27544e-013
  70
    32
  0
VERTEX
  8
0
  5
9D3
 10
472.160
 20
458.023
 30
2.27550e-013
  70
    32
  0
VERTEX
  8
0
  5
9D4
 10
472.220
 20
458.043
 30
2.27555e-013
  70
    32
  0
VERTEX
  8
0
  5
9D5
 10
472.280
 20
458.065
 30
2.27561e-013
  70
    32
  0
VERTEX
  8
0
  5
9D6
 10
472.340
 20
458.089
 30
2.27566e-013
  70
    32
  0
VERTEX
  8
0
  5
9D7
 10
472.401
 20
458.115
 30
2.27572e-013
  70
    32
  0
VERTEX
  8
0
  5
9D8
 10
472.462
 20
458.142
 30
2.27577e-013
  70
    32
  0
VERTEX
  8
0
  5
9D9
 10
472.523
 20
458.172
 30
2.27582e-013
  70
    32
  0
VERTEX
  8
0
  5
9DA
 10
472.584
 20
458.203
 30
2.27587e-013
  70
    32
  0
VERTEX
  8
0
  5
9DB
 10
472.645
 20
458.236
 30
2.27592e-013
  70
    32
  0
VERTEX
  8
0
  5
9DC
 10
472.706
 20
458.271
 30
2.27597e-013
  70
    32
  0
VERTEX
  8
0
  5
9DD
 10
472.768
 20
458.307
 30
2.27602e-013
  70
    32
  0
VERTEX
  8
0
  5
9DE
 10
472.829
 20
458.345
 30
2.27607e-013
  70
    32
  0
VERTEX
  8
0
  5
9DF
 10
472.890
 20
458.385
 30
2.27611e-013
  70
    32
  0
VERTEX
  8
0
  5
9E0
 10
472.951
 20
458.426
 30
2.27616e-013
  70
    32
  0
VERTEX
  8
0
  5
9E1
 10
473.012
 20
458.469
 30
2.27620e-013
  70
    32
  0
VERTEX
  8
0
  5
9E2
 10
473.073
 20
458.514
 30
2.27624e-013
  70
    32
  0
VERTEX
  8
0
  5
9E3
 10
473.133
 20
458.561
 30
2.27628e-013
  70
    32
  0
SEQEND
  8
0
  5
9E4
  0
LINE
  5
717
  8
0
  6
CONTINUOUS
 10
528.1095970359396
 20
507.34566770281521
 30
0.0000000000001137
 11
472.26643421957908
 21
463.73466329606549
 31
0.0000000000000568
210
-0.0000000000000001
220
0.816496580927726
230
0.5773502691896258
  0
LINE
  5
718
  8
0
  6
CONTINUOUS
 10
386.62916086087449
 20
589.348108758634
 30
0.0
 11
503.2360593694363
 21
522.02508451534845
 31
0.0
210
-0.0000000000000001
220
0.816496580927726
230
0.5773502691896258
  0
LINE
  5
719
  8
0
  6
CONTINUOUS
 10
330.78599804451369
 20
545.73710435188411
 30
0.0000000000000568
 11
468.37184421144241
 21
466.30187903072527
 31
0.0000000000001137
210
-0.0000000000000001
220
0.816496580927726
230
0.5773502691896258
  0
LINE
  5
71A
  8
0
  6
CONTINUOUS
 10
330.7859980445138
 20
545.73710435188434
 30
0.0
 11
386.62916086087472
 21
589.34810875863423
 31
0.0
210
-0.0000000000000001
220
0.816496580927726
230
0.5773502691896258
  0
LINE
  5
71B
  8
0
  6
CONTINUOUS
 10
346.6537994196741
 20
176.2658639227009
 30
0.0000000000001137
 11
212.73026671185869
 21
253.58665158238381
 31
0.0000000000001705
210
-0.0000000000000001
220
0.816496580927726
230
0.5773502691896258
  0
LINE
  5
71C
  8
0
  6
CONTINUOUS
 10
353.19052467250981
 20
206.62531510938669
 30
0.0000000000000568
 11
237.859689979221
 21
273.21160356542123
 31
0.0000000000000568
210
-0.0000000000000001
220
0.816496580927726
230
0.5773502691896258
  0
LINE
  5
71D
  8
0
  6
CONTINUOUS
 10
346.65379941967399
 20
175.94719077762181
 30
0.0000000000001137
 11
212.78934664961429
 21
253.2338686193377
 31
0.0000000000001137
210
-0.0000000000000001
220
0.816496580927726
230
0.5773502691896258
  0
LINE
  5
71E
  8
0
  6
CONTINUOUS
 10
380.360809559367
 20
227.3606000573848
 30
0.0000000000001137
 11
380.360809559367
 21
92.369928207232064
 31
0.0000000000001705
210
-0.0000000000000001
220
0.816496580927726
230
0.5773502691896258
  0
LINE
  5
71F
  8
0
  6
CONTINUOUS
 10
346.99402722136767
 20
201.3291982282995
 30
0.0000000000001137
 11
346.99402722136767
 21
73.10560744239649
 31
0.000000000000199
210
-0.0000000000000001
220
0.816496580927726
230
0.5773502691896258
  0
LINE
  5
720
  8
0
  6
CONTINUOUS
 10
380.02058175767343
 20
227.55703067027849
 30
0.0000000000001421
 11
380.360809559367
 21
227.3606000573848
 31
0.0000000000001137
210
-0.0000000000000001
220
0.816496580927726
230
0.5773502691896258
  0
LINE
  5
721
  8
0
  6
CONTINUOUS
 10
346.99402722136767
 20
201.3291982282995
 30
0.0000000000001137
 11
380.360809559367
 21
227.3606000573848
 31
0.0000000000001137
210
-0.0000000000000001
220
0.816496580927726
230
0.5773502691896258
  0
LINE
  5
722
  8
0
  6
CONTINUOUS
 10
346.6537994196741
 20
201.52562884119311
 30
0.000000000000199
 11
346.99402722136767
 21
201.3291982282995
 31
0.0000000000001137
210
-0.0000000000000001
220
0.816496580927726
230
0.5773502691896258
  0
LINE
  5
723
  8
0
  6
CONTINUOUS
 10
237.5785421152832
 20
309.79598060173191
 30
0.0000000000000284
 11
237.9187699169768
 21
309.59954998883819
 31
0.0000000000001137
210
-0.0000000000000001
220
0.816496580927726
230
0.5773502691896258
  0
LINE
  5
724
  8
0
  6
CONTINUOUS
 10
237.578542115283
 20
309.7959806017318
 30
0.0000000000001421
 11
204.21175977728379
 21
283.76457877264642
 31
0.0000000000000568
210
-0.0000000000000001
220
0.816496580927726
230
0.5773502691896258
  0
LINE
  5
725
  8
0
  6
CONTINUOUS
 10
380.02058175767343
 20
227.55703067027849
 30
0.0000000000001421
 11
346.65379941967421
 21
201.52562884119311
 31
0.0000000000000853
210
-0.0000000000000001
220
0.816496580927726
230
0.5773502691896258
  0
LINE
  5
726
  8
0
  6
CONTINUOUS
 10
346.6537994196741
 20
73.302038055290041
 30
0.0000000000001421
 11
346.65379941967421
 21
201.52562884119311
 31
0.0000000000001421
210
-0.0000000000000001
220
0.816496580927726
230
0.5773502691896258
  0
LINE
  5
727
  8
0
  6
CONTINUOUS
 10
204.5519875789775
 20
283.56814815975281
 30
0.0000000000001705
 11
237.9187699169768
 21
309.59954998883842
 31
0.0000000000000853
210
-0.0000000000000001
220
0.816496580927726
230
0.5773502691896258
  0
LINE
  5
728
  8
0
  6
CONTINUOUS
 10
237.9187699169768
 20
309.59954998883819
 30
0.0000000000001137
 11
237.9187699169766
 21
273.17749374745432
 31
0.0000000000000853
210
-0.0000000000000001
220
0.816496580927726
230
0.5773502691896258
  0
LINE
  5
729
  8
0
  6
CONTINUOUS
 10
237.859689979221
 20
273.21160356542123
 30
0.0000000000000284
 11
212.7302667118586
 21
253.58665158238389
 31
0.0000000000001421
210
-0.0000000000000001
220
0.816496580927726
230
0.5773502691896258
  0
LINE
  5
72A
  8
0
  6
CONTINUOUS
 10
212.7302667118586
 20
253.58665158238389
 30
0.0000000000001421
 11
212.78934664961429
 21
253.2338686193377
 31
0.0000000000000853
210
-0.0000000000000001
220
0.816496580927726
230
0.5773502691896258
  0
LINE
  5
72B
  8
0
  6
CONTINUOUS
 10
237.5785421152832
 20
238.92181994423959
 30
0.0000000000000568
 11
237.57854211528311
 21
174.41244752579169
 31
0.0000000000002274
210
-0.0000000000000001
220
0.816496580927726
230
0.5773502691896258
  0
LINE
  5
72C
  8
0
  6
CONTINUOUS
 10
204.21175977728379
 20
155.54098798674349
 30
0.0000000000001137
 11
204.21175977728379
 21
283.76457877264647
 31
0.0000000000001137
210
-0.0000000000000001
220
0.816496580927726
230
0.5773502691896258
  0
LINE
  5
72D
  8
0
  6
CONTINUOUS
 10
204.21175977728379
 20
283.76457877264642
 30
0.0000000000000568
 11
204.5519875789775
 21
283.56814815975281
 31
0.0000000000001705
210
-0.0000000000000001
220
0.816496580927726
230
0.5773502691896258
  0
LINE
  5
72E
  8
0
  6
CONTINUOUS
 10
204.5519875789775
 20
283.56814815975281
 30
0.0000000000001705
 11
204.5519875789773
 21
155.3445573738498
 31
0.0000000000001421
210
-0.0000000000000001
220
0.816496580927726
230
0.5773502691896258
  0
LINE
  5
72F
  8
0
  6
CONTINUOUS
 10
346.99402722136767
 20
73.105607442396433
 30
0.0000000000001705
 11
346.6537994196741
 21
73.302038055290041
 31
0.0000000000001137
210
-0.0000000000000001
220
0.816496580927726
230
0.5773502691896258
  0
LINE
  5
730
  8
0
  6
CONTINUOUS
 10
380.360809559367
 20
92.369928207232064
 30
0.0000000000001705
 11
346.99402722136762
 21
73.105607442396433
 31
0.0000000000000568
210
-0.0000000000000001
220
0.816496580927726
230
0.5773502691896258
  0
LINE
  5
731
  8
0
  6
CONTINUOUS
 10
204.5519875789773
 20
155.3445573738498
 30
0.0000000000001421
 11
204.21175977728379
 21
155.54098798674349
 31
0.0000000000001137
210
-0.0000000000000001
220
0.816496580927726
230
0.5773502691896258
  0
LINE
  5
732
  8
0
  6
CONTINUOUS
 10
237.57854211528311
 20
174.41244752579161
 30
0.000000000000199
 11
204.5519875789773
 21
155.3445573738498
 31
0.0000000000001137
210
-0.0000000000000001
220
0.816496580927726
230
0.5773502691896258
  0
LINE
  5
733
  8
0
  6
CONTINUOUS
 10
346.65379941967421
 20
111.4378183591739
 30
0.0000000000000853
 11
237.57854211528311
 21
174.41244752579169
 31
0.0000000000002274
210
-0.0000000000000001
220
0.816496580927726
230
0.5773502691896258
  0
LINE
  5
734
  8
0
  6
CONTINUOUS
 10
204.72210147982409
 20
480.25209170786451
 30
0.0000000000000568
 11
205.06232928151769
 21
480.05566109497079
 31
0.0000000000001705
210
-0.0000000000000001
220
0.816496580927726
230
0.5773502691896258
  0
LINE
  5
735
  8
0
  6
CONTINUOUS
 10
263.35742243700281
 20
526.04364633495186
 30
0.0
 11
204.72210147982409
 21
480.25209170786451
 31
0.0000000000000568
210
-0.0000000000000001
220
0.816496580927726
230
0.5773502691896258
  0
LINE
  5
736
  8
0
  6
CONTINUOUS
 10
209.64542962613419
 20
450.8535114540195
 30
0.0000000000001705
 11
204.72210147982409
 21
480.25209170786451
 31
0.0000000000000568
210
-0.0000000000000001
220
0.816496580927726
230
0.5773502691896258
  0
LINE
  5
737
  8
0
  6
CONTINUOUS
 10
209.9856574278277
 20
450.657080841126
 30
0.0
 11
209.64542962613419
 21
450.8535114540195
 31
0.0000000000001705
210
-0.0000000000000001
220
0.816496580927726
230
0.5773502691896258
  0
LINE
  5
738
  8
0
  6
CONTINUOUS
 10
205.06232928151769
 20
480.05566109497079
 30
0.0000000000001705
 11
263.69765023869661
 21
525.84721572205831
 31
0.0000000000000568
210
-0.0000000000000001
220
0.816496580927726
230
0.5773502691896258
  0
LINE
  5
739
  8
0
  6
CONTINUOUS
 10
212.77781556864591
 20
452.83763106146341
 30
0.0000000000001137
 11
209.9856574278277
 21
450.657080841126
 31
0.0
210
-0.0000000000000001
220
0.816496580927726
230
0.5773502691896258
  0
LINE
  5
73A
  8
0
  6
CONTINUOUS
 10
205.06232928151769
 20
480.05566109497079
 30
0.0000000000001705
 11
209.9856574278277
 21
450.657080841126
 31
0.0
210
-0.0000000000000001
220
0.816496580927726
230
0.5773502691896258
  0
LINE
  5
73B
  8
0
  6
CONTINUOUS
 10
263.69765023869661
 20
525.84721572205831
 30
0.0000000000000568
 11
263.35742243700292
 21
526.04364633495186
 31
0.0000000000000568
210
-0.0000000000000001
220
0.816496580927726
230
0.5773502691896258
  0
LINE
  5
73C
  8
0
  6
CONTINUOUS
 10
268.62097838500659
 20
496.4486354682133
 30
0.0000000000000568
 11
263.69765023869661
 21
525.84721572205831
 31
0.0000000000000568
210
-0.0000000000000001
220
0.816496580927726
230
0.5773502691896258
  0
LINE
  5
73D
  8
0
  6
CONTINUOUS
 10
379.50630684493331
 20
424.65732175097531
 30
0.0000000000002274
 11
404.77877867431238
 21
444.39398824217932
 31
0.0000000000001137
210
-0.0000000000000001
220
0.816496580927726
230
0.5773502691896258
  0
LINE
  5
73E
  8
0
  6
CONTINUOUS
 10
405.11900647600618
 20
444.19755762928571
 30
0.0000000000001705
 11
404.77877867431238
 21
444.39398824217932
 31
0.0000000000001137
210
-0.0000000000000001
220
0.816496580927726
230
0.5773502691896258
  0
LINE
  5
73F
  8
0
  6
CONTINUOUS
 10
345.79929670525212
 20
397.87152604818152
 30
0.0000000000001694
 11
345.79929670525212
 21
364.16591416841652
 31
-0.0000000000001853
210
-0.0000000000000001
220
0.816496580927726
230
0.5773502691896258
  0
LINE
  5
740
  8
0
  6
CONTINUOUS
 10
346.48368551882731
 20
398.40600300219842
 30
0.0000000000001705
 11
405.11900647600618
 21
444.19755762928571
 31
0.0000000000001705
210
-0.0000000000000001
220
0.816496580927726
230
0.5773502691896258
  0
LINE
  5
741
  8
0
  6
CONTINUOUS
 10
410.10141456007199
 20
414.4461944123945
 30
0.0000000000002842
 11
405.11900647600618
 21
444.19755762928571
 31
0.0000000000001705
210
-0.0000000000000001
220
0.816496580927726
230
0.5773502691896258
  0
POLYLINE
  5
742
  8
0
  6
CONTINUOUS
 10
202.3457513678218
 20
444.69065702043889
 30
-0.0000000000001858
 66
     1
 70
     8
  0
VERTEX
  8
0
  5
9E5
 10
202.346
 20
444.691
 30
-1.85762e-013
  70
    32
  0
VERTEX
  8
0
  5
9E6
 10
202.318
 20
444.647
 30
-1.85757e-013
  70
    32
  0
VERTEX
  8
0
  5
9E7
 10
202.291
 20
444.603
 30
-1.85752e-013
  70
    32
  0
VERTEX
  8
0
  5
9E8
 10
202.264
 20
444.559
 30
-1.85747e-013
  70
    32
  0
VERTEX
  8
0
  5
9E9
 10
202.237
 20
444.515
 30
-1.85742e-013
  70
    32
  0
VERTEX
  8
0
  5
9EA
 10
202.211
 20
444.471
 30
-1.85737e-013
  70
    32
  0
VERTEX
  8
0
  5
9EB
 10
202.185
 20
444.426
 30
-1.85732e-013
  70
    32
  0
VERTEX
  8
0
  5
9EC
 10
202.159
 20
444.381
 30
-1.85727e-013
  70
    32
  0
VERTEX
  8
0
  5
9ED
 10
202.134
 20
444.336
 30
-1.85722e-013
  70
    32
  0
VERTEX
  8
0
  5
9EE
 10
202.109
 20
444.291
 30
-1.85716e-013
  70
    32
  0
VERTEX
  8
0
  5
9EF
 10
202.084
 20
444.246
 30
-1.85711e-013
  70
    32
  0
VERTEX
  8
0
  5
9F0
 10
202.060
 20
444.200
 30
-1.85705e-013
  70
    32
  0
VERTEX
  8
0
  5
9F1
 10
202.036
 20
444.155
 30
-1.85700e-013
  70
    32
  0
VERTEX
  8
0
  5
9F2
 10
202.013
 20
444.109
 30
-1.85694e-013
  70
    32
  0
VERTEX
  8
0
  5
9F3
 10
201.990
 20
444.063
 30
-1.85689e-013
  70
    32
  0
VERTEX
  8
0
  5
9F4
 10
201.967
 20
444.017
 30
-1.85683e-013
  70
    32
  0
VERTEX
  8
0
  5
9F5
 10
201.944
 20
443.971
 30
-1.85677e-013
  70
    32
  0
VERTEX
  8
0
  5
9F6
 10
201.922
 20
443.924
 30
-1.85671e-013
  70
    32
  0
VERTEX
  8
0
  5
9F7
 10
201.900
 20
443.878
 30
-1.85665e-013
  70
    32
  0
VERTEX
  8
0
  5
9F8
 10
201.879
 20
443.831
 30
-1.85659e-013
  70
    32
  0
VERTEX
  8
0
  5
9F9
 10
201.858
 20
443.785
 30
-1.85653e-013
  70
    32
  0
VERTEX
  8
0
  5
9FA
 10
201.838
 20
443.738
 30
-1.85647e-013
  70
    32
  0
VERTEX
  8
0
  5
9FB
 10
201.817
 20
443.691
 30
-1.85641e-013
  70
    32
  0
VERTEX
  8
0
  5
9FC
 10
201.798
 20
443.645
 30
-1.85635e-013
  70
    32
  0
VERTEX
  8
0
  5
9FD
 10
201.778
 20
443.598
 30
-1.85629e-013
  70
    32
  0
VERTEX
  8
0
  5
9FE
 10
201.759
 20
443.551
 30
-1.85622e-013
  70
    32
  0
VERTEX
  8
0
  5
9FF
 10
201.741
 20
443.504
 30
-1.85616e-013
  70
    32
  0
VERTEX
  8
0
  5
A00
 10
201.722
 20
443.457
 30
-1.85609e-013
  70
    32
  0
VERTEX
  8
0
  5
A01
 10
201.705
 20
443.409
 30
-1.85603e-013
  70
    32
  0
VERTEX
  8
0
  5
A02
 10
201.687
 20
443.362
 30
-1.85596e-013
  70
    32
  0
VERTEX
  8
0
  5
A03
 10
201.670
 20
443.315
 30
-1.85590e-013
  70
    32
  0
VERTEX
  8
0
  5
A04
 10
201.654
 20
443.268
 30
-1.85583e-013
  70
    32
  0
VERTEX
  8
0
  5
A05
 10
201.638
 20
443.221
 30
-1.85577e-013
  70
    32
  0
VERTEX
  8
0
  5
A06
 10
201.622
 20
443.174
 30
-1.85570e-013
  70
    32
  0
VERTEX
  8
0
  5
A07
 10
201.607
 20
443.127
 30
-1.85563e-013
  70
    32
  0
VERTEX
  8
0
  5
A08
 10
201.592
 20
443.080
 30
-1.85556e-013
  70
    32
  0
VERTEX
  8
0
  5
A09
 10
201.577
 20
443.033
 30
-1.85549e-013
  70
    32
  0
VERTEX
  8
0
  5
A0A
 10
201.563
 20
442.986
 30
-1.85543e-013
  70
    32
  0
VERTEX
  8
0
  5
A0B
 10
201.550
 20
442.939
 30
-1.85536e-013
  70
    32
  0
VERTEX
  8
0
  5
A0C
 10
201.537
 20
442.892
 30
-1.85529e-013
  70
    32
  0
VERTEX
  8
0
  5
A0D
 10
201.524
 20
442.845
 30
-1.85522e-013
  70
    32
  0
VERTEX
  8
0
  5
A0E
 10
201.512
 20
442.798
 30
-1.85515e-013
  70
    32
  0
VERTEX
  8
0
  5
A0F
 10
201.500
 20
442.751
 30
-1.85508e-013
  70
    32
  0
VERTEX
  8
0
  5
A10
 10
201.489
 20
442.705
 30
-1.85500e-013
  70
    32
  0
VERTEX
  8
0
  5
A11
 10
201.478
 20
442.658
 30
-1.85493e-013
  70
    32
  0
VERTEX
  8
0
  5
A12
 10
201.468
 20
442.612
 30
-1.85486e-013
  70
    32
  0
VERTEX
  8
0
  5
A13
 10
201.458
 20
442.566
 30
-1.85479e-013
  70
    32
  0
VERTEX
  8
0
  5
A14
 10
201.448
 20
442.519
 30
-1.85472e-013
  70
    32
  0
VERTEX
  8
0
  5
A15
 10
201.439
 20
442.473
 30
-1.85464e-013
  70
    32
  0
VERTEX
  8
0
  5
A16
 10
201.430
 20
442.427
 30
-1.85457e-013
  70
    32
  0
VERTEX
  8
0
  5
A17
 10
201.422
 20
442.382
 30
-1.85450e-013
  70
    32
  0
VERTEX
  8
0
  5
A18
 10
201.415
 20
442.336
 30
-1.85442e-013
  70
    32
  0
VERTEX
  8
0
  5
A19
 10
201.407
 20
442.290
 30
-1.85435e-013
  70
    32
  0
VERTEX
  8
0
  5
A1A
 10
201.401
 20
442.245
 30
-1.85428e-013
  70
    32
  0
VERTEX
  8
0
  5
A1B
 10
201.394
 20
442.200
 30
-1.85420e-013
  70
    32
  0
VERTEX
  8
0
  5
A1C
 10
201.388
 20
442.155
 30
-1.85413e-013
  70
    32
  0
VERTEX
  8
0
  5
A1D
 10
201.383
 20
442.110
 30
-1.85405e-013
  70
    32
  0
VERTEX
  8
0
  5
A1E
 10
201.378
 20
442.066
 30
-1.85398e-013
  70
    32
  0
VERTEX
  8
0
  5
A1F
 10
201.374
 20
442.021
 30
-1.85390e-013
  70
    32
  0
VERTEX
  8
0
  5
A20
 10
201.370
 20
441.977
 30
-1.85383e-013
  70
    32
  0
VERTEX
  8
0
  5
A21
 10
201.366
 20
441.933
 30
-1.85375e-013
  70
    32
  0
VERTEX
  8
0
  5
A22
 10
201.363
 20
441.889
 30
-1.85368e-013
  70
    32
  0
VERTEX
  8
0
  5
A23
 10
201.360
 20
441.846
 30
-1.85360e-013
  70
    32
  0
VERTEX
  8
0
  5
A24
 10
201.358
 20
441.802
 30
-1.85353e-013
  70
    32
  0
VERTEX
  8
0
  5
A25
 10
201.357
 20
441.759
 30
-1.85345e-013
  70
    32
  0
VERTEX
  8
0
  5
A26
 10
201.356
 20
441.717
 30
-1.85338e-013
  70
    32
  0
VERTEX
  8
0
  5
A27
 10
201.355
 20
441.674
 30
-1.85330e-013
  70
    32
  0
VERTEX
  8
0
  5
A28
 10
201.355
 20
441.632
 30
-1.85323e-013
  70
    32
  0
VERTEX
  8
0
  5
A29
 10
201.355
 20
441.590
 30
-1.85315e-013
  70
    32
  0
VERTEX
  8
0
  5
A2A
 10
201.356
 20
441.548
 30
-1.85307e-013
  70
    32
  0
VERTEX
  8
0
  5
A2B
 10
201.357
 20
441.506
 30
-1.85300e-013
  70
    32
  0
VERTEX
  8
0
  5
A2C
 10
201.358
 20
441.465
 30
-1.85292e-013
  70
    32
  0
VERTEX
  8
0
  5
A2D
 10
201.360
 20
441.424
 30
-1.85285e-013
  70
    32
  0
VERTEX
  8
0
  5
A2E
 10
201.363
 20
441.384
 30
-1.85277e-013
  70
    32
  0
VERTEX
  8
0
  5
A2F
 10
201.366
 20
441.344
 30
-1.85270e-013
  70
    32
  0
VERTEX
  8
0
  5
A30
 10
201.370
 20
441.304
 30
-1.85262e-013
  70
    32
  0
VERTEX
  8
0
  5
A31
 10
201.374
 20
441.264
 30
-1.85254e-013
  70
    32
  0
VERTEX
  8
0
  5
A32
 10
201.378
 20
441.225
 30
-1.85247e-013
  70
    32
  0
VERTEX
  8
0
  5
A33
 10
201.383
 20
441.186
 30
-1.85239e-013
  70
    32
  0
VERTEX
  8
0
  5
A34
 10
201.388
 20
441.147
 30
-1.85232e-013
  70
    32
  0
VERTEX
  8
0
  5
A35
 10
201.394
 20
441.109
 30
-1.85224e-013
  70
    32
  0
VERTEX
  8
0
  5
A36
 10
201.401
 20
441.071
 30
-1.85217e-013
  70
    32
  0
VERTEX
  8
0
  5
A37
 10
201.407
 20
441.034
 30
-1.85209e-013
  70
    32
  0
VERTEX
  8
0
  5
A38
 10
201.415
 20
440.997
 30
-1.85202e-013
  70
    32
  0
VERTEX
  8
0
  5
A39
 10
201.422
 20
440.960
 30
-1.85194e-013
  70
    32
  0
VERTEX
  8
0
  5
A3A
 10
201.430
 20
440.923
 30
-1.85187e-013
  70
    32
  0
VERTEX
  8
0
  5
A3B
 10
201.439
 20
440.887
 30
-1.85179e-013
  70
    32
  0
VERTEX
  8
0
  5
A3C
 10
201.448
 20
440.852
 30
-1.85172e-013
  70
    32
  0
VERTEX
  8
0
  5
A3D
 10
201.458
 20
440.817
 30
-1.85165e-013
  70
    32
  0
VERTEX
  8
0
  5
A3E
 10
201.468
 20
440.782
 30
-1.85157e-013
  70
    32
  0
VERTEX
  8
0
  5
A3F
 10
201.478
 20
440.748
 30
-1.85150e-013
  70
    32
  0
VERTEX
  8
0
  5
A40
 10
201.489
 20
440.714
 30
-1.85143e-013
  70
    32
  0
VERTEX
  8
0
  5
A41
 10
201.500
 20
440.680
 30
-1.85135e-013
  70
    32
  0
VERTEX
  8
0
  5
A42
 10
201.512
 20
440.647
 30
-1.85128e-013
  70
    32
  0
VERTEX
  8
0
  5
A43
 10
201.524
 20
440.614
 30
-1.85121e-013
  70
    32
  0
VERTEX
  8
0
  5
A44
 10
201.537
 20
440.582
 30
-1.85114e-013
  70
    32
  0
VERTEX
  8
0
  5
A45
 10
201.550
 20
440.550
 30
-1.85106e-013
  70
    32
  0
VERTEX
  8
0
  5
A46
 10
201.563
 20
440.519
 30
-1.85099e-013
  70
    32
  0
VERTEX
  8
0
  5
A47
 10
201.577
 20
440.488
 30
-1.85092e-013
  70
    32
  0
VERTEX
  8
0
  5
A48
 10
201.592
 20
440.458
 30
-1.85085e-013
  70
    32
  0
VERTEX
  8
0
  5
A49
 10
201.607
 20
440.428
 30
-1.85078e-013
  70
    32
  0
VERTEX
  8
0
  5
A4A
 10
201.622
 20
440.398
 30
-1.85071e-013
  70
    32
  0
VERTEX
  8
0
  5
A4B
 10
201.638
 20
440.369
 30
-1.85064e-013
  70
    32
  0
VERTEX
  8
0
  5
A4C
 10
201.654
 20
440.341
 30
-1.85057e-013
  70
    32
  0
VERTEX
  8
0
  5
A4D
 10
201.670
 20
440.313
 30
-1.85050e-013
  70
    32
  0
VERTEX
  8
0
  5
A4E
 10
201.687
 20
440.285
 30
-1.85043e-013
  70
    32
  0
VERTEX
  8
0
  5
A4F
 10
201.705
 20
440.258
 30
-1.85037e-013
  70
    32
  0
VERTEX
  8
0
  5
A50
 10
201.722
 20
440.231
 30
-1.85030e-013
  70
    32
  0
VERTEX
  8
0
  5
A51
 10
201.741
 20
440.205
 30
-1.85023e-013
  70
    32
  0
VERTEX
  8
0
  5
A52
 10
201.759
 20
440.180
 30
-1.85017e-013
  70
    32
  0
VERTEX
  8
0
  5
A53
 10
201.778
 20
440.155
 30
-1.85010e-013
  70
    32
  0
VERTEX
  8
0
  5
A54
 10
201.798
 20
440.130
 30
-1.85003e-013
  70
    32
  0
VERTEX
  8
0
  5
A55
 10
201.817
 20
440.106
 30
-1.84997e-013
  70
    32
  0
VERTEX
  8
0
  5
A56
 10
201.837
 20
440.083
 30
-1.84990e-013
  70
    32
  0
VERTEX
  8
0
  5
A57
 10
201.858
 20
440.060
 30
-1.84984e-013
  70
    32
  0
VERTEX
  8
0
  5
A58
 10
201.879
 20
440.038
 30
-1.84978e-013
  70
    32
  0
VERTEX
  8
0
  5
A59
 10
201.900
 20
440.016
 30
-1.84971e-013
  70
    32
  0
VERTEX
  8
0
  5
A5A
 10
201.922
 20
439.994
 30
-1.84965e-013
  70
    32
  0
VERTEX
  8
0
  5
A5B
 10
201.944
 20
439.974
 30
-1.84959e-013
  70
    32
  0
VERTEX
  8
0
  5
A5C
 10
201.967
 20
439.953
 30
-1.84953e-013
  70
    32
  0
VERTEX
  8
0
  5
A5D
 10
201.989
 20
439.934
 30
-1.84947e-013
  70
    32
  0
VERTEX
  8
0
  5
A5E
 10
202.013
 20
439.914
 30
-1.84941e-013
  70
    32
  0
VERTEX
  8
0
  5
A5F
 10
202.036
 20
439.896
 30
-1.84935e-013
  70
    32
  0
VERTEX
  8
0
  5
A60
 10
202.060
 20
439.878
 30
-1.84929e-013
  70
    32
  0
VERTEX
  8
0
  5
A61
 10
202.084
 20
439.860
 30
-1.84923e-013
  70
    32
  0
VERTEX
  8
0
  5
A62
 10
202.109
 20
439.843
 30
-1.84917e-013
  70
    32
  0
VERTEX
  8
0
  5
A63
 10
202.134
 20
439.827
 30
-1.84911e-013
  70
    32
  0
VERTEX
  8
0
  5
A64
 10
202.159
 20
439.811
 30
-1.84906e-013
  70
    32
  0
VERTEX
  8
0
  5
A65
 10
202.185
 20
439.796
 30
-1.84900e-013
  70
    32
  0
SEQEND
  8
0
  5
A66
  0
POLYLINE
  5
743
  8
0
  6
CONTINUOUS
 10
345.45906890355855
 20
364.3623447813103
 30
-0.0000000000002428
 66
     1
 70
     8
  0
VERTEX
  8
0
  5
A67
 10
345.459
 20
364.362
 30
-2.42783e-013
  70
    32
  0
VERTEX
  8
0
  5
A68
 10
345.391
 20
364.308
 30
-2.42781e-013
  70
    32
  0
VERTEX
  8
0
  5
A69
 10
345.323
 20
364.252
 30
-2.42779e-013
  70
    32
  0
VERTEX
  8
0
  5
A6A
 10
345.255
 20
364.194
 30
-2.42776e-013
  70
    32
  0
VERTEX
  8
0
  5
A6B
 10
345.188
 20
364.134
 30
-2.42773e-013
  70
    32
  0
VERTEX
  8
0
  5
A6C
 10
345.121
 20
364.073
 30
-2.42769e-013
  70
    32
  0
VERTEX
  8
0
  5
A6D
 10
345.055
 20
364.011
 30
-2.42765e-013
  70
    32
  0
VERTEX
  8
0
  5
A6E
 10
344.989
 20
363.946
 30
-2.42761e-013
  70
    32
  0
VERTEX
  8
0
  5
A6F
 10
344.924
 20
363.880
 30
-2.42756e-013
  70
    32
  0
VERTEX
  8
0
  5
A70
 10
344.859
 20
363.813
 30
-2.42752e-013
  70
    32
  0
VERTEX
  8
0
  5
A71
 10
344.795
 20
363.744
 30
-2.42746e-013
  70
    32
  0
VERTEX
  8
0
  5
A72
 10
344.732
 20
363.674
 30
-2.42741e-013
  70
    32
  0
VERTEX
  8
0
  5
A73
 10
344.670
 20
363.603
 30
-2.42735e-013
  70
    32
  0
VERTEX
  8
0
  5
A74
 10
344.608
 20
363.530
 30
-2.42729e-013
  70
    32
  0
VERTEX
  8
0
  5
A75
 10
344.547
 20
363.456
 30
-2.42722e-013
  70
    32
  0
VERTEX
  8
0
  5
A76
 10
344.487
 20
363.381
 30
-2.42715e-013
  70
    32
  0
VERTEX
  8
0
  5
A77
 10
344.428
 20
363.304
 30
-2.42708e-013
  70
    32
  0
VERTEX
  8
0
  5
A78
 10
344.370
 20
363.226
 30
-2.42701e-013
  70
    32
  0
VERTEX
  8
0
  5
A79
 10
344.313
 20
363.148
 30
-2.42693e-013
  70
    32
  0
VERTEX
  8
0
  5
A7A
 10
344.256
 20
363.068
 30
-2.42685e-013
  70
    32
  0
VERTEX
  8
0
  5
A7B
 10
344.201
 20
362.987
 30
-2.42677e-013
  70
    32
  0
VERTEX
  8
0
  5
A7C
 10
344.147
 20
362.906
 30
-2.42668e-013
  70
    32
  0
VERTEX
  8
0
  5
A7D
 10
344.094
 20
362.823
 30
-2.42659e-013
  70
    32
  0
VERTEX
  8
0
  5
A7E
 10
344.042
 20
362.740
 30
-2.42650e-013
  70
    32
  0
VERTEX
  8
0
  5
A7F
 10
343.991
 20
362.655
 30
-2.42641e-013
  70
    32
  0
VERTEX
  8
0
  5
A80
 10
343.941
 20
362.570
 30
-2.42631e-013
  70
    32
  0
VERTEX
  8
0
  5
A81
 10
343.893
 20
362.485
 30
-2.42621e-013
  70
    32
  0
VERTEX
  8
0
  5
A82
 10
343.845
 20
362.399
 30
-2.42611e-013
  70
    32
  0
VERTEX
  8
0
  5
A83
 10
343.799
 20
362.312
 30
-2.42600e-013
  70
    32
  0
VERTEX
  8
0
  5
A84
 10
343.755
 20
362.224
 30
-2.42589e-013
  70
    32
  0
VERTEX
  8
0
  5
A85
 10
343.712
 20
362.136
 30
-2.42579e-013
  70
    32
  0
VERTEX
  8
0
  5
A86
 10
343.670
 20
362.048
 30
-2.42567e-013
  70
    32
  0
VERTEX
  8
0
  5
A87
 10
343.629
 20
361.959
 30
-2.42556e-013
  70
    32
  0
VERTEX
  8
0
  5
A88
 10
343.590
 20
361.870
 30
-2.42544e-013
  70
    32
  0
VERTEX
  8
0
  5
A89
 10
343.552
 20
361.781
 30
-2.42533e-013
  70
    32
  0
VERTEX
  8
0
  5
A8A
 10
343.516
 20
361.692
 30
-2.42520e-013
  70
    32
  0
VERTEX
  8
0
  5
A8B
 10
343.481
 20
361.602
 30
-2.42508e-013
  70
    32
  0
VERTEX
  8
0
  5
A8C
 10
343.447
 20
361.512
 30
-2.42496e-013
  70
    32
  0
VERTEX
  8
0
  5
A8D
 10
343.415
 20
361.422
 30
-2.42483e-013
  70
    32
  0
VERTEX
  8
0
  5
A8E
 10
343.385
 20
361.332
 30
-2.42471e-013
  70
    32
  0
VERTEX
  8
0
  5
A8F
 10
343.356
 20
361.243
 30
-2.42458e-013
  70
    32
  0
VERTEX
  8
0
  5
A90
 10
343.329
 20
361.153
 30
-2.42445e-013
  70
    32
  0
VERTEX
  8
0
  5
A91
 10
343.303
 20
361.064
 30
-2.42431e-013
  70
    32
  0
VERTEX
  8
0
  5
A92
 10
343.279
 20
360.974
 30
-2.42418e-013
  70
    32
  0
VERTEX
  8
0
  5
A93
 10
343.257
 20
360.885
 30
-2.42405e-013
  70
    32
  0
VERTEX
  8
0
  5
A94
 10
343.236
 20
360.797
 30
-2.42391e-013
  70
    32
  0
VERTEX
  8
0
  5
A95
 10
343.217
 20
360.708
 30
-2.42377e-013
  70
    32
  0
VERTEX
  8
0
  5
A96
 10
343.199
 20
360.620
 30
-2.42363e-013
  70
    32
  0
VERTEX
  8
0
  5
A97
 10
343.183
 20
360.533
 30
-2.42349e-013
  70
    32
  0
VERTEX
  8
0
  5
A98
 10
343.169
 20
360.446
 30
-2.42335e-013
  70
    32
  0
VERTEX
  8
0
  5
A99
 10
343.157
 20
360.360
 30
-2.42321e-013
  70
    32
  0
VERTEX
  8
0
  5
A9A
 10
343.146
 20
360.274
 30
-2.42307e-013
  70
    32
  0
VERTEX
  8
0
  5
A9B
 10
343.137
 20
360.189
 30
-2.42293e-013
  70
    32
  0
VERTEX
  8
0
  5
A9C
 10
343.129
 20
360.105
 30
-2.42279e-013
  70
    32
  0
VERTEX
  8
0
  5
A9D
 10
343.123
 20
360.022
 30
-2.42264e-013
  70
    32
  0
VERTEX
  8
0
  5
A9E
 10
343.119
 20
359.939
 30
-2.42250e-013
  70
    32
  0
VERTEX
  8
0
  5
A9F
 10
343.117
 20
359.857
 30
-2.42235e-013
  70
    32
  0
VERTEX
  8
0
  5
AA0
 10
343.116
 20
359.777
 30
-2.42221e-013
  70
    32
  0
VERTEX
  8
0
  5
AA1
 10
343.117
 20
359.697
 30
-2.42207e-013
  70
    32
  0
VERTEX
  8
0
  5
AA2
 10
343.120
 20
359.618
 30
-2.42192e-013
  70
    32
  0
VERTEX
  8
0
  5
AA3
 10
343.124
 20
359.541
 30
-2.42178e-013
  70
    32
  0
VERTEX
  8
0
  5
AA4
 10
343.131
 20
359.464
 30
-2.42163e-013
  70
    32
  0
VERTEX
  8
0
  5
AA5
 10
343.138
 20
359.389
 30
-2.42149e-013
  70
    32
  0
VERTEX
  8
0
  5
AA6
 10
343.148
 20
359.315
 30
-2.42134e-013
  70
    32
  0
VERTEX
  8
0
  5
AA7
 10
343.159
 20
359.242
 30
-2.42120e-013
  70
    32
  0
VERTEX
  8
0
  5
AA8
 10
343.172
 20
359.170
 30
-2.42106e-013
  70
    32
  0
VERTEX
  8
0
  5
AA9
 10
343.187
 20
359.100
 30
-2.42092e-013
  70
    32
  0
VERTEX
  8
0
  5
AAA
 10
343.203
 20
359.032
 30
-2.42077e-013
  70
    32
  0
VERTEX
  8
0
  5
AAB
 10
343.221
 20
358.964
 30
-2.42063e-013
  70
    32
  0
VERTEX
  8
0
  5
AAC
 10
343.241
 20
358.898
 30
-2.42049e-013
  70
    32
  0
VERTEX
  8
0
  5
AAD
 10
343.262
 20
358.834
 30
-2.42035e-013
  70
    32
  0
VERTEX
  8
0
  5
AAE
 10
343.285
 20
358.771
 30
-2.42022e-013
  70
    32
  0
VERTEX
  8
0
  5
AAF
 10
343.309
 20
358.710
 30
-2.42008e-013
  70
    32
  0
VERTEX
  8
0
  5
AB0
 10
343.335
 20
358.651
 30
-2.41994e-013
  70
    32
  0
VERTEX
  8
0
  5
AB1
 10
343.363
 20
358.593
 30
-2.41981e-013
  70
    32
  0
VERTEX
  8
0
  5
AB2
 10
343.392
 20
358.537
 30
-2.41967e-013
  70
    32
  0
VERTEX
  8
0
  5
AB3
 10
343.422
 20
358.482
 30
-2.41954e-013
  70
    32
  0
VERTEX
  8
0
  5
AB4
 10
343.455
 20
358.430
 30
-2.41941e-013
  70
    32
  0
VERTEX
  8
0
  5
AB5
 10
343.488
 20
358.379
 30
-2.41928e-013
  70
    32
  0
VERTEX
  8
0
  5
AB6
 10
343.524
 20
358.330
 30
-2.41916e-013
  70
    32
  0
VERTEX
  8
0
  5
AB7
 10
343.560
 20
358.283
 30
-2.41903e-013
  70
    32
  0
VERTEX
  8
0
  5
AB8
 10
343.598
 20
358.238
 30
-2.41891e-013
  70
    32
  0
VERTEX
  8
0
  5
AB9
 10
343.638
 20
358.194
 30
-2.41878e-013
  70
    32
  0
VERTEX
  8
0
  5
ABA
 10
343.679
 20
358.153
 30
-2.41866e-013
  70
    32
  0
VERTEX
  8
0
  5
ABB
 10
343.721
 20
358.114
 30
-2.41855e-013
  70
    32
  0
VERTEX
  8
0
  5
ABC
 10
343.765
 20
358.076
 30
-2.41843e-013
  70
    32
  0
VERTEX
  8
0
  5
ABD
 10
343.810
 20
358.041
 30
-2.41832e-013
  70
    32
  0
VERTEX
  8
0
  5
ABE
 10
343.856
 20
358.007
 30
-2.41820e-013
  70
    32
  0
VERTEX
  8
0
  5
ABF
 10
343.903
 20
357.976
 30
-2.41810e-013
  70
    32
  0
VERTEX
  8
0
  5
AC0
 10
343.952
 20
357.947
 30
-2.41799e-013
  70
    32
  0
VERTEX
  8
0
  5
AC1
 10
344.002
 20
357.920
 30
-2.41788e-013
  70
    32
  0
VERTEX
  8
0
  5
AC2
 10
344.053
 20
357.895
 30
-2.41778e-013
  70
    32
  0
VERTEX
  8
0
  5
AC3
 10
344.105
 20
357.872
 30
-2.41768e-013
  70
    32
  0
VERTEX
  8
0
  5
AC4
 10
344.159
 20
357.851
 30
-2.41759e-013
  70
    32
  0
VERTEX
  8
0
  5
AC5
 10
344.213
 20
357.833
 30
-2.41749e-013
  70
    32
  0
VERTEX
  8
0
  5
AC6
 10
344.269
 20
357.816
 30
-2.41740e-013
  70
    32
  0
VERTEX
  8
0
  5
AC7
 10
344.325
 20
357.802
 30
-2.41731e-013
  70
    32
  0
VERTEX
  8
0
  5
AC8
 10
344.383
 20
357.790
 30
-2.41722e-013
  70
    32
  0
VERTEX
  8
0
  5
AC9
 10
344.441
 20
357.780
 30
-2.41714e-013
  70
    32
  0
VERTEX
  8
0
  5
ACA
 10
344.500
 20
357.772
 30
-2.41706e-013
  70
    32
  0
VERTEX
  8
0
  5
ACB
 10
344.561
 20
357.767
 30
-2.41698e-013
  70
    32
  0
VERTEX
  8
0
  5
ACC
 10
344.622
 20
357.763
 30
-2.41691e-013
  70
    32
  0
VERTEX
  8
0
  5
ACD
 10
344.684
 20
357.762
 30
-2.41684e-013
  70
    32
  0
VERTEX
  8
0
  5
ACE
 10
344.746
 20
357.763
 30
-2.41677e-013
  70
    32
  0
VERTEX
  8
0
  5
ACF
 10
344.810
 20
357.767
 30
-2.41671e-013
  70
    32
  0
VERTEX
  8
0
  5
AD0
 10
344.874
 20
357.772
 30
-2.41664e-013
  70
    32
  0
VERTEX
  8
0
  5
AD1
 10
344.938
 20
357.780
 30
-2.41659e-013
  70
    32
  0
VERTEX
  8
0
  5
AD2
 10
345.004
 20
357.790
 30
-2.41653e-013
  70
    32
  0
VERTEX
  8
0
  5
AD3
 10
345.069
 20
357.802
 30
-2.41648e-013
  70
    32
  0
VERTEX
  8
0
  5
AD4
 10
345.136
 20
357.816
 30
-2.41643e-013
  70
    32
  0
VERTEX
  8
0
  5
AD5
 10
345.203
 20
357.833
 30
-2.41639e-013
  70
    32
  0
VERTEX
  8
0
  5
AD6
 10
345.270
 20
357.851
 30
-2.41634e-013
  70
    32
  0
VERTEX
  8
0
  5
AD7
 10
345.338
 20
357.872
 30
-2.41631e-013
  70
    32
  0
VERTEX
  8
0
  5
AD8
 10
345.406
 20
357.895
 30
-2.41627e-013
  70
    32
  0
VERTEX
  8
0
  5
AD9
 10
345.474
 20
357.920
 30
-2.41624e-013
  70
    32
  0
VERTEX
  8
0
  5
ADA
 10
345.543
 20
357.947
 30
-2.41621e-013
  70
    32
  0
VERTEX
  8
0
  5
ADB
 10
345.612
 20
357.976
 30
-2.41619e-013
  70
    32
  0
VERTEX
  8
0
  5
ADC
 10
345.681
 20
358.008
 30
-2.41617e-013
  70
    32
  0
VERTEX
  8
0
  5
ADD
 10
345.751
 20
358.041
 30
-2.41615e-013
  70
    32
  0
VERTEX
  8
0
  5
ADE
 10
345.820
 20
358.076
 30
-2.41613e-013
  70
    32
  0
VERTEX
  8
0
  5
ADF
 10
345.890
 20
358.114
 30
-2.41612e-013
  70
    32
  0
VERTEX
  8
0
  5
AE0
 10
345.959
 20
358.153
 30
-2.41612e-013
  70
    32
  0
VERTEX
  8
0
  5
AE1
 10
346.029
 20
358.194
 30
-2.41611e-013
  70
    32
  0
VERTEX
  8
0
  5
AE2
 10
346.098
 20
358.238
 30
-2.41611e-013
  70
    32
  0
VERTEX
  8
0
  5
AE3
 10
346.168
 20
358.283
 30
-2.41612e-013
  70
    32
  0
VERTEX
  8
0
  5
AE4
 10
346.237
 20
358.330
 30
-2.41612e-013
  70
    32
  0
VERTEX
  8
0
  5
AE5
 10
346.306
 20
358.379
 30
-2.41613e-013
  70
    32
  0
VERTEX
  8
0
  5
AE6
 10
346.375
 20
358.430
 30
-2.41615e-013
  70
    32
  0
VERTEX
  8
0
  5
AE7
 10
346.444
 20
358.483
 30
-2.41617e-013
  70
    32
  0
SEQEND
  8
0
  5
AE8
  0
LINE
  5
744
  8
0
  6
CONTINUOUS
 10
357.61236709609278
 20
367.20482961189123
 30
-0.0000000000002422
 11
346.4437345328206
 21
358.48262873054142
 31
-0.0000000000002422
210
-0.0000000000000001
220
0.816496580927726
230
0.5773502691896258
  0
LINE
  5
745
  8
0
  6
CONTINUOUS
 10
357.55328715833713
 20
367.55761257493731
 30
-0.0000000000001853
 11
357.61236709609278
 21
367.20482961189123
 31
-0.0000000000002422
210
-0.0000000000000001
220
0.816496580927726
230
0.5773502691896258
  0
LINE
  5
746
  8
0
  6
CONTINUOUS
 10
346.38465459506477
 20
358.8354116935875
 30
-0.000000000000299
 11
357.55328715833713
 21
367.55761257493731
 31
-0.0000000000001853
210
-0.0000000000000001
220
0.816496580927726
230
0.5773502691896258
  0
POLYLINE
  5
747
  8
0
  6
CONTINUOUS
 10
345.51814884131431
 20
364.00956181826416
 30
-0.0000000000002428
 66
     1
 70
     8
  0
VERTEX
  8
0
  5
AE9
 10
345.518
 20
364.010
 30
-2.42771e-013
  70
    32
  0
VERTEX
  8
0
  5
AEA
 10
345.458
 20
363.962
 30
-2.42774e-013
  70
    32
  0
VERTEX
  8
0
  5
AEB
 10
345.398
 20
363.912
 30
-2.42778e-013
  70
    32
  0
VERTEX
  8
0
  5
AEC
 10
345.339
 20
363.861
 30
-2.42781e-013
  70
    32
  0
VERTEX
  8
0
  5
AED
 10
345.279
 20
363.809
 30
-2.42783e-013
  70
    32
  0
VERTEX
  8
0
  5
AEE
 10
345.221
 20
363.755
 30
-2.42785e-013
  70
    32
  0
VERTEX
  8
0
  5
AEF
 10
345.162
 20
363.700
 30
-2.42787e-013
  70
    32
  0
VERTEX
  8
0
  5
AF0
 10
345.104
 20
363.643
 30
-2.42789e-013
  70
    32
  0
VERTEX
  8
0
  5
AF1
 10
345.047
 20
363.585
 30
-2.42790e-013
  70
    32
  0
VERTEX
  8
0
  5
AF2
 10
344.990
 20
363.526
 30
-2.42791e-013
  70
    32
  0
VERTEX
  8
0
  5
AF3
 10
344.934
 20
363.466
 30
-2.42791e-013
  70
    32
  0
VERTEX
  8
0
  5
AF4
 10
344.879
 20
363.404
 30
-2.42791e-013
  70
    32
  0
VERTEX
  8
0
  5
AF5
 10
344.824
 20
363.341
 30
-2.42791e-013
  70
    32
  0
VERTEX
  8
0
  5
AF6
 10
344.769
 20
363.277
 30
-2.42791e-013
  70
    32
  0
VERTEX
  8
0
  5
AF7
 10
344.716
 20
363.212
 30
-2.42790e-013
  70
    32
  0
VERTEX
  8
0
  5
AF8
 10
344.663
 20
363.146
 30
-2.42788e-013
  70
    32
  0
VERTEX
  8
0
  5
AF9
 10
344.611
 20
363.078
 30
-2.42787e-013
  70
    32
  0
VERTEX
  8
0
  5
AFA
 10
344.560
 20
363.010
 30
-2.42785e-013
  70
    32
  0
VERTEX
  8
0
  5
AFB
 10
344.509
 20
362.941
 30
-2.42782e-013
  70
    32
  0
VERTEX
  8
0
  5
AFC
 10
344.460
 20
362.871
 30
-2.42780e-013
  70
    32
  0
VERTEX
  8
0
  5
AFD
 10
344.411
 20
362.800
 30
-2.42777e-013
  70
    32
  0
VERTEX
  8
0
  5
AFE
 10
344.363
 20
362.728
 30
-2.42773e-013
  70
    32
  0
VERTEX
  8
0
  5
AFF
 10
344.317
 20
362.655
 30
-2.42769e-013
  70
    32
  0
VERTEX
  8
0
  5
B00
 10
344.271
 20
362.582
 30
-2.42765e-013
  70
    32
  0
VERTEX
  8
0
  5
B01
 10
344.226
 20
362.507
 30
-2.42761e-013
  70
    32
  0
VERTEX
  8
0
  5
B02
 10
344.182
 20
362.433
 30
-2.42756e-013
  70
    32
  0
VERTEX
  8
0
  5
B03
 10
344.140
 20
362.357
 30
-2.42751e-013
  70
    32
  0
VERTEX
  8
0
  5
B04
 10
344.098
 20
362.281
 30
-2.42745e-013
  70
    32
  0
VERTEX
  8
0
  5
B05
 10
344.058
 20
362.205
 30
-2.42740e-013
  70
    32
  0
VERTEX
  8
0
  5
B06
 10
344.018
 20
362.128
 30
-2.42734e-013
  70
    32
  0
VERTEX
  8
0
  5
B07
 10
343.980
 20
362.051
 30
-2.42727e-013
  70
    32
  0
VERTEX
  8
0
  5
B08
 10
343.943
 20
361.973
 30
-2.42720e-013
  70
    32
  0
VERTEX
  8
0
  5
B09
 10
343.908
 20
361.895
 30
-2.42713e-013
  70
    32
  0
VERTEX
  8
0
  5
B0A
 10
343.873
 20
361.817
 30
-2.42706e-013
  70
    32
  0
VERTEX
  8
0
  5
B0B
 10
343.840
 20
361.738
 30
-2.42698e-013
  70
    32
  0
VERTEX
  8
0
  5
B0C
 10
343.808
 20
361.659
 30
-2.42690e-013
  70
    32
  0
VERTEX
  8
0
  5
B0D
 10
343.777
 20
361.580
 30
-2.42682e-013
  70
    32
  0
VERTEX
  8
0
  5
B0E
 10
343.748
 20
361.501
 30
-2.42674e-013
  70
    32
  0
VERTEX
  8
0
  5
B0F
 10
343.720
 20
361.422
 30
-2.42665e-013
  70
    32
  0
VERTEX
  8
0
  5
B10
 10
343.693
 20
361.343
 30
-2.42656e-013
  70
    32
  0
VERTEX
  8
0
  5
B11
 10
343.668
 20
361.264
 30
-2.42646e-013
  70
    32
  0
VERTEX
  8
0
  5
B12
 10
343.644
 20
361.185
 30
-2.42637e-013
  70
    32
  0
VERTEX
  8
0
  5
B13
 10
343.621
 20
361.107
 30
-2.42627e-013
  70
    32
  0
VERTEX
  8
0
  5
B14
 10
343.600
 20
361.028
 30
-2.42616e-013
  70
    32
  0
VERTEX
  8
0
  5
B15
 10
343.580
 20
360.950
 30
-2.42606e-013
  70
    32
  0
VERTEX
  8
0
  5
B16
 10
343.562
 20
360.872
 30
-2.42595e-013
  70
    32
  0
VERTEX
  8
0
  5
B17
 10
343.545
 20
360.794
 30
-2.42584e-013
  70
    32
  0
VERTEX
  8
0
  5
B18
 10
343.530
 20
360.717
 30
-2.42573e-013
  70
    32
  0
VERTEX
  8
0
  5
B19
 10
343.516
 20
360.640
 30
-2.42562e-013
  70
    32
  0
VERTEX
  8
0
  5
B1A
 10
343.503
 20
360.563
 30
-2.42550e-013
  70
    32
  0
VERTEX
  8
0
  5
B1B
 10
343.492
 20
360.487
 30
-2.42539e-013
  70
    32
  0
VERTEX
  8
0
  5
B1C
 10
343.482
 20
360.412
 30
-2.42527e-013
  70
    32
  0
VERTEX
  8
0
  5
B1D
 10
343.474
 20
360.337
 30
-2.42514e-013
  70
    32
  0
VERTEX
  8
0
  5
B1E
 10
343.468
 20
360.263
 30
-2.42502e-013
  70
    32
  0
VERTEX
  8
0
  5
B1F
 10
343.463
 20
360.190
 30
-2.42489e-013
  70
    32
  0
VERTEX
  8
0
  5
B20
 10
343.459
 20
360.117
 30
-2.42477e-013
  70
    32
  0
VERTEX
  8
0
  5
B21
 10
343.457
 20
360.045
 30
-2.42464e-013
  70
    32
  0
VERTEX
  8
0
  5
B22
 10
343.456
 20
359.974
 30
-2.42451e-013
  70
    32
  0
VERTEX
  8
0
  5
B23
 10
343.457
 20
359.904
 30
-2.42437e-013
  70
    32
  0
VERTEX
  8
0
  5
B24
 10
343.460
 20
359.835
 30
-2.42424e-013
  70
    32
  0
VERTEX
  8
0
  5
B25
 10
343.464
 20
359.766
 30
-2.42411e-013
  70
    32
  0
VERTEX
  8
0
  5
B26
 10
343.469
 20
359.699
 30
-2.42397e-013
  70
    32
  0
VERTEX
  8
0
  5
B27
 10
343.476
 20
359.633
 30
-2.42383e-013
  70
    32
  0
VERTEX
  8
0
  5
B28
 10
343.484
 20
359.568
 30
-2.42369e-013
  70
    32
  0
VERTEX
  8
0
  5
B29
 10
343.494
 20
359.504
 30
-2.42355e-013
  70
    32
  0
VERTEX
  8
0
  5
B2A
 10
343.506
 20
359.441
 30
-2.42341e-013
  70
    32
  0
VERTEX
  8
0
  5
B2B
 10
343.519
 20
359.379
 30
-2.42327e-013
  70
    32
  0
VERTEX
  8
0
  5
B2C
 10
343.533
 20
359.318
 30
-2.42313e-013
  70
    32
  0
VERTEX
  8
0
  5
B2D
 10
343.549
 20
359.259
 30
-2.42299e-013
  70
    32
  0
VERTEX
  8
0
  5
B2E
 10
343.566
 20
359.201
 30
-2.42284e-013
  70
    32
  0
VERTEX
  8
0
  5
B2F
 10
343.584
 20
359.145
 30
-2.42270e-013
  70
    32
  0
VERTEX
  8
0
  5
B30
 10
343.605
 20
359.090
 30
-2.42256e-013
  70
    32
  0
VERTEX
  8
0
  5
B31
 10
343.626
 20
359.036
 30
-2.42241e-013
  70
    32
  0
VERTEX
  8
0
  5
B32
 10
343.649
 20
358.983
 30
-2.42227e-013
  70
    32
  0
VERTEX
  8
0
  5
B33
 10
343.673
 20
358.933
 30
-2.42212e-013
  70
    32
  0
VERTEX
  8
0
  5
B34
 10
343.699
 20
358.883
 30
-2.42198e-013
  70
    32
  0
VERTEX
  8
0
  5
B35
 10
343.726
 20
358.835
 30
-2.42183e-013
  70
    32
  0
VERTEX
  8
0
  5
B36
 10
343.754
 20
358.789
 30
-2.42169e-013
  70
    32
  0
VERTEX
  8
0
  5
B37
 10
343.784
 20
358.744
 30
-2.42154e-013
  70
    32
  0
VERTEX
  8
0
  5
B38
 10
343.815
 20
358.701
 30
-2.42140e-013
  70
    32
  0
VERTEX
  8
0
  5
B39
 10
343.847
 20
358.660
 30
-2.42125e-013
  70
    32
  0
VERTEX
  8
0
  5
B3A
 10
343.881
 20
358.620
 30
-2.42111e-013
  70
    32
  0
VERTEX
  8
0
  5
B3B
 10
343.915
 20
358.582
 30
-2.42097e-013
  70
    32
  0
VERTEX
  8
0
  5
B3C
 10
343.951
 20
358.545
 30
-2.42082e-013
  70
    32
  0
VERTEX
  8
0
  5
B3D
 10
343.989
 20
358.511
 30
-2.42068e-013
  70
    32
  0
VERTEX
  8
0
  5
B3E
 10
344.027
 20
358.478
 30
-2.42054e-013
  70
    32
  0
VERTEX
  8
0
  5
B3F
 10
344.067
 20
358.447
 30
-2.42040e-013
  70
    32
  0
VERTEX
  8
0
  5
B40
 10
344.107
 20
358.417
 30
-2.42026e-013
  70
    32
  0
VERTEX
  8
0
  5
B41
 10
344.149
 20
358.390
 30
-2.42012e-013
  70
    32
  0
VERTEX
  8
0
  5
B42
 10
344.192
 20
358.364
 30
-2.41998e-013
  70
    32
  0
VERTEX
  8
0
  5
B43
 10
344.236
 20
358.340
 30
-2.41985e-013
  70
    32
  0
VERTEX
  8
0
  5
B44
 10
344.281
 20
358.318
 30
-2.41971e-013
  70
    32
  0
VERTEX
  8
0
  5
B45
 10
344.327
 20
358.298
 30
-2.41958e-013
  70
    32
  0
VERTEX
  8
0
  5
B46
 10
344.374
 20
358.280
 30
-2.41945e-013
  70
    32
  0
VERTEX
  8
0
  5
B47
 10
344.422
 20
358.263
 30
-2.41932e-013
  70
    32
  0
VERTEX
  8
0
  5
B48
 10
344.471
 20
358.249
 30
-2.41919e-013
  70
    32
  0
VERTEX
  8
0
  5
B49
 10
344.520
 20
358.236
 30
-2.41906e-013
  70
    32
  0
VERTEX
  8
0
  5
B4A
 10
344.571
 20
358.226
 30
-2.41894e-013
  70
    32
  0
VERTEX
  8
0
  5
B4B
 10
344.622
 20
358.217
 30
-2.41882e-013
  70
    32
  0
VERTEX
  8
0
  5
B4C
 10
344.675
 20
358.210
 30
-2.41869e-013
  70
    32
  0
VERTEX
  8
0
  5
B4D
 10
344.728
 20
358.205
 30
-2.41857e-013
  70
    32
  0
VERTEX
  8
0
  5
B4E
 10
344.781
 20
358.202
 30
-2.41846e-013
  70
    32
  0
VERTEX
  8
0
  5
B4F
 10
344.836
 20
358.201
 30
-2.41834e-013
  70
    32
  0
VERTEX
  8
0
  5
B50
 10
344.891
 20
358.202
 30
-2.41823e-013
  70
    32
  0
VERTEX
  8
0
  5
B51
 10
344.947
 20
358.205
 30
-2.41812e-013
  70
    32
  0
VERTEX
  8
0
  5
B52
 10
345.003
 20
358.210
 30
-2.41801e-013
  70
    32
  0
VERTEX
  8
0
  5
B53
 10
345.060
 20
358.217
 30
-2.41790e-013
  70
    32
  0
VERTEX
  8
0
  5
B54
 10
345.117
 20
358.226
 30
-2.41780e-013
  70
    32
  0
VERTEX
  8
0
  5
B55
 10
345.175
 20
358.236
 30
-2.41770e-013
  70
    32
  0
VERTEX
  8
0
  5
B56
 10
345.234
 20
358.249
 30
-2.41760e-013
  70
    32
  0
VERTEX
  8
0
  5
B57
 10
345.293
 20
358.263
 30
-2.41751e-013
  70
    32
  0
VERTEX
  8
0
  5
B58
 10
345.352
 20
358.280
 30
-2.41741e-013
  70
    32
  0
VERTEX
  8
0
  5
B59
 10
345.411
 20
358.298
 30
-2.41732e-013
  70
    32
  0
VERTEX
  8
0
  5
B5A
 10
345.471
 20
358.318
 30
-2.41724e-013
  70
    32
  0
VERTEX
  8
0
  5
B5B
 10
345.532
 20
358.340
 30
-2.41715e-013
  70
    32
  0
VERTEX
  8
0
  5
B5C
 10
345.592
 20
358.364
 30
-2.41707e-013
  70
    32
  0
VERTEX
  8
0
  5
B5D
 10
345.653
 20
358.390
 30
-2.41699e-013
  70
    32
  0
VERTEX
  8
0
  5
B5E
 10
345.714
 20
358.417
 30
-2.41691e-013
  70
    32
  0
VERTEX
  8
0
  5
B5F
 10
345.775
 20
358.447
 30
-2.41684e-013
  70
    32
  0
VERTEX
  8
0
  5
B60
 10
345.836
 20
358.478
 30
-2.41677e-013
  70
    32
  0
VERTEX
  8
0
  5
B61
 10
345.897
 20
358.511
 30
-2.41671e-013
  70
    32
  0
VERTEX
  8
0
  5
B62
 10
345.958
 20
358.545
 30
-2.41664e-013
  70
    32
  0
VERTEX
  8
0
  5
B63
 10
346.019
 20
358.582
 30
-2.41658e-013
  70
    32
  0
VERTEX
  8
0
  5
B64
 10
346.081
 20
358.620
 30
-2.41653e-013
  70
    32
  0
VERTEX
  8
0
  5
B65
 10
346.142
 20
358.660
 30
-2.41647e-013
  70
    32
  0
VERTEX
  8
0
  5
B66
 10
346.203
 20
358.701
 30
-2.41642e-013
  70
    32
  0
VERTEX
  8
0
  5
B67
 10
346.264
 20
358.744
 30
-2.41638e-013
  70
    32
  0
VERTEX
  8
0
  5
B68
 10
346.324
 20
358.789
 30
-2.41633e-013
  70
    32
  0
VERTEX
  8
0
  5
B69
 10
346.385
 20
358.835
 30
-2.41629e-013
  70
    32
  0
SEQEND
  8
0
  5
B6A
  0
LINE
  5
748
  8
0
  6
CONTINUOUS
 10
410.10141456007199
 20
414.4461944123945
 30
0.0000000000002842
 11
345.51814884131431
 21
364.00956181826427
 31
-0.0000000000002422
210
-0.0000000000000001
220
0.816496580927726
230
0.5773502691896258
  0
LINE
  5
749
  8
0
  6
CONTINUOUS
 10
268.62097838500659
 20
496.4486354682133
 30
0.0000000000000568
 11
385.22787689356841
 21
429.12561122492781
 31
0.0000000000001137
210
-0.0000000000000001
220
0.816496580927726
230
0.5773502691896258
  0
LINE
  5
74A
  8
0
  6
CONTINUOUS
 10
204.03771266624929
 20
446.01200287408278
 30
-0.0000000000002422
 11
337.39942160454922
 21
369.01558431896677
 31
-0.0000000000002422
210
-0.0000000000000001
220
0.816496580927726
230
0.5773502691896258
  0
LINE
  5
74B
  8
0
  6
CONTINUOUS
 10
212.77781556864591
 20
452.83763106146341
 30
0.0000000000001137
 11
268.62097838500659
 21
496.4486354682133
 31
0.0000000000000568
210
-0.0000000000000001
220
0.816496580927726
230
0.5773502691896258
  0
LINE
  5
74C
  8
0
  6
CONTINUOUS
 10
379.84653464663899
 20
424.46089113809097
 30
0.0000000000001137
 11
379.84653464663899
 21
289.47021928793822
 31
0.0000000000001421
210
-0.0000000000000001
220
0.816496580927726
230
0.5773502691896258
  0
LINE
  5
74D
  8
0
  6
CONTINUOUS
 10
346.47975230863949
 20
398.42948930900548
 30
0.0000000000001705
 11
346.47975230863972
 21
270.20589852310269
 31
0.0000000000001421
210
-0.0000000000000001
220
0.816496580927726
230
0.5773502691896258
  0
LINE
  5
74E
  8
0
  6
CONTINUOUS
 10
379.5063068449453
 20
424.65732175098458
 30
0.0000000000001137
 11
379.84653464663899
 21
424.46089113809097
 31
0.0000000000001137
210
-0.0000000000000001
220
0.816496580927726
230
0.5773502691896258
  0
LINE
  5
74F
  8
0
  6
CONTINUOUS
 10
345.79929670525212
 20
397.89862561770917
 30
0.0000000000001717
 11
379.84653464663899
 21
424.46089113809097
 31
0.0000000000001137
210
-0.0000000000000001
220
0.816496580927726
230
0.5773502691896258
  0
LINE
  5
750
  8
0
  6
CONTINUOUS
 10
346.13952450694597
 20
398.62591992189908
 30
0.0000000000002274
 11
346.47975230863972
 21
398.42948930900548
 31
0.0000000000001137
210
-0.0000000000000001
220
0.816496580927726
230
0.5773502691896258
  0
LINE
  5
751
  8
0
  6
CONTINUOUS
 10
237.06426720255479
 20
506.896271682438
 30
0.0000000000001137
 11
237.4044950042485
 21
506.69984106954428
 31
0.0000000000000568
210
-0.0000000000000001
220
0.816496580927726
230
0.5773502691896258
  0
LINE
  5
752
  8
0
  6
CONTINUOUS
 10
237.06426720255479
 20
506.896271682438
 30
0.0000000000001137
 11
203.69748486455561
 21
480.86486985335267
 31
0.0000000000000568
210
-0.0000000000000001
220
0.816496580927726
230
0.5773502691896258
  0
LINE
  5
753
  8
0
  6
CONTINUOUS
 10
379.5063068449453
 20
424.65732175098458
 30
0.0000000000001137
 11
346.1395245069462
 21
398.6259199218992
 31
0.0000000000000568
210
-0.0000000000000001
220
0.816496580927726
230
0.5773502691896258
  0
LINE
  5
754
  8
0
  6
CONTINUOUS
 10
346.13952450694592
 20
270.40232913599618
 30
0.0000000000001421
 11
346.13952450694592
 21
398.62591992189908
 31
0.0000000000001705
210
-0.0000000000000001
220
0.816496580927726
230
0.5773502691896258
  0
LINE
  5
755
  8
0
  6
CONTINUOUS
 10
204.03771266624909
 20
480.66843924045889
 30
0.0000000000001137
 11
237.4044950042485
 21
506.69984106954428
 31
0.0000000000000568
210
-0.0000000000000001
220
0.816496580927726
230
0.5773502691896258
  0
LINE
  5
756
  8
0
  6
CONTINUOUS
 10
237.4044950042485
 20
506.69984106954428
 30
0.0000000000000568
 11
237.4044950042485
 21
505.77557455040909
 31
0.0000000000000568
210
-0.0000000000000001
220
0.816496580927726
230
0.5773502691896258
  0
LINE
  5
757
  8
0
  6
CONTINUOUS
 10
237.06426720255479
 20
431.53031818364889
 30
0.0000000000002274
 11
237.0642672025551
 21
371.51273860649798
 31
0.0000000000001137
210
-0.0000000000000001
220
0.816496580927726
230
0.5773502691896258
  0
LINE
  5
758
  8
0
  6
CONTINUOUS
 10
203.69748486455569
 20
352.64127906744972
 30
0.0000000000001137
 11
203.69748486455561
 21
480.86486985335267
 31
0.0000000000000568
210
-0.0000000000000001
220
0.816496580927726
230
0.5773502691896258
  0
LINE
  5
759
  8
0
  6
CONTINUOUS
 10
203.69748486455561
 20
480.8648698533525
 30
0.0
 11
204.03771266624909
 21
480.66843924045889
 31
0.0000000000001137
210
-0.0000000000000001
220
0.816496580927726
230
0.5773502691896258
  0
LINE
  5
75A
  8
0
  6
CONTINUOUS
 10
204.03771266624909
 20
480.66843924045889
 30
0.0000000000001137
 11
204.0377126662494
 21
352.44484845455611
 31
0.0
210
-0.0000000000000001
220
0.816496580927726
230
0.5773502691896258
  0
LINE
  5
75B
  8
0
  6
CONTINUOUS
 10
346.47975230863972
 20
270.20589852310269
 30
0.0000000000001421
 11
346.13952450694592
 21
270.40232913599618
 31
0.0000000000001421
210
-0.0000000000000001
220
0.816496580927726
230
0.5773502691896258
  0
LINE
  5
75C
  8
0
  6
CONTINUOUS
 10
379.84653464663899
 20
289.47021928793822
 30
0.0000000000001421
 11
346.47975230863972
 21
270.20589852310269
 31
0.0000000000001421
210
-0.0000000000000001
220
0.816496580927726
230
0.5773502691896258
  0
LINE
  5
75D
  8
0
  6
CONTINUOUS
 10
204.0377126662494
 20
352.44484845455611
 30
0.0
 11
203.69748486455569
 21
352.64127906744972
 31
0.0000000000000568
210
-0.0000000000000001
220
0.816496580927726
230
0.5773502691896258
  0
LINE
  5
75E
  8
0
  6
CONTINUOUS
 10
237.0642672025551
 20
371.51273860649798
 30
0.0000000000001137
 11
204.0377126662494
 21
352.44484845455611
 31
0.0
210
-0.0000000000000001
220
0.816496580927726
230
0.5773502691896258
  0
LINE
  5
75F
  8
0
  6
CONTINUOUS
 10
346.1395245069458
 20
308.5381094398802
 30
0.0000000000001705
 11
237.0642672025551
 21
371.51273860649798
 31
0.0000000000001137
210
-0.0000000000000001
220
0.816496580927726
230
0.5773502691896258
  0
LINE
  5
760
  8
0
  6
CONTINUOUS
 10
328.93329150973648
 20
539.52124147915083
 30
0.0000000000001137
 11
470.69487554873962
 21
457.67515277348463
 31
0.0000000000001705
210
-0.0000000000000001
220
0.816496580927726
230
0.5773502691896258
  0
LINE
  5
761
  8
0
  6
CONTINUOUS
 10
202.18500613147191
 20
439.79614000134961
 30
-0.0000000000002422
 11
337.39942160454922
 21
361.73006082965048
 31
-0.0000000000001853
210
-0.0000000000000001
220
0.816496580927726
230
0.5773502691896258
  0
LINE
  5
762
  8
0
  6
EURO_COMMON_ROOF-MANSARD$0
 10
386.34801299693657
 20
589.19175640848152
 30
0.0000000000001137
 11
381.3656049128731
 21
618.94311962537438
 31
0.0000000000001137
210
-0.0000000000000001
220
0.816496580927726
230
0.5773502691896258
  0
LINE
  5
763
  8
0
  6
EURO_COMMON_ROOF-MANSARD$0
 10
522.78696115018045
 20
537.29346153260008
 30
0.0000000000001705
 11
527.71028929649026
 21
507.89488127875501
 31
0.0000000000001137
210
-0.0000000000000001
220
0.816496580927726
230
0.5773502691896258
  0
POLYLINE
  5
764
  8
0
  6
EURO_COMMON_ROOF-MANSARD$0
 10
328.93329150973642
 20
539.52124147915094
 30
0.000000000000057
 66
     1
 70
     8
  0
VERTEX
  8
0
  5
B6B
 10
328.933
 20
539.521
 30
5.70000e-014
  70
    32
  0
VERTEX
  8
0
  5
B6C
 10
328.948
 20
539.513
 30
5.70024e-014
  70
    32
  0
VERTEX
  8
0
  5
B6D
 10
328.964
 20
539.504
 30
5.70047e-014
  70
    32
  0
VERTEX
  8
0
  5
B6E
 10
328.979
 20
539.496
 30
5.70071e-014
  70
    32
  0
VERTEX
  8
0
  5
B6F
 10
328.994
 20
539.488
 30
5.70094e-014
  70
    32
  0
VERTEX
  8
0
  5
B70
 10
329.010
 20
539.480
 30
5.70117e-014
  70
    32
  0
VERTEX
  8
0
  5
B71
 10
329.026
 20
539.473
 30
5.70140e-014
  70
    32
  0
VERTEX
  8
0
  5
B72
 10
329.041
 20
539.465
 30
5.70163e-014
  70
    32
  0
VERTEX
  8
0
  5
B73
 10
329.057
 20
539.458
 30
5.70186e-014
  70
    32
  0
VERTEX
  8
0
  5
B74
 10
329.073
 20
539.451
 30
5.70209e-014
  70
    32
  0
VERTEX
  8
0
  5
B75
 10
329.089
 20
539.444
 30
5.70231e-014
  70
    32
  0
VERTEX
  8
0
  5
B76
 10
329.105
 20
539.438
 30
5.70254e-014
  70
    32
  0
VERTEX
  8
0
  5
B77
 10
329.122
 20
539.431
 30
5.70276e-014
  70
    32
  0
VERTEX
  8
0
  5
B78
 10
329.138
 20
539.425
 30
5.70298e-014
  70
    32
  0
VERTEX
  8
0
  5
B79
 10
329.154
 20
539.419
 30
5.70320e-014
  70
    32
  0
VERTEX
  8
0
  5
B7A
 10
329.171
 20
539.413
 30
5.70342e-014
  70
    32
  0
VERTEX
  8
0
  5
B7B
 10
329.188
 20
539.408
 30
5.70364e-014
  70
    32
  0
VERTEX
  8
0
  5
B7C
 10
329.204
 20
539.402
 30
5.70386e-014
  70
    32
  0
VERTEX
  8
0
  5
B7D
 10
329.221
 20
539.397
 30
5.70407e-014
  70
    32
  0
VERTEX
  8
0
  5
B7E
 10
329.238
 20
539.392
 30
5.70429e-014
  70
    32
  0
VERTEX
  8
0
  5
B7F
 10
329.255
 20
539.387
 30
5.70450e-014
  70
    32
  0
VERTEX
  8
0
  5
B80
 10
329.273
 20
539.383
 30
5.70471e-014
  70
    32
  0
VERTEX
  8
0
  5
B81
 10
329.290
 20
539.378
 30
5.70492e-014
  70
    32
  0
VERTEX
  8
0
  5
B82
 10
329.307
 20
539.374
 30
5.70513e-014
  70
    32
  0
VERTEX
  8
0
  5
B83
 10
329.325
 20
539.370
 30
5.70534e-014
  70
    32
  0
VERTEX
  8
0
  5
B84
 10
329.342
 20
539.366
 30
5.70554e-014
  70
    32
  0
VERTEX
  8
0
  5
B85
 10
329.360
 20
539.363
 30
5.70575e-014
  70
    32
  0
VERTEX
  8
0
  5
B86
 10
329.377
 20
539.359
 30
5.70595e-014
  70
    32
  0
VERTEX
  8
0
  5
B87
 10
329.395
 20
539.356
 30
5.70615e-014
  70
    32
  0
VERTEX
  8
0
  5
B88
 10
329.413
 20
539.353
 30
5.70635e-014
  70
    32
  0
VERTEX
  8
0
  5
B89
 10
329.431
 20
539.351
 30
5.70655e-014
  70
    32
  0
VERTEX
  8
0
  5
B8A
 10
329.449
 20
539.348
 30
5.70675e-014
  70
    32
  0
VERTEX
  8
0
  5
B8B
 10
329.467
 20
539.346
 30
5.70694e-014
  70
    32
  0
VERTEX
  8
0
  5
B8C
 10
329.485
 20
539.343
 30
5.70714e-014
  70
    32
  0
VERTEX
  8
0
  5
B8D
 10
329.504
 20
539.342
 30
5.70733e-014
  70
    32
  0
VERTEX
  8
0
  5
B8E
 10
329.522
 20
539.340
 30
5.70752e-014
  70
    32
  0
VERTEX
  8
0
  5
B8F
 10
329.541
 20
539.338
 30
5.70771e-014
  70
    32
  0
VERTEX
  8
0
  5
B90
 10
329.559
 20
539.337
 30
5.70790e-014
  70
    32
  0
VERTEX
  8
0
  5
B91
 10
329.578
 20
539.336
 30
5.70808e-014
  70
    32
  0
VERTEX
  8
0
  5
B92
 10
329.596
 20
539.335
 30
5.70827e-014
  70
    32
  0
VERTEX
  8
0
  5
B93
 10
329.615
 20
539.334
 30
5.70845e-014
  70
    32
  0
VERTEX
  8
0
  5
B94
 10
329.634
 20
539.334
 30
5.70863e-014
  70
    32
  0
VERTEX
  8
0
  5
B95
 10
329.653
 20
539.333
 30
5.70881e-014
  70
    32
  0
VERTEX
  8
0
  5
B96
 10
329.672
 20
539.333
 30
5.70899e-014
  70
    32
  0
VERTEX
  8
0
  5
B97
 10
329.691
 20
539.334
 30
5.70917e-014
  70
    32
  0
VERTEX
  8
0
  5
B98
 10
329.710
 20
539.334
 30
5.70934e-014
  70
    32
  0
VERTEX
  8
0
  5
B99
 10
329.729
 20
539.334
 30
5.70952e-014
  70
    32
  0
VERTEX
  8
0
  5
B9A
 10
329.749
 20
539.335
 30
5.70969e-014
  70
    32
  0
VERTEX
  8
0
  5
B9B
 10
329.768
 20
539.336
 30
5.70986e-014
  70
    32
  0
VERTEX
  8
0
  5
B9C
 10
329.787
 20
539.337
 30
5.71003e-014
  70
    32
  0
VERTEX
  8
0
  5
B9D
 10
329.807
 20
539.339
 30
5.71019e-014
  70
    32
  0
VERTEX
  8
0
  5
B9E
 10
329.826
 20
539.340
 30
5.71036e-014
  70
    32
  0
VERTEX
  8
0
  5
B9F
 10
329.846
 20
539.342
 30
5.71052e-014
  70
    32
  0
VERTEX
  8
0
  5
BA0
 10
329.866
 20
539.344
 30
5.71068e-014
  70
    32
  0
VERTEX
  8
0
  5
BA1
 10
329.885
 20
539.346
 30
5.71084e-014
  70
    32
  0
VERTEX
  8
0
  5
BA2
 10
329.905
 20
539.348
 30
5.71100e-014
  70
    32
  0
VERTEX
  8
0
  5
BA3
 10
329.925
 20
539.351
 30
5.71116e-014
  70
    32
  0
VERTEX
  8
0
  5
BA4
 10
329.945
 20
539.354
 30
5.71131e-014
  70
    32
  0
VERTEX
  8
0
  5
BA5
 10
329.965
 20
539.357
 30
5.71146e-014
  70
    32
  0
VERTEX
  8
0
  5
BA6
 10
329.985
 20
539.360
 30
5.71161e-014
  70
    32
  0
VERTEX
  8
0
  5
BA7
 10
330.005
 20
539.363
 30
5.71176e-014
  70
    32
  0
VERTEX
  8
0
  5
BA8
 10
330.025
 20
539.367
 30
5.71191e-014
  70
    32
  0
VERTEX
  8
0
  5
BA9
 10
330.045
 20
539.371
 30
5.71206e-014
  70
    32
  0
VERTEX
  8
0
  5
BAA
 10
330.065
 20
539.375
 30
5.71220e-014
  70
    32
  0
VERTEX
  8
0
  5
BAB
 10
330.086
 20
539.379
 30
5.71234e-014
  70
    32
  0
VERTEX
  8
0
  5
BAC
 10
330.106
 20
539.384
 30
5.71248e-014
  70
    32
  0
VERTEX
  8
0
  5
BAD
 10
330.126
 20
539.388
 30
5.71262e-014
  70
    32
  0
VERTEX
  8
0
  5
BAE
 10
330.147
 20
539.393
 30
5.71276e-014
  70
    32
  0
VERTEX
  8
0
  5
BAF
 10
330.167
 20
539.398
 30
5.71289e-014
  70
    32
  0
VERTEX
  8
0
  5
BB0
 10
330.188
 20
539.403
 30
5.71302e-014
  70
    32
  0
VERTEX
  8
0
  5
BB1
 10
330.208
 20
539.409
 30
5.71316e-014
  70
    32
  0
VERTEX
  8
0
  5
BB2
 10
330.229
 20
539.414
 30
5.71328e-014
  70
    32
  0
VERTEX
  8
0
  5
BB3
 10
330.249
 20
539.420
 30
5.71341e-014
  70
    32
  0
VERTEX
  8
0
  5
BB4
 10
330.270
 20
539.426
 30
5.71354e-014
  70
    32
  0
VERTEX
  8
0
  5
BB5
 10
330.291
 20
539.432
 30
5.71366e-014
  70
    32
  0
VERTEX
  8
0
  5
BB6
 10
330.311
 20
539.439
 30
5.71378e-014
  70
    32
  0
VERTEX
  8
0
  5
BB7
 10
330.332
 20
539.446
 30
5.71390e-014
  70
    32
  0
VERTEX
  8
0
  5
BB8
 10
330.353
 20
539.452
 30
5.71402e-014
  70
    32
  0
VERTEX
  8
0
  5
BB9
 10
330.374
 20
539.459
 30
5.71414e-014
  70
    32
  0
VERTEX
  8
0
  5
BBA
 10
330.394
 20
539.467
 30
5.71425e-014
  70
    32
  0
VERTEX
  8
0
  5
BBB
 10
330.415
 20
539.474
 30
5.71436e-014
  70
    32
  0
VERTEX
  8
0
  5
BBC
 10
330.436
 20
539.482
 30
5.71447e-014
  70
    32
  0
VERTEX
  8
0
  5
BBD
 10
330.457
 20
539.490
 30
5.71458e-014
  70
    32
  0
VERTEX
  8
0
  5
BBE
 10
330.478
 20
539.498
 30
5.71469e-014
  70
    32
  0
VERTEX
  8
0
  5
BBF
 10
330.499
 20
539.506
 30
5.71479e-014
  70
    32
  0
VERTEX
  8
0
  5
BC0
 10
330.520
 20
539.514
 30
5.71489e-014
  70
    32
  0
VERTEX
  8
0
  5
BC1
 10
330.541
 20
539.523
 30
5.71499e-014
  70
    32
  0
VERTEX
  8
0
  5
BC2
 10
330.562
 20
539.532
 30
5.71509e-014
  70
    32
  0
VERTEX
  8
0
  5
BC3
 10
330.583
 20
539.541
 30
5.71519e-014
  70
    32
  0
VERTEX
  8
0
  5
BC4
 10
330.604
 20
539.550
 30
5.71528e-014
  70
    32
  0
VERTEX
  8
0
  5
BC5
 10
330.626
 20
539.559
 30
5.71537e-014
  70
    32
  0
VERTEX
  8
0
  5
BC6
 10
330.647
 20
539.569
 30
5.71547e-014
  70
    32
  0
VERTEX
  8
0
  5
BC7
 10
330.668
 20
539.579
 30
5.71555e-014
  70
    32
  0
VERTEX
  8
0
  5
BC8
 10
330.689
 20
539.589
 30
5.71564e-014
  70
    32
  0
VERTEX
  8
0
  5
BC9
 10
330.710
 20
539.599
 30
5.71572e-014
  70
    32
  0
VERTEX
  8
0
  5
BCA
 10
330.731
 20
539.609
 30
5.71581e-014
  70
    32
  0
VERTEX
  8
0
  5
BCB
 10
330.753
 20
539.620
 30
5.71589e-014
  70
    32
  0
VERTEX
  8
0
  5
BCC
 10
330.774
 20
539.631
 30
5.71597e-014
  70
    32
  0
VERTEX
  8
0
  5
BCD
 10
330.795
 20
539.641
 30
5.71604e-014
  70
    32
  0
VERTEX
  8
0
  5
BCE
 10
330.816
 20
539.653
 30
5.71612e-014
  70
    32
  0
VERTEX
  8
0
  5
BCF
 10
330.838
 20
539.664
 30
5.71619e-014
  70
    32
  0
VERTEX
  8
0
  5
BD0
 10
330.859
 20
539.675
 30
5.71626e-014
  70
    32
  0
VERTEX
  8
0
  5
BD1
 10
330.880
 20
539.687
 30
5.71633e-014
  70
    32
  0
VERTEX
  8
0
  5
BD2
 10
330.901
 20
539.699
 30
5.71639e-014
  70
    32
  0
VERTEX
  8
0
  5
BD3
 10
330.923
 20
539.711
 30
5.71646e-014
  70
    32
  0
VERTEX
  8
0
  5
BD4
 10
330.944
 20
539.723
 30
5.71652e-014
  70
    32
  0
VERTEX
  8
0
  5
BD5
 10
330.965
 20
539.736
 30
5.71658e-014
  70
    32
  0
VERTEX
  8
0
  5
BD6
 10
330.986
 20
539.748
 30
5.71664e-014
  70
    32
  0
VERTEX
  8
0
  5
BD7
 10
331.008
 20
539.761
 30
5.71669e-014
  70
    32
  0
VERTEX
  8
0
  5
BD8
 10
331.029
 20
539.774
 30
5.71675e-014
  70
    32
  0
VERTEX
  8
0
  5
BD9
 10
331.050
 20
539.787
 30
5.71680e-014
  70
    32
  0
VERTEX
  8
0
  5
BDA
 10
331.071
 20
539.800
 30
5.71685e-014
  70
    32
  0
VERTEX
  8
0
  5
BDB
 10
331.093
 20
539.814
 30
5.71690e-014
  70
    32
  0
VERTEX
  8
0
  5
BDC
 10
331.114
 20
539.828
 30
5.71694e-014
  70
    32
  0
VERTEX
  8
0
  5
BDD
 10
331.135
 20
539.841
 30
5.71699e-014
  70
    32
  0
VERTEX
  8
0
  5
BDE
 10
331.156
 20
539.856
 30
5.71703e-014
  70
    32
  0
VERTEX
  8
0
  5
BDF
 10
331.178
 20
539.870
 30
5.71707e-014
  70
    32
  0
VERTEX
  8
0
  5
BE0
 10
331.199
 20
539.884
 30
5.71710e-014
  70
    32
  0
VERTEX
  8
0
  5
BE1
 10
331.220
 20
539.899
 30
5.71714e-014
  70
    32
  0
VERTEX
  8
0
  5
BE2
 10
331.241
 20
539.913
 30
5.71717e-014
  70
    32
  0
VERTEX
  8
0
  5
BE3
 10
331.262
 20
539.928
 30
5.71720e-014
  70
    32
  0
VERTEX
  8
0
  5
BE4
 10
331.283
 20
539.943
 30
5.71723e-014
  70
    32
  0
VERTEX
  8
0
  5
BE5
 10
331.304
 20
539.959
 30
5.71726e-014
  70
    32
  0
VERTEX
  8
0
  5
BE6
 10
331.325
 20
539.974
 30
5.71728e-014
  70
    32
  0
VERTEX
  8
0
  5
BE7
 10
331.346
 20
539.990
 30
5.71731e-014
  70
    32
  0
VERTEX
  8
0
  5
BE8
 10
331.367
 20
540.006
 30
5.71733e-014
  70
    32
  0
VERTEX
  8
0
  5
BE9
 10
331.389
 20
540.021
 30
5.71734e-014
  70
    32
  0
VERTEX
  8
0
  5
BEA
 10
331.409
 20
540.038
 30
5.71736e-014
  70
    32
  0
VERTEX
  8
0
  5
BEB
 10
331.430
 20
540.054
 30
5.71738e-014
  70
    32
  0
SEQEND
  8
0
  5
BEC
  0
LINE
  5
765
  8
0
  6
EURO_COMMON_ROOF-MANSARD$0
 10
471.86712648012963
 20
464.28387687200518
 30
0.0000000000001705
 11
472.20735428182343
 21
464.08744625911157
 31
0.0000000000001705
210
-0.0000000000000001
220
0.816496580927726
230
0.5773502691896258
  0
LINE
  5
766
  8
0
  6
EURO_COMMON_ROOF-MANSARD$0
 10
331.43043587208228
 20
540.05381891400884
 30
0.0000000000001137
 11
342.5990684353543
 21
548.77601979535871
 31
0.0000000000001137
210
-0.0000000000000001
220
0.816496580927726
230
0.5773502691896258
  0
LINE
  5
767
  8
0
  6
EURO_COMMON_ROOF-MANSARD$0
 10
331.43043587208228
 20
540.05381891400884
 30
0.0000000000001137
 11
473.1920199110852
 21
458.20773020834253
 31
0.0000000000000568
210
-0.0000000000000001
220
0.816496580927726
230
0.5773502691896258
  0
LINE
  5
768
  8
0
  6
EURO_COMMON_ROOF-MANSARD$0
 10
342.5990684353543
 20
548.77601979535871
 30
0.0000000000001137
 11
342.53998849759859
 21
549.12880275840485
 31
0.0000000000001705
210
-0.0000000000000001
220
0.816496580927726
230
0.5773502691896258
  0
LINE
  5
769
  8
0
  6
EURO_COMMON_ROOF-MANSARD$0
 10
342.5990684353543
 20
548.77601979535871
 30
0.0000000000001137
 11
484.36065247435749
 21
466.9299310896925
 31
0.0000000000000568
210
-0.0000000000000001
220
0.816496580927726
230
0.5773502691896258
  0
LINE
  5
76A
  8
0
  6
EURO_COMMON_ROOF-MANSARD$0
 10
342.53998849759859
 20
549.12880275840485
 30
0.0000000000001705
 11
331.37135593432652
 21
540.40660187705475
 31
0.0
210
-0.0000000000000001
220
0.816496580927726
230
0.5773502691896258
  0
LINE
  5
76B
  8
0
  6
EURO_COMMON_ROOF-MANSARD$0
 10
342.53998849759859
 20
549.12880275840485
 30
0.0000000000001705
 11
479.99410806944019
 21
469.7696298223791
 31
0.0000000000001705
210
-0.0000000000000001
220
0.816496580927726
230
0.5773502691896258
  0
POLYLINE
  5
76C
  8
0
  6
EURO_COMMON_ROOF-MANSARD$0
 10
330.50485018057566
 20
545.58075200173153
 30
0.0000000000000566
 66
     1
 70
     8
  0
VERTEX
  8
0
  5
BED
 10
330.505
 20
545.581
 30
5.65720e-014
  70
    32
  0
VERTEX
  8
0
  5
BEE
 10
330.445
 20
545.533
 30
5.65682e-014
  70
    32
  0
VERTEX
  8
0
  5
BEF
 10
330.385
 20
545.483
 30
5.65645e-014
  70
    32
  0
VERTEX
  8
0
  5
BF0
 10
330.325
 20
545.433
 30
5.65609e-014
  70
    32
  0
VERTEX
  8
0
  5
BF1
 10
330.266
 20
545.380
 30
5.65575e-014
  70
    32
  0
VERTEX
  8
0
  5
BF2
 10
330.207
 20
545.326
 30
5.65542e-014
  70
    32
  0
VERTEX
  8
0
  5
BF3
 10
330.149
 20
545.271
 30
5.65511e-014
  70
    32
  0
VERTEX
  8
0
  5
BF4
 10
330.091
 20
545.215
 30
5.65481e-014
  70
    32
  0
VERTEX
  8
0
  5
BF5
 10
330.034
 20
545.157
 30
5.65453e-014
  70
    32
  0
VERTEX
  8
0
  5
BF6
 10
329.977
 20
545.097
 30
5.65426e-014
  70
    32
  0
VERTEX
  8
0
  5
BF7
 10
329.921
 20
545.037
 30
5.65401e-014
  70
    32
  0
VERTEX
  8
0
  5
BF8
 10
329.865
 20
544.975
 30
5.65377e-014
  70
    32
  0
VERTEX
  8
0
  5
BF9
 10
329.810
 20
544.912
 30
5.65355e-014
  70
    32
  0
VERTEX
  8
0
  5
BFA
 10
329.756
 20
544.848
 30
5.65335e-014
  70
    32
  0
VERTEX
  8
0
  5
BFB
 10
329.702
 20
544.783
 30
5.65316e-014
  70
    32
  0
VERTEX
  8
0
  5
BFC
 10
329.650
 20
544.717
 30
5.65299e-014
  70
    32
  0
VERTEX
  8
0
  5
BFD
 10
329.598
 20
544.649
 30
5.65283e-014
  70
    32
  0
VERTEX
  8
0
  5
BFE
 10
329.546
 20
544.581
 30
5.65269e-014
  70
    32
  0
VERTEX
  8
0
  5
BFF
 10
329.496
 20
544.512
 30
5.65257e-014
  70
    32
  0
VERTEX
  8
0
  5
C00
 10
329.446
 20
544.442
 30
5.65246e-014
  70
    32
  0
VERTEX
  8
0
  5
C01
 10
329.398
 20
544.371
 30
5.65237e-014
  70
    32
  0
VERTEX
  8
0
  5
C02
 10
329.350
 20
544.299
 30
5.65230e-014
  70
    32
  0
VERTEX
  8
0
  5
C03
 10
329.303
 20
544.226
 30
5.65224e-014
  70
    32
  0
VERTEX
  8
0
  5
C04
 10
329.258
 20
544.153
 30
5.65220e-014
  70
    32
  0
VERTEX
  8
0
  5
C05
 10
329.213
 20
544.079
 30
5.65218e-014
  70
    32
  0
VERTEX
  8
0
  5
C06
 10
329.169
 20
544.004
 30
5.65217e-014
  70
    32
  0
VERTEX
  8
0
  5
C07
 10
329.126
 20
543.929
 30
5.65218e-014
  70
    32
  0
VERTEX
  8
0
  5
C08
 10
329.085
 20
543.853
 30
5.65221e-014
  70
    32
  0
VERTEX
  8
0
  5
C09
 10
329.044
 20
543.776
 30
5.65225e-014
  70
    32
  0
VERTEX
  8
0
  5
C0A
 10
329.005
 20
543.699
 30
5.65231e-014
  70
    32
  0
VERTEX
  8
0
  5
C0B
 10
328.967
 20
543.622
 30
5.65239e-014
  70
    32
  0
VERTEX
  8
0
  5
C0C
 10
328.930
 20
543.544
 30
5.65248e-014
  70
    32
  0
VERTEX
  8
0
  5
C0D
 10
328.894
 20
543.466
 30
5.65259e-014
  70
    32
  0
VERTEX
  8
0
  5
C0E
 10
328.860
 20
543.388
 30
5.65272e-014
  70
    32
  0
VERTEX
  8
0
  5
C0F
 10
328.827
 20
543.309
 30
5.65286e-014
  70
    32
  0
VERTEX
  8
0
  5
C10
 10
328.795
 20
543.230
 30
5.65302e-014
  70
    32
  0
VERTEX
  8
0
  5
C11
 10
328.764
 20
543.152
 30
5.65320e-014
  70
    32
  0
VERTEX
  8
0
  5
C12
 10
328.735
 20
543.073
 30
5.65339e-014
  70
    32
  0
VERTEX
  8
0
  5
C13
 10
328.706
 20
542.994
 30
5.65360e-014
  70
    32
  0
VERTEX
  8
0
  5
C14
 10
328.680
 20
542.914
 30
5.65382e-014
  70
    32
  0
VERTEX
  8
0
  5
C15
 10
328.654
 20
542.835
 30
5.65406e-014
  70
    32
  0
VERTEX
  8
0
  5
C16
 10
328.630
 20
542.757
 30
5.65432e-014
  70
    32
  0
VERTEX
  8
0
  5
C17
 10
328.608
 20
542.678
 30
5.65459e-014
  70
    32
  0
VERTEX
  8
0
  5
C18
 10
328.587
 20
542.599
 30
5.65488e-014
  70
    32
  0
VERTEX
  8
0
  5
C19
 10
328.567
 20
542.521
 30
5.65518e-014
  70
    32
  0
VERTEX
  8
0
  5
C1A
 10
328.549
 20
542.443
 30
5.65549e-014
  70
    32
  0
VERTEX
  8
0
  5
C1B
 10
328.532
 20
542.365
 30
5.65582e-014
  70
    32
  0
VERTEX
  8
0
  5
C1C
 10
328.516
 20
542.288
 30
5.65617e-014
  70
    32
  0
VERTEX
  8
0
  5
C1D
 10
328.502
 20
542.211
 30
5.65653e-014
  70
    32
  0
VERTEX
  8
0
  5
C1E
 10
328.490
 20
542.134
 30
5.65690e-014
  70
    32
  0
VERTEX
  8
0
  5
C1F
 10
328.479
 20
542.059
 30
5.65729e-014
  70
    32
  0
VERTEX
  8
0
  5
C20
 10
328.469
 20
541.983
 30
5.65769e-014
  70
    32
  0
VERTEX
  8
0
  5
C21
 10
328.461
 20
541.908
 30
5.65811e-014
  70
    32
  0
VERTEX
  8
0
  5
C22
 10
328.454
 20
541.834
 30
5.65854e-014
  70
    32
  0
VERTEX
  8
0
  5
C23
 10
328.449
 20
541.761
 30
5.65898e-014
  70
    32
  0
VERTEX
  8
0
  5
C24
 10
328.446
 20
541.688
 30
5.65943e-014
  70
    32
  0
VERTEX
  8
0
  5
C25
 10
328.444
 20
541.616
 30
5.65990e-014
  70
    32
  0
VERTEX
  8
0
  5
C26
 10
328.443
 20
541.545
 30
5.66038e-014
  70
    32
  0
VERTEX
  8
0
  5
C27
 10
328.444
 20
541.475
 30
5.66087e-014
  70
    32
  0
VERTEX
  8
0
  5
C28
 10
328.446
 20
541.406
 30
5.66137e-014
  70
    32
  0
VERTEX
  8
0
  5
C29
 10
328.450
 20
541.338
 30
5.66188e-014
  70
    32
  0
VERTEX
  8
0
  5
C2A
 10
328.456
 20
541.270
 30
5.66240e-014
  70
    32
  0
VERTEX
  8
0
  5
C2B
 10
328.463
 20
541.204
 30
5.66294e-014
  70
    32
  0
VERTEX
  8
0
  5
C2C
 10
328.471
 20
541.139
 30
5.66348e-014
  70
    32
  0
VERTEX
  8
0
  5
C2D
 10
328.481
 20
541.075
 30
5.66404e-014
  70
    32
  0
VERTEX
  8
0
  5
C2E
 10
328.492
 20
541.012
 30
5.66460e-014
  70
    32
  0
VERTEX
  8
0
  5
C2F
 10
328.505
 20
540.950
 30
5.66518e-014
  70
    32
  0
VERTEX
  8
0
  5
C30
 10
328.520
 20
540.890
 30
5.66576e-014
  70
    32
  0
VERTEX
  8
0
  5
C31
 10
328.535
 20
540.830
 30
5.66635e-014
  70
    32
  0
VERTEX
  8
0
  5
C32
 10
328.553
 20
540.773
 30
5.66695e-014
  70
    32
  0
VERTEX
  8
0
  5
C33
 10
328.571
 20
540.716
 30
5.66756e-014
  70
    32
  0
VERTEX
  8
0
  5
C34
 10
328.591
 20
540.661
 30
5.66817e-014
  70
    32
  0
VERTEX
  8
0
  5
C35
 10
328.613
 20
540.607
 30
5.66879e-014
  70
    32
  0
VERTEX
  8
0
  5
C36
 10
328.636
 20
540.555
 30
5.66942e-014
  70
    32
  0
VERTEX
  8
0
  5
C37
 10
328.660
 20
540.504
 30
5.67006e-014
  70
    32
  0
VERTEX
  8
0
  5
C38
 10
328.686
 20
540.454
 30
5.67070e-014
  70
    32
  0
VERTEX
  8
0
  5
C39
 10
328.713
 20
540.406
 30
5.67134e-014
  70
    32
  0
VERTEX
  8
0
  5
C3A
 10
328.741
 20
540.360
 30
5.67199e-014
  70
    32
  0
VERTEX
  8
0
  5
C3B
 10
328.771
 20
540.315
 30
5.67265e-014
  70
    32
  0
VERTEX
  8
0
  5
C3C
 10
328.802
 20
540.272
 30
5.67331e-014
  70
    32
  0
VERTEX
  8
0
  5
C3D
 10
328.834
 20
540.231
 30
5.67398e-014
  70
    32
  0
VERTEX
  8
0
  5
C3E
 10
328.867
 20
540.191
 30
5.67465e-014
  70
    32
  0
VERTEX
  8
0
  5
C3F
 10
328.902
 20
540.153
 30
5.67532e-014
  70
    32
  0
VERTEX
  8
0
  5
C40
 10
328.938
 20
540.117
 30
5.67599e-014
  70
    32
  0
VERTEX
  8
0
  5
C41
 10
328.975
 20
540.082
 30
5.67667e-014
  70
    32
  0
VERTEX
  8
0
  5
C42
 10
329.014
 20
540.049
 30
5.67735e-014
  70
    32
  0
VERTEX
  8
0
  5
C43
 10
329.053
 20
540.018
 30
5.67803e-014
  70
    32
  0
VERTEX
  8
0
  5
C44
 10
329.094
 20
539.988
 30
5.67871e-014
  70
    32
  0
VERTEX
  8
0
  5
C45
 10
329.136
 20
539.961
 30
5.67939e-014
  70
    32
  0
VERTEX
  8
0
  5
C46
 10
329.179
 20
539.935
 30
5.68008e-014
  70
    32
  0
VERTEX
  8
0
  5
C47
 10
329.223
 20
539.911
 30
5.68076e-014
  70
    32
  0
VERTEX
  8
0
  5
C48
 10
329.268
 20
539.889
 30
5.68144e-014
  70
    32
  0
VERTEX
  8
0
  5
C49
 10
329.314
 20
539.869
 30
5.68212e-014
  70
    32
  0
VERTEX
  8
0
  5
C4A
 10
329.361
 20
539.851
 30
5.68280e-014
  70
    32
  0
VERTEX
  8
0
  5
C4B
 10
329.408
 20
539.835
 30
5.68348e-014
  70
    32
  0
VERTEX
  8
0
  5
C4C
 10
329.457
 20
539.820
 30
5.68416e-014
  70
    32
  0
VERTEX
  8
0
  5
C4D
 10
329.507
 20
539.807
 30
5.68483e-014
  70
    32
  0
VERTEX
  8
0
  5
C4E
 10
329.558
 20
539.797
 30
5.68550e-014
  70
    32
  0
VERTEX
  8
0
  5
C4F
 10
329.609
 20
539.788
 30
5.68617e-014
  70
    32
  0
VERTEX
  8
0
  5
C50
 10
329.661
 20
539.781
 30
5.68684e-014
  70
    32
  0
VERTEX
  8
0
  5
C51
 10
329.714
 20
539.777
 30
5.68750e-014
  70
    32
  0
VERTEX
  8
0
  5
C52
 10
329.768
 20
539.774
 30
5.68815e-014
  70
    32
  0
VERTEX
  8
0
  5
C53
 10
329.822
 20
539.773
 30
5.68880e-014
  70
    32
  0
VERTEX
  8
0
  5
C54
 10
329.878
 20
539.774
 30
5.68945e-014
  70
    32
  0
VERTEX
  8
0
  5
C55
 10
329.933
 20
539.777
 30
5.69009e-014
  70
    32
  0
VERTEX
  8
0
  5
C56
 10
329.990
 20
539.781
 30
5.69072e-014
  70
    32
  0
VERTEX
  8
0
  5
C57
 10
330.047
 20
539.788
 30
5.69135e-014
  70
    32
  0
VERTEX
  8
0
  5
C58
 10
330.104
 20
539.797
 30
5.69197e-014
  70
    32
  0
VERTEX
  8
0
  5
C59
 10
330.162
 20
539.808
 30
5.69258e-014
  70
    32
  0
VERTEX
  8
0
  5
C5A
 10
330.220
 20
539.820
 30
5.69318e-014
  70
    32
  0
VERTEX
  8
0
  5
C5B
 10
330.279
 20
539.835
 30
5.69378e-014
  70
    32
  0
VERTEX
  8
0
  5
C5C
 10
330.338
 20
539.851
 30
5.69437e-014
  70
    32
  0
VERTEX
  8
0
  5
C5D
 10
330.398
 20
539.869
 30
5.69495e-014
  70
    32
  0
VERTEX
  8
0
  5
C5E
 10
330.458
 20
539.889
 30
5.69552e-014
  70
    32
  0
VERTEX
  8
0
  5
C5F
 10
330.518
 20
539.911
 30
5.69609e-014
  70
    32
  0
VERTEX
  8
0
  5
C60
 10
330.579
 20
539.935
 30
5.69664e-014
  70
    32
  0
VERTEX
  8
0
  5
C61
 10
330.639
 20
539.961
 30
5.69718e-014
  70
    32
  0
VERTEX
  8
0
  5
C62
 10
330.700
 20
539.989
 30
5.69771e-014
  70
    32
  0
VERTEX
  8
0
  5
C63
 10
330.761
 20
540.018
 30
5.69823e-014
  70
    32
  0
VERTEX
  8
0
  5
C64
 10
330.822
 20
540.049
 30
5.69874e-014
  70
    32
  0
VERTEX
  8
0
  5
C65
 10
330.884
 20
540.082
 30
5.69924e-014
  70
    32
  0
VERTEX
  8
0
  5
C66
 10
330.945
 20
540.117
 30
5.69973e-014
  70
    32
  0
VERTEX
  8
0
  5
C67
 10
331.006
 20
540.153
 30
5.70021e-014
  70
    32
  0
VERTEX
  8
0
  5
C68
 10
331.067
 20
540.191
 30
5.70067e-014
  70
    32
  0
VERTEX
  8
0
  5
C69
 10
331.128
 20
540.231
 30
5.70112e-014
  70
    32
  0
VERTEX
  8
0
  5
C6A
 10
331.189
 20
540.272
 30
5.70156e-014
  70
    32
  0
VERTEX
  8
0
  5
C6B
 10
331.250
 20
540.316
 30
5.70198e-014
  70
    32
  0
VERTEX
  8
0
  5
C6C
 10
331.311
 20
540.360
 30
5.70240e-014
  70
    32
  0
VERTEX
  8
0
  5
C6D
 10
331.371
 20
540.407
 30
5.70280e-014
  70
    32
  0
SEQEND
  8
0
  5
C6E
  0
LINE
  5
76D
  8
0
  6
EURO_COMMON_ROOF-MANSARD$0
 10
331.37135593432652
 20
540.40660187705475
 30
0.0
 11
470.24258793253438
 21
460.22925870019458
 31
0.0000000000001705
210
-0.0000000000000001
220
0.816496580927726
230
0.5773502691896258
  0
LINE
  5
76E
  8
0
  6
EURO_COMMON_ROOF-MANSARD$0
 10
386.34801299693657
 20
589.19175640848152
 30
0.0000000000001137
 11
528.1095970359396
 21
507.34566770281521
 31
0.0000000000001137
210
-0.0000000000000001
220
0.816496580927726
230
0.5773502691896258
  0
LINE
  5
76F
  8
0
  6
EURO_COMMON_ROOF-MANSARD$0
 10
330.504850180576
 20
545.58075200173164
 30
0.0000000000000568
 11
386.34801299693657
 21
589.19175640848152
 31
0.0000000000001137
210
-0.0000000000000001
220
0.816496580927726
230
0.5773502691896258
  0
LINE
  5
770
  8
0
  6
EURO_COMMON_ROOF-MANSARD$0
 10
330.504850180576
 20
545.58075200173164
 30
0.0000000000000568
 11
472.26643421957908
 21
463.73466329606549
 31
0.0000000000000568
210
-0.0000000000000001
220
0.816496580927726
230
0.5773502691896258
  0
LINE
  5
771
  8
0
  6
EURO_COMMON_ROOF-MANSARD$0
 10
503.2360593694363
 20
522.02508451534845
 30
0.0
 11
527.71028929649049
 21
507.89488127875489
 31
0.0000000000001137
210
-0.0000000000000001
220
0.816496580927726
230
0.5773502691896258
  0
LINE
  5
772
  8
0
  6
EURO_COMMON_ROOF-MANSARD$0
 10
471.86712648012963
 20
464.28387687200518
 30
0.0000000000001705
 11
527.71028929649026
 21
507.89488127875501
 31
0.0000000000001137
210
-0.0000000000000001
220
0.816496580927726
230
0.5773502691896258
  0
LINE
  5
773
  8
0
  6
EURO_COMMON_ROOF-MANSARD$0
 10
468.37184421144241
 20
466.30187903072527
 30
0.0000000000001137
 11
471.86712648012963
 21
464.28387687200501
 31
0.0000000000001137
210
-0.0000000000000001
220
0.816496580927726
230
0.5773502691896258
  0
LINE
  5
774
  8
0
  6
EURO_COMMON_ROOF-MANSARD$0
 10
354.83207855255529
 20
171.54413226382391
 30
0.0000000000001421
 11
346.6537994196741
 21
176.2658639227009
 31
0.0000000000001137
210
-0.0000000000000001
220
0.816496580927726
230
0.5773502691896258
  0
LINE
  5
775
  8
0
  6
EURO_COMMON_ROOF-MANSARD$0
 10
379.96150181991771
 20
191.16908424686139
 30
0.0000000000000284
 11
353.19052467250981
 21
206.62531510938669
 31
0.0000000000000568
210
-0.0000000000000001
220
0.816496580927726
230
0.5773502691896258
  0
LINE
  5
776
  8
0
  6
EURO_COMMON_ROOF-MANSARD$0
 10
354.891158490311
 20
171.19134930077789
 30
0.000000000000199
 11
346.65379941967399
 21
175.94719077762181
 31
0.0000000000001137
210
-0.0000000000000001
220
0.816496580927726
230
0.5773502691896258
  0
LINE
  5
777
  8
0
  6
EURO_COMMON_ROOF-MANSARD$0
 10
380.02058175767343
 20
190.81630128381539
 30
0.0000000000001421
 11
237.9187699169768
 21
272.85882060237509
 31
0.0000000000000568
210
-0.0000000000000001
220
0.816496580927726
230
0.5773502691896258
  0
LINE
  5
778
  8
0
  6
EURO_COMMON_ROOF-MANSARD$0
 10
237.5785421152832
 20
272.59311795570102
 30
0.0000000000000284
 11
237.5785421152832
 21
309.7959806017318
 31
0.0000000000000568
210
-0.0000000000000001
220
0.816496580927726
230
0.5773502691896258
  0
LINE
  5
779
  8
0
  6
EURO_COMMON_ROOF-MANSARD$0
 10
379.68035395597991
 20
190.55059863714129
 30
0.0000000000001421
 11
354.891158490311
 21
171.19134930077789
 31
0.0000000000001705
210
-0.0000000000000001
220
0.816496580927726
230
0.5773502691896258
  0
LINE
  5
77A
  8
0
  6
EURO_COMMON_ROOF-MANSARD$0
 10
354.891158490311
 20
171.19134930077789
 30
0.000000000000199
 11
354.83207855255529
 21
171.54413226382391
 31
0.0000000000001421
210
-0.0000000000000001
220
0.816496580927726
230
0.5773502691896258
  0
LINE
  5
77B
  8
0
  6
EURO_COMMON_ROOF-MANSARD$0
 10
354.83207855255529
 20
171.54413226382391
 30
0.0000000000001421
 11
379.96150181991771
 21
191.16908424686139
 31
0.0000000000000284
210
-0.0000000000000001
220
0.816496580927726
230
0.5773502691896258
  0
LINE
  5
77C
  8
0
  6
EURO_COMMON_ROOF-MANSARD$0
 10
379.96150181991771
 20
191.16908424686139
 30
0.0000000000000284
 11
380.02058175767343
 21
190.81630128381539
 31
0.0000000000001421
210
-0.0000000000000001
220
0.816496580927726
230
0.5773502691896258
  0
LINE
  5
77D
  8
0
  6
EURO_COMMON_ROOF-MANSARD$0
 10
380.02058175767343
 20
190.81630128381539
 30
0.0000000000001421
 11
380.02058175767343
 21
227.55703067027849
 31
0.0000000000001137
210
-0.0000000000000001
220
0.816496580927726
230
0.5773502691896258
  0
LINE
  5
77E
  8
0
  6
EURO_COMMON_ROOF-MANSARD$0
 10
237.5785421152832
 20
272.59311795570108
 30
0.0000000000000853
 11
379.68035395597991
 21
190.55059863714129
 31
0.0000000000001421
210
-0.0000000000000001
220
0.816496580927726
230
0.5773502691896258
  0
LINE
  5
77F
  8
0
  6
EURO_COMMON_ROOF-MANSARD$0
 10
379.68035395597991
 20
92.369928207231965
 30
0.0000000000001705
 11
379.68035395597991
 21
190.55059863714129
 31
0.0000000000001421
210
-0.0000000000000001
220
0.816496580927726
230
0.5773502691896258
  0
LINE
  5
780
  8
0
  6
EURO_COMMON_ROOF-MANSARD$0
 10
237.9187699169766
 20
273.17749374745432
 30
0.0000000000000853
 11
237.9187699169768
 21
272.8588206023752
 31
0.0000000000000853
210
-0.0000000000000001
220
0.816496580927726
230
0.5773502691896258
  0
LINE
  5
781
  8
0
  6
EURO_COMMON_ROOF-MANSARD$0
 10
237.9187699169766
 20
272.85882060237509
 30
0.0000000000000853
 11
237.859689979221
 21
273.21160356542123
 31
0.0000000000000284
210
-0.0000000000000001
220
0.816496580927726
230
0.5773502691896258
  0
LINE
  5
782
  8
0
  6
EURO_COMMON_ROOF-MANSARD$0
 10
212.78934664961429
 20
253.2338686193377
 30
0.0000000000001137
 11
237.578542115283
 21
272.59311795570102
 31
0.0000000000001421
210
-0.0000000000000001
220
0.816496580927726
230
0.5773502691896258
  0
LINE
  5
783
  8
0
  6
EURO_COMMON_ROOF-MANSARD$0
 10
237.5785421152832
 20
272.59311795570119
 30
0.0000000000001137
 11
237.5785421152832
 21
238.92181994423959
 31
0.0000000000000568
210
-0.0000000000000001
220
0.816496580927726
230
0.5773502691896258
  0
LINE
  5
784
  8
0
  6
EURO_COMMON_ROOF-MANSARD$0
 10
237.578542115283
 20
174.80530875157899
 30
0.0000000000000284
 11
380.360809559367
 21
92.369928207232064
 31
0.0000000000001705
210
-0.0000000000000001
220
0.816496580927726
230
0.5773502691896258
  0
LINE
  5
785
  8
0
  6
EURO_COMMON_ROOF-MANSARD$0
 10
204.21175977728379
 20
155.5409879867434
 30
0.0000000000000853
 11
237.57854211528311
 21
174.80530875157899
 31
0.0000000000000853
210
-0.0000000000000001
220
0.816496580927726
230
0.5773502691896258
  0
LINE
  5
786
  8
0
  6
EURO_COMMON_ROOF-MANSARD$0
 10
379.68035395597991
 20
92.369928207231965
 30
0.0000000000002274
 11
346.65379941967421
 21
111.4378183591739
 31
0.0000000000000853
210
-0.0000000000000001
220
0.816496580927726
230
0.5773502691896258
  0
LINE
  5
787
  8
0
  6
EURO_COMMON_ROOF-MANSARD$0
 10
346.6537994196741
 20
73.302038055289984
 30
0.0000000000001421
 11
379.68035395597991
 21
92.369928207231965
 31
0.0000000000001705
210
-0.0000000000000001
220
0.816496580927726
230
0.5773502691896258
  0
LINE
  5
788
  8
0
  6
EURO_COMMON_ROOF-MANSARD$0
 10
268.33983052106868
 20
496.29228311806082
 30
0.0000000000000568
 11
263.35742243700241
 21
526.04364633495152
 31
0.0000000000001137
210
-0.0000000000000001
220
0.816496580927726
230
0.5773502691896258
  0
LINE
  5
789
  8
0
  6
EURO_COMMON_ROOF-MANSARD$0
 10
345.79929670525212
 20
364.16591416841652
 30
-0.0000000000001853
 11
345.45906890355849
 21
364.36234478131018
 31
-0.000000000000299
210
-0.0000000000000001
220
0.816496580927726
230
0.5773502691896258
  0
LINE
  5
78A
  8
0
  6
EURO_COMMON_ROOF-MANSARD$0
 10
345.45906890355849
 20
364.36234478131018
 30
-0.000000000000299
 11
345.45906890355849
 21
398.06795666107519
 31
0.0000000000001694
210
-0.0000000000000001
220
0.816496580927726
230
0.5773502691896258
  0
LINE
  5
78B
  8
0
  6
EURO_COMMON_ROOF-MANSARD$0
 10
404.77877867431238
 20
444.39398824217932
 30
0.0000000000001137
 11
409.7021068206227
 21
414.99540798833431
 31
0.0000000000001705
210
-0.0000000000000001
220
0.816496580927726
230
0.5773502691896258
  0
LINE
  5
78C
  8
0
  6
EURO_COMMON_ROOF-MANSARD$0
 10
345.45906890355849
 20
398.06795666107519
 30
0.0000000000001694
 11
345.79929670525212
 21
397.87152604818152
 31
0.0000000000001694
210
-0.0000000000000001
220
0.816496580927726
230
0.5773502691896258
  0
LINE
  5
78D
  8
0
  6
EURO_COMMON_ROOF-MANSARD$0
 10
345.45906890355849
 20
398.06795666107519
 30
0.0000000000001694
 11
379.50630684493331
 21
424.65732175097531
 31
0.0000000000002274
210
-0.0000000000000001
220
0.816496580927726
230
0.5773502691896258
  0
POLYLINE
  5
78E
  8
0
  6
EURO_COMMON_ROOF-MANSARD$0
 10
203.69748486455546
 20
446.20843348697645
 30
-0.0000000000001859
 66
     1
 70
     8
  0
VERTEX
  8
0
  5
C6F
 10
203.697
 20
446.208
 30
-1.85883e-013
  70
    32
  0
VERTEX
  8
0
  5
C70
 10
203.686
 20
446.199
 30
-1.85883e-013
  70
    32
  0
VERTEX
  8
0
  5
C71
 10
203.674
 20
446.190
 30
-1.85883e-013
  70
    32
  0
VERTEX
  8
0
  5
C72
 10
203.663
 20
446.181
 30
-1.85882e-013
  70
    32
  0
VERTEX
  8
0
  5
C73
 10
203.651
 20
446.172
 30
-1.85882e-013
  70
    32
  0
VERTEX
  8
0
  5
C74
 10
203.639
 20
446.162
 30
-1.85881e-013
  70
    32
  0
VERTEX
  8
0
  5
C75
 10
203.628
 20
446.153
 30
-1.85881e-013
  70
    32
  0
VERTEX
  8
0
  5
C76
 10
203.616
 20
446.144
 30
-1.85881e-013
  70
    32
  0
VERTEX
  8
0
  5
C77
 10
203.605
 20
446.134
 30
-1.85880e-013
  70
    32
  0
VERTEX
  8
0
  5
C78
 10
203.593
 20
446.125
 30
-1.85880e-013
  70
    32
  0
VERTEX
  8
0
  5
C79
 10
203.582
 20
446.115
 30
-1.85879e-013
  70
    32
  0
VERTEX
  8
0
  5
C7A
 10
203.570
 20
446.105
 30
-1.85879e-013
  70
    32
  0
VERTEX
  8
0
  5
C7B
 10
203.558
 20
446.096
 30
-1.85879e-013
  70
    32
  0
VERTEX
  8
0
  5
C7C
 10
203.547
 20
446.086
 30
-1.85878e-013
  70
    32
  0
VERTEX
  8
0
  5
C7D
 10
203.535
 20
446.076
 30
-1.85878e-013
  70
    32
  0
VERTEX
  8
0
  5
C7E
 10
203.524
 20
446.066
 30
-1.85877e-013
  70
    32
  0
VERTEX
  8
0
  5
C7F
 10
203.512
 20
446.057
 30
-1.85877e-013
  70
    32
  0
VERTEX
  8
0
  5
C80
 10
203.501
 20
446.047
 30
-1.85876e-013
  70
    32
  0
VERTEX
  8
0
  5
C81
 10
203.490
 20
446.037
 30
-1.85876e-013
  70
    32
  0
VERTEX
  8
0
  5
C82
 10
203.478
 20
446.027
 30
-1.85875e-013
  70
    32
  0
VERTEX
  8
0
  5
C83
 10
203.467
 20
446.017
 30
-1.85875e-013
  70
    32
  0
VERTEX
  8
0
  5
C84
 10
203.455
 20
446.007
 30
-1.85874e-013
  70
    32
  0
VERTEX
  8
0
  5
C85
 10
203.444
 20
445.996
 30
-1.85874e-013
  70
    32
  0
VERTEX
  8
0
  5
C86
 10
203.432
 20
445.986
 30
-1.85873e-013
  70
    32
  0
VERTEX
  8
0
  5
C87
 10
203.421
 20
445.976
 30
-1.85872e-013
  70
    32
  0
VERTEX
  8
0
  5
C88
 10
203.410
 20
445.966
 30
-1.85872e-013
  70
    32
  0
VERTEX
  8
0
  5
C89
 10
203.398
 20
445.955
 30
-1.85871e-013
  70
    32
  0
VERTEX
  8
0
  5
C8A
 10
203.387
 20
445.945
 30
-1.85871e-013
  70
    32
  0
VERTEX
  8
0
  5
C8B
 10
203.376
 20
445.934
 30
-1.85870e-013
  70
    32
  0
VERTEX
  8
0
  5
C8C
 10
203.364
 20
445.924
 30
-1.85869e-013
  70
    32
  0
VERTEX
  8
0
  5
C8D
 10
203.353
 20
445.913
 30
-1.85869e-013
  70
    32
  0
VERTEX
  8
0
  5
C8E
 10
203.342
 20
445.903
 30
-1.85868e-013
  70
    32
  0
VERTEX
  8
0
  5
C8F
 10
203.330
 20
445.892
 30
-1.85867e-013
  70
    32
  0
VERTEX
  8
0
  5
C90
 10
203.319
 20
445.882
 30
-1.85867e-013
  70
    32
  0
VERTEX
  8
0
  5
C91
 10
203.308
 20
445.871
 30
-1.85866e-013
  70
    32
  0
VERTEX
  8
0
  5
C92
 10
203.297
 20
445.860
 30
-1.85865e-013
  70
    32
  0
VERTEX
  8
0
  5
C93
 10
203.286
 20
445.849
 30
-1.85865e-013
  70
    32
  0
VERTEX
  8
0
  5
C94
 10
203.274
 20
445.839
 30
-1.85864e-013
  70
    32
  0
VERTEX
  8
0
  5
C95
 10
203.263
 20
445.828
 30
-1.85863e-013
  70
    32
  0
VERTEX
  8
0
  5
C96
 10
203.252
 20
445.817
 30
-1.85863e-013
  70
    32
  0
VERTEX
  8
0
  5
C97
 10
203.241
 20
445.806
 30
-1.85862e-013
  70
    32
  0
VERTEX
  8
0
  5
C98
 10
203.230
 20
445.795
 30
-1.85861e-013
  70
    32
  0
VERTEX
  8
0
  5
C99
 10
203.219
 20
445.784
 30
-1.85860e-013
  70
    32
  0
VERTEX
  8
0
  5
C9A
 10
203.208
 20
445.773
 30
-1.85860e-013
  70
    32
  0
VERTEX
  8
0
  5
C9B
 10
203.196
 20
445.761
 30
-1.85859e-013
  70
    32
  0
VERTEX
  8
0
  5
C9C
 10
203.185
 20
445.750
 30
-1.85858e-013
  70
    32
  0
VERTEX
  8
0
  5
C9D
 10
203.174
 20
445.739
 30
-1.85857e-013
  70
    32
  0
VERTEX
  8
0
  5
C9E
 10
203.163
 20
445.728
 30
-1.85857e-013
  70
    32
  0
VERTEX
  8
0
  5
C9F
 10
203.152
 20
445.716
 30
-1.85856e-013
  70
    32
  0
VERTEX
  8
0
  5
CA0
 10
203.141
 20
445.705
 30
-1.85855e-013
  70
    32
  0
VERTEX
  8
0
  5
CA1
 10
203.130
 20
445.694
 30
-1.85854e-013
  70
    32
  0
VERTEX
  8
0
  5
CA2
 10
203.119
 20
445.682
 30
-1.85853e-013
  70
    32
  0
VERTEX
  8
0
  5
CA3
 10
203.108
 20
445.671
 30
-1.85852e-013
  70
    32
  0
VERTEX
  8
0
  5
CA4
 10
203.098
 20
445.659
 30
-1.85852e-013
  70
    32
  0
VERTEX
  8
0
  5
CA5
 10
203.087
 20
445.648
 30
-1.85851e-013
  70
    32
  0
VERTEX
  8
0
  5
CA6
 10
203.076
 20
445.636
 30
-1.85850e-013
  70
    32
  0
VERTEX
  8
0
  5
CA7
 10
203.065
 20
445.624
 30
-1.85849e-013
  70
    32
  0
VERTEX
  8
0
  5
CA8
 10
203.054
 20
445.613
 30
-1.85848e-013
  70
    32
  0
VERTEX
  8
0
  5
CA9
 10
203.043
 20
445.601
 30
-1.85847e-013
  70
    32
  0
VERTEX
  8
0
  5
CAA
 10
203.032
 20
445.589
 30
-1.85846e-013
  70
    32
  0
VERTEX
  8
0
  5
CAB
 10
203.022
 20
445.577
 30
-1.85845e-013
  70
    32
  0
VERTEX
  8
0
  5
CAC
 10
203.011
 20
445.565
 30
-1.85844e-013
  70
    32
  0
VERTEX
  8
0
  5
CAD
 10
203.000
 20
445.553
 30
-1.85843e-013
  70
    32
  0
VERTEX
  8
0
  5
CAE
 10
202.989
 20
445.542
 30
-1.85843e-013
  70
    32
  0
VERTEX
  8
0
  5
CAF
 10
202.979
 20
445.530
 30
-1.85842e-013
  70
    32
  0
VERTEX
  8
0
  5
CB0
 10
202.968
 20
445.518
 30
-1.85841e-013
  70
    32
  0
VERTEX
  8
0
  5
CB1
 10
202.957
 20
445.505
 30
-1.85840e-013
  70
    32
  0
VERTEX
  8
0
  5
CB2
 10
202.947
 20
445.493
 30
-1.85839e-013
  70
    32
  0
VERTEX
  8
0
  5
CB3
 10
202.936
 20
445.481
 30
-1.85838e-013
  70
    32
  0
VERTEX
  8
0
  5
CB4
 10
202.926
 20
445.469
 30
-1.85837e-013
  70
    32
  0
VERTEX
  8
0
  5
CB5
 10
202.915
 20
445.457
 30
-1.85836e-013
  70
    32
  0
VERTEX
  8
0
  5
CB6
 10
202.904
 20
445.445
 30
-1.85835e-013
  70
    32
  0
VERTEX
  8
0
  5
CB7
 10
202.894
 20
445.432
 30
-1.85834e-013
  70
    32
  0
VERTEX
  8
0
  5
CB8
 10
202.883
 20
445.420
 30
-1.85833e-013
  70
    32
  0
VERTEX
  8
0
  5
CB9
 10
202.873
 20
445.408
 30
-1.85831e-013
  70
    32
  0
VERTEX
  8
0
  5
CBA
 10
202.863
 20
445.395
 30
-1.85830e-013
  70
    32
  0
VERTEX
  8
0
  5
CBB
 10
202.852
 20
445.383
 30
-1.85829e-013
  70
    32
  0
VERTEX
  8
0
  5
CBC
 10
202.842
 20
445.370
 30
-1.85828e-013
  70
    32
  0
VERTEX
  8
0
  5
CBD
 10
202.831
 20
445.358
 30
-1.85827e-013
  70
    32
  0
VERTEX
  8
0
  5
CBE
 10
202.821
 20
445.345
 30
-1.85826e-013
  70
    32
  0
VERTEX
  8
0
  5
CBF
 10
202.811
 20
445.333
 30
-1.85825e-013
  70
    32
  0
VERTEX
  8
0
  5
CC0
 10
202.800
 20
445.320
 30
-1.85824e-013
  70
    32
  0
VERTEX
  8
0
  5
CC1
 10
202.790
 20
445.307
 30
-1.85823e-013
  70
    32
  0
VERTEX
  8
0
  5
CC2
 10
202.780
 20
445.295
 30
-1.85822e-013
  70
    32
  0
VERTEX
  8
0
  5
CC3
 10
202.769
 20
445.282
 30
-1.85820e-013
  70
    32
  0
VERTEX
  8
0
  5
CC4
 10
202.759
 20
445.269
 30
-1.85819e-013
  70
    32
  0
VERTEX
  8
0
  5
CC5
 10
202.749
 20
445.256
 30
-1.85818e-013
  70
    32
  0
VERTEX
  8
0
  5
CC6
 10
202.739
 20
445.244
 30
-1.85817e-013
  70
    32
  0
VERTEX
  8
0
  5
CC7
 10
202.729
 20
445.231
 30
-1.85816e-013
  70
    32
  0
VERTEX
  8
0
  5
CC8
 10
202.719
 20
445.218
 30
-1.85815e-013
  70
    32
  0
VERTEX
  8
0
  5
CC9
 10
202.709
 20
445.205
 30
-1.85813e-013
  70
    32
  0
VERTEX
  8
0
  5
CCA
 10
202.699
 20
445.192
 30
-1.85812e-013
  70
    32
  0
VERTEX
  8
0
  5
CCB
 10
202.688
 20
445.179
 30
-1.85811e-013
  70
    32
  0
VERTEX
  8
0
  5
CCC
 10
202.678
 20
445.166
 30
-1.85810e-013
  70
    32
  0
VERTEX
  8
0
  5
CCD
 10
202.668
 20
445.153
 30
-1.85809e-013
  70
    32
  0
VERTEX
  8
0
  5
CCE
 10
202.659
 20
445.140
 30
-1.85807e-013
  70
    32
  0
VERTEX
  8
0
  5
CCF
 10
202.649
 20
445.127
 30
-1.85806e-013
  70
    32
  0
VERTEX
  8
0
  5
CD0
 10
202.639
 20
445.113
 30
-1.85805e-013
  70
    32
  0
VERTEX
  8
0
  5
CD1
 10
202.629
 20
445.100
 30
-1.85804e-013
  70
    32
  0
VERTEX
  8
0
  5
CD2
 10
202.619
 20
445.087
 30
-1.85802e-013
  70
    32
  0
VERTEX
  8
0
  5
CD3
 10
202.609
 20
445.074
 30
-1.85801e-013
  70
    32
  0
VERTEX
  8
0
  5
CD4
 10
202.599
 20
445.060
 30
-1.85800e-013
  70
    32
  0
VERTEX
  8
0
  5
CD5
 10
202.590
 20
445.047
 30
-1.85798e-013
  70
    32
  0
VERTEX
  8
0
  5
CD6
 10
202.580
 20
445.034
 30
-1.85797e-013
  70
    32
  0
VERTEX
  8
0
  5
CD7
 10
202.570
 20
445.020
 30
-1.85796e-013
  70
    32
  0
VERTEX
  8
0
  5
CD8
 10
202.560
 20
445.007
 30
-1.85794e-013
  70
    32
  0
VERTEX
  8
0
  5
CD9
 10
202.551
 20
444.994
 30
-1.85793e-013
  70
    32
  0
VERTEX
  8
0
  5
CDA
 10
202.541
 20
444.980
 30
-1.85792e-013
  70
    32
  0
VERTEX
  8
0
  5
CDB
 10
202.532
 20
444.967
 30
-1.85790e-013
  70
    32
  0
VERTEX
  8
0
  5
CDC
 10
202.522
 20
444.953
 30
-1.85789e-013
  70
    32
  0
VERTEX
  8
0
  5
CDD
 10
202.512
 20
444.939
 30
-1.85788e-013
  70
    32
  0
VERTEX
  8
0
  5
CDE
 10
202.503
 20
444.926
 30
-1.85786e-013
  70
    32
  0
VERTEX
  8
0
  5
CDF
 10
202.493
 20
444.912
 30
-1.85785e-013
  70
    32
  0
VERTEX
  8
0
  5
CE0
 10
202.484
 20
444.899
 30
-1.85784e-013
  70
    32
  0
VERTEX
  8
0
  5
CE1
 10
202.475
 20
444.885
 30
-1.85782e-013
  70
    32
  0
VERTEX
  8
0
  5
CE2
 10
202.465
 20
444.871
 30
-1.85781e-013
  70
    32
  0
VERTEX
  8
0
  5
CE3
 10
202.456
 20
444.858
 30
-1.85779e-013
  70
    32
  0
VERTEX
  8
0
  5
CE4
 10
202.446
 20
444.844
 30
-1.85778e-013
  70
    32
  0
VERTEX
  8
0
  5
CE5
 10
202.437
 20
444.830
 30
-1.85776e-013
  70
    32
  0
VERTEX
  8
0
  5
CE6
 10
202.428
 20
444.816
 30
-1.85775e-013
  70
    32
  0
VERTEX
  8
0
  5
CE7
 10
202.419
 20
444.802
 30
-1.85773e-013
  70
    32
  0
VERTEX
  8
0
  5
CE8
 10
202.409
 20
444.788
 30
-1.85772e-013
  70
    32
  0
VERTEX
  8
0
  5
CE9
 10
202.400
 20
444.775
 30
-1.85771e-013
  70
    32
  0
VERTEX
  8
0
  5
CEA
 10
202.391
 20
444.761
 30
-1.85769e-013
  70
    32
  0
VERTEX
  8
0
  5
CEB
 10
202.382
 20
444.747
 30
-1.85768e-013
  70
    32
  0
VERTEX
  8
0
  5
CEC
 10
202.373
 20
444.733
 30
-1.85766e-013
  70
    32
  0
VERTEX
  8
0
  5
CED
 10
202.364
 20
444.719
 30
-1.85765e-013
  70
    32
  0
VERTEX
  8
0
  5
CEE
 10
202.355
 20
444.705
 30
-1.85763e-013
  70
    32
  0
VERTEX
  8
0
  5
CEF
 10
202.346
 20
444.691
 30
-1.85762e-013
  70
    32
  0
SEQEND
  8
0
  5
CF0
  0
POLYLINE
  5
78F
  8
0
  6
EURO_COMMON_ROOF-MANSARD$0
 10
202.18500613147202
 20
439.79614000134961
 30
-0.0000000000001849
 66
     1
 70
     8
  0
VERTEX
  8
0
  5
CF1
 10
202.185
 20
439.796
 30
-1.84900e-013
  70
    32
  0
VERTEX
  8
0
  5
CF2
 10
202.200
 20
439.788
 30
-1.84897e-013
  70
    32
  0
VERTEX
  8
0
  5
CF3
 10
202.215
 20
439.779
 30
-1.84894e-013
  70
    32
  0
VERTEX
  8
0
  5
CF4
 10
202.231
 20
439.771
 30
-1.84890e-013
  70
    32
  0
VERTEX
  8
0
  5
CF5
 10
202.246
 20
439.763
 30
-1.84887e-013
  70
    32
  0
VERTEX
  8
0
  5
CF6
 10
202.262
 20
439.755
 30
-1.84884e-013
  70
    32
  0
VERTEX
  8
0
  5
CF7
 10
202.277
 20
439.748
 30
-1.84881e-013
  70
    32
  0
VERTEX
  8
0
  5
CF8
 10
202.293
 20
439.740
 30
-1.84878e-013
  70
    32
  0
VERTEX
  8
0
  5
CF9
 10
202.309
 20
439.733
 30
-1.84875e-013
  70
    32
  0
VERTEX
  8
0
  5
CFA
 10
202.325
 20
439.726
 30
-1.84872e-013
  70
    32
  0
VERTEX
  8
0
  5
CFB
 10
202.341
 20
439.719
 30
-1.84869e-013
  70
    32
  0
VERTEX
  8
0
  5
CFC
 10
202.357
 20
439.713
 30
-1.84866e-013
  70
    32
  0
VERTEX
  8
0
  5
CFD
 10
202.373
 20
439.706
 30
-1.84863e-013
  70
    32
  0
VERTEX
  8
0
  5
CFE
 10
202.390
 20
439.700
 30
-1.84860e-013
  70
    32
  0
VERTEX
  8
0
  5
CFF
 10
202.406
 20
439.694
 30
-1.84857e-013
  70
    32
  0
VERTEX
  8
0
  5
D00
 10
202.423
 20
439.688
 30
-1.84854e-013
  70
    32
  0
VERTEX
  8
0
  5
D01
 10
202.439
 20
439.683
 30
-1.84851e-013
  70
    32
  0
VERTEX
  8
0
  5
D02
 10
202.456
 20
439.677
 30
-1.84848e-013
  70
    32
  0
VERTEX
  8
0
  5
D03
 10
202.473
 20
439.672
 30
-1.84846e-013
  70
    32
  0
VERTEX
  8
0
  5
D04
 10
202.490
 20
439.667
 30
-1.84843e-013
  70
    32
  0
VERTEX
  8
0
  5
D05
 10
202.507
 20
439.662
 30
-1.84840e-013
  70
    32
  0
VERTEX
  8
0
  5
D06
 10
202.524
 20
439.658
 30
-1.84837e-013
  70
    32
  0
VERTEX
  8
0
  5
D07
 10
202.542
 20
439.653
 30
-1.84834e-013
  70
    32
  0
VERTEX
  8
0
  5
D08
 10
202.559
 20
439.649
 30
-1.84832e-013
  70
    32
  0
VERTEX
  8
0
  5
D09
 10
202.576
 20
439.645
 30
-1.84829e-013
  70
    32
  0
VERTEX
  8
0
  5
D0A
 10
202.594
 20
439.641
 30
-1.84826e-013
  70
    32
  0
VERTEX
  8
0
  5
D0B
 10
202.611
 20
439.638
 30
-1.84824e-013
  70
    32
  0
VERTEX
  8
0
  5
D0C
 10
202.629
 20
439.634
 30
-1.84821e-013
  70
    32
  0
VERTEX
  8
0
  5
D0D
 10
202.647
 20
439.631
 30
-1.84819e-013
  70
    32
  0
VERTEX
  8
0
  5
D0E
 10
202.665
 20
439.628
 30
-1.84816e-013
  70
    32
  0
VERTEX
  8
0
  5
D0F
 10
202.683
 20
439.625
 30
-1.84814e-013
  70
    32
  0
VERTEX
  8
0
  5
D10
 10
202.701
 20
439.623
 30
-1.84811e-013
  70
    32
  0
VERTEX
  8
0
  5
D11
 10
202.719
 20
439.621
 30
-1.84809e-013
  70
    32
  0
VERTEX
  8
0
  5
D12
 10
202.737
 20
439.618
 30
-1.84806e-013
  70
    32
  0
VERTEX
  8
0
  5
D13
 10
202.755
 20
439.616
 30
-1.84804e-013
  70
    32
  0
VERTEX
  8
0
  5
D14
 10
202.774
 20
439.615
 30
-1.84802e-013
  70
    32
  0
VERTEX
  8
0
  5
D15
 10
202.792
 20
439.613
 30
-1.84799e-013
  70
    32
  0
VERTEX
  8
0
  5
D16
 10
202.811
 20
439.612
 30
-1.84797e-013
  70
    32
  0
VERTEX
  8
0
  5
D17
 10
202.829
 20
439.611
 30
-1.84795e-013
  70
    32
  0
VERTEX
  8
0
  5
D18
 10
202.848
 20
439.610
 30
-1.84792e-013
  70
    32
  0
VERTEX
  8
0
  5
D19
 10
202.867
 20
439.609
 30
-1.84790e-013
  70
    32
  0
VERTEX
  8
0
  5
D1A
 10
202.886
 20
439.609
 30
-1.84788e-013
  70
    32
  0
VERTEX
  8
0
  5
D1B
 10
202.905
 20
439.608
 30
-1.84786e-013
  70
    32
  0
VERTEX
  8
0
  5
D1C
 10
202.924
 20
439.608
 30
-1.84784e-013
  70
    32
  0
VERTEX
  8
0
  5
D1D
 10
202.943
 20
439.608
 30
-1.84782e-013
  70
    32
  0
VERTEX
  8
0
  5
D1E
 10
202.962
 20
439.609
 30
-1.84780e-013
  70
    32
  0
VERTEX
  8
0
  5
D1F
 10
202.981
 20
439.609
 30
-1.84777e-013
  70
    32
  0
VERTEX
  8
0
  5
D20
 10
203.000
 20
439.610
 30
-1.84775e-013
  70
    32
  0
VERTEX
  8
0
  5
D21
 10
203.020
 20
439.611
 30
-1.84773e-013
  70
    32
  0
VERTEX
  8
0
  5
D22
 10
203.039
 20
439.612
 30
-1.84772e-013
  70
    32
  0
VERTEX
  8
0
  5
D23
 10
203.059
 20
439.613
 30
-1.84770e-013
  70
    32
  0
VERTEX
  8
0
  5
D24
 10
203.078
 20
439.615
 30
-1.84768e-013
  70
    32
  0
VERTEX
  8
0
  5
D25
 10
203.098
 20
439.617
 30
-1.84766e-013
  70
    32
  0
VERTEX
  8
0
  5
D26
 10
203.117
 20
439.619
 30
-1.84764e-013
  70
    32
  0
VERTEX
  8
0
  5
D27
 10
203.137
 20
439.621
 30
-1.84762e-013
  70
    32
  0
VERTEX
  8
0
  5
D28
 10
203.157
 20
439.623
 30
-1.84760e-013
  70
    32
  0
VERTEX
  8
0
  5
D29
 10
203.177
 20
439.626
 30
-1.84759e-013
  70
    32
  0
VERTEX
  8
0
  5
D2A
 10
203.197
 20
439.629
 30
-1.84757e-013
  70
    32
  0
VERTEX
  8
0
  5
D2B
 10
203.216
 20
439.632
 30
-1.84755e-013
  70
    32
  0
VERTEX
  8
0
  5
D2C
 10
203.236
 20
439.635
 30
-1.84754e-013
  70
    32
  0
VERTEX
  8
0
  5
D2D
 10
203.257
 20
439.638
 30
-1.84752e-013
  70
    32
  0
VERTEX
  8
0
  5
D2E
 10
203.277
 20
439.642
 30
-1.84750e-013
  70
    32
  0
VERTEX
  8
0
  5
D2F
 10
203.297
 20
439.646
 30
-1.84749e-013
  70
    32
  0
VERTEX
  8
0
  5
D30
 10
203.317
 20
439.650
 30
-1.84747e-013
  70
    32
  0
VERTEX
  8
0
  5
D31
 10
203.337
 20
439.654
 30
-1.84746e-013
  70
    32
  0
VERTEX
  8
0
  5
D32
 10
203.358
 20
439.658
 30
-1.84744e-013
  70
    32
  0
VERTEX
  8
0
  5
D33
 10
203.378
 20
439.663
 30
-1.84743e-013
  70
    32
  0
VERTEX
  8
0
  5
D34
 10
203.398
 20
439.668
 30
-1.84741e-013
  70
    32
  0
VERTEX
  8
0
  5
D35
 10
203.419
 20
439.673
 30
-1.84740e-013
  70
    32
  0
VERTEX
  8
0
  5
D36
 10
203.439
 20
439.678
 30
-1.84739e-013
  70
    32
  0
VERTEX
  8
0
  5
D37
 10
203.460
 20
439.684
 30
-1.84737e-013
  70
    32
  0
VERTEX
  8
0
  5
D38
 10
203.480
 20
439.689
 30
-1.84736e-013
  70
    32
  0
VERTEX
  8
0
  5
D39
 10
203.501
 20
439.695
 30
-1.84735e-013
  70
    32
  0
VERTEX
  8
0
  5
D3A
 10
203.522
 20
439.701
 30
-1.84734e-013
  70
    32
  0
VERTEX
  8
0
  5
D3B
 10
203.542
 20
439.707
 30
-1.84732e-013
  70
    32
  0
VERTEX
  8
0
  5
D3C
 10
203.563
 20
439.714
 30
-1.84731e-013
  70
    32
  0
VERTEX
  8
0
  5
D3D
 10
203.584
 20
439.720
 30
-1.84730e-013
  70
    32
  0
VERTEX
  8
0
  5
D3E
 10
203.605
 20
439.727
 30
-1.84729e-013
  70
    32
  0
VERTEX
  8
0
  5
D3F
 10
203.625
 20
439.734
 30
-1.84728e-013
  70
    32
  0
VERTEX
  8
0
  5
D40
 10
203.646
 20
439.742
 30
-1.84727e-013
  70
    32
  0
VERTEX
  8
0
  5
D41
 10
203.667
 20
439.749
 30
-1.84726e-013
  70
    32
  0
VERTEX
  8
0
  5
D42
 10
203.688
 20
439.757
 30
-1.84725e-013
  70
    32
  0
VERTEX
  8
0
  5
D43
 10
203.709
 20
439.765
 30
-1.84724e-013
  70
    32
  0
VERTEX
  8
0
  5
D44
 10
203.730
 20
439.773
 30
-1.84723e-013
  70
    32
  0
VERTEX
  8
0
  5
D45
 10
203.751
 20
439.781
 30
-1.84722e-013
  70
    32
  0
VERTEX
  8
0
  5
D46
 10
203.772
 20
439.789
 30
-1.84721e-013
  70
    32
  0
VERTEX
  8
0
  5
D47
 10
203.793
 20
439.798
 30
-1.84721e-013
  70
    32
  0
VERTEX
  8
0
  5
D48
 10
203.814
 20
439.807
 30
-1.84720e-013
  70
    32
  0
VERTEX
  8
0
  5
D49
 10
203.835
 20
439.816
 30
-1.84719e-013
  70
    32
  0
VERTEX
  8
0
  5
D4A
 10
203.856
 20
439.825
 30
-1.84718e-013
  70
    32
  0
VERTEX
  8
0
  5
D4B
 10
203.877
 20
439.834
 30
-1.84718e-013
  70
    32
  0
VERTEX
  8
0
  5
D4C
 10
203.898
 20
439.844
 30
-1.84717e-013
  70
    32
  0
VERTEX
  8
0
  5
D4D
 10
203.920
 20
439.854
 30
-1.84717e-013
  70
    32
  0
VERTEX
  8
0
  5
D4E
 10
203.941
 20
439.864
 30
-1.84716e-013
  70
    32
  0
VERTEX
  8
0
  5
D4F
 10
203.962
 20
439.874
 30
-1.84715e-013
  70
    32
  0
VERTEX
  8
0
  5
D50
 10
203.983
 20
439.884
 30
-1.84715e-013
  70
    32
  0
VERTEX
  8
0
  5
D51
 10
204.004
 20
439.895
 30
-1.84714e-013
  70
    32
  0
VERTEX
  8
0
  5
D52
 10
204.026
 20
439.905
 30
-1.84714e-013
  70
    32
  0
VERTEX
  8
0
  5
D53
 10
204.047
 20
439.916
 30
-1.84714e-013
  70
    32
  0
VERTEX
  8
0
  5
D54
 10
204.068
 20
439.927
 30
-1.84713e-013
  70
    32
  0
VERTEX
  8
0
  5
D55
 10
204.089
 20
439.939
 30
-1.84713e-013
  70
    32
  0
VERTEX
  8
0
  5
D56
 10
204.111
 20
439.950
 30
-1.84713e-013
  70
    32
  0
VERTEX
  8
0
  5
D57
 10
204.132
 20
439.962
 30
-1.84712e-013
  70
    32
  0
VERTEX
  8
0
  5
D58
 10
204.153
 20
439.974
 30
-1.84712e-013
  70
    32
  0
VERTEX
  8
0
  5
D59
 10
204.174
 20
439.986
 30
-1.84712e-013
  70
    32
  0
VERTEX
  8
0
  5
D5A
 10
204.196
 20
439.998
 30
-1.84712e-013
  70
    32
  0
VERTEX
  8
0
  5
D5B
 10
204.217
 20
440.011
 30
-1.84712e-013
  70
    32
  0
VERTEX
  8
0
  5
D5C
 10
204.238
 20
440.023
 30
-1.84711e-013
  70
    32
  0
VERTEX
  8
0
  5
D5D
 10
204.259
 20
440.036
 30
-1.84711e-013
  70
    32
  0
VERTEX
  8
0
  5
D5E
 10
204.281
 20
440.049
 30
-1.84711e-013
  70
    32
  0
VERTEX
  8
0
  5
D5F
 10
204.302
 20
440.062
 30
-1.84711e-013
  70
    32
  0
VERTEX
  8
0
  5
D60
 10
204.323
 20
440.075
 30
-1.84711e-013
  70
    32
  0
VERTEX
  8
0
  5
D61
 10
204.344
 20
440.089
 30
-1.84711e-013
  70
    32
  0
VERTEX
  8
0
  5
D62
 10
204.366
 20
440.103
 30
-1.84711e-013
  70
    32
  0
VERTEX
  8
0
  5
D63
 10
204.387
 20
440.116
 30
-1.84712e-013
  70
    32
  0
VERTEX
  8
0
  5
D64
 10
204.408
 20
440.130
 30
-1.84712e-013
  70
    32
  0
VERTEX
  8
0
  5
D65
 10
204.429
 20
440.145
 30
-1.84712e-013
  70
    32
  0
VERTEX
  8
0
  5
D66
 10
204.450
 20
440.159
 30
-1.84712e-013
  70
    32
  0
VERTEX
  8
0
  5
D67
 10
204.472
 20
440.174
 30
-1.84712e-013
  70
    32
  0
VERTEX
  8
0
  5
D68
 10
204.493
 20
440.188
 30
-1.84713e-013
  70
    32
  0
VERTEX
  8
0
  5
D69
 10
204.514
 20
440.203
 30
-1.84713e-013
  70
    32
  0
VERTEX
  8
0
  5
D6A
 10
204.535
 20
440.218
 30
-1.84713e-013
  70
    32
  0
VERTEX
  8
0
  5
D6B
 10
204.556
 20
440.234
 30
-1.84714e-013
  70
    32
  0
VERTEX
  8
0
  5
D6C
 10
204.577
 20
440.249
 30
-1.84714e-013
  70
    32
  0
VERTEX
  8
0
  5
D6D
 10
204.598
 20
440.265
 30
-1.84715e-013
  70
    32
  0
VERTEX
  8
0
  5
D6E
 10
204.619
 20
440.280
 30
-1.84715e-013
  70
    32
  0
VERTEX
  8
0
  5
D6F
 10
204.640
 20
440.296
 30
-1.84716e-013
  70
    32
  0
VERTEX
  8
0
  5
D70
 10
204.661
 20
440.312
 30
-1.84716e-013
  70
    32
  0
VERTEX
  8
0
  5
D71
 10
204.682
 20
440.329
 30
-1.84717e-013
  70
    32
  0
SEQEND
  8
0
  5
D72
  0
LINE
  5
790
  8
0
  6
EURO_COMMON_ROOF-MANSARD$0
 10
204.03771266624929
 20
446.01200287408278
 30
-0.0000000000002422
 11
203.69748486455549
 21
446.20843348697639
 31
-0.0000000000002422
210
-0.0000000000000001
220
0.816496580927726
230
0.5773502691896258
  0
LINE
  5
791
  8
0
  6
EURO_COMMON_ROOF-MANSARD$0
 10
345.1188411018652
 20
364.55877539420379
 30
-0.0000000000002422
 11
345.45906890355849
 21
364.36234478131018
 31
-0.000000000000299
210
-0.0000000000000001
220
0.816496580927726
230
0.5773502691896258
  0
LINE
  5
792
  8
0
  6
EURO_COMMON_ROOF-MANSARD$0
 10
204.68215049381749
 20
440.32871743620728
 30
-0.000000000000299
 11
215.85078305708981
 21
449.05091831755738
 31
-0.0000000000004127
210
-0.0000000000000001
220
0.816496580927726
230
0.5773502691896258
  0
LINE
  5
793
  8
0
  6
EURO_COMMON_ROOF-MANSARD$0
 10
204.68215049381749
 20
440.32871743620728
 30
-0.000000000000299
 11
346.4437345328206
 21
358.48262873054142
 31
-0.0000000000002422
210
-0.0000000000000001
220
0.816496580927726
230
0.5773502691896258
  0
LINE
  5
794
  8
0
  6
EURO_COMMON_ROOF-MANSARD$0
 10
204.68215049381749
 20
440.32871743620728
 30
-0.000000000000299
 11
204.62307055606169
 21
440.68150039925348
 31
-0.0000000000001853
210
-0.0000000000000001
220
0.816496580927726
230
0.5773502691896258
  0
LINE
  5
795
  8
0
  6
EURO_COMMON_ROOF-MANSARD$0
 10
215.85078305708981
 20
449.05091831755738
 30
-0.0000000000004127
 11
357.61236709609278
 21
367.20482961189123
 31
-0.0000000000002422
210
-0.0000000000000001
220
0.816496580927726
230
0.5773502691896258
  0
LINE
  5
796
  8
0
  6
EURO_COMMON_ROOF-MANSARD$0
 10
215.79170311933399
 20
449.4037012806034
 30
-0.000000000000299
 11
204.62307055606169
 21
440.68150039925371
 31
-0.0000000000002422
210
-0.0000000000000001
220
0.816496580927726
230
0.5773502691896258
  0
LINE
  5
797
  8
0
  6
EURO_COMMON_ROOF-MANSARD$0
 10
215.79170311933399
 20
449.4037012806034
 30
-0.000000000000299
 11
357.55328715833713
 21
367.55761257493731
 31
-0.0000000000001853
210
-0.0000000000000001
220
0.816496580927726
230
0.5773502691896258
  0
POLYLINE
  5
798
  8
0
  6
EURO_COMMON_ROOF-MANSARD$0
 10
203.75656480231117
 20
445.85565052393031
 30
-0.0000000000001859
 66
     1
 70
     8
  0
VERTEX
  8
0
  5
D73
 10
203.757
 20
445.856
 30
-1.85871e-013
  70
    32
  0
VERTEX
  8
0
  5
D74
 10
203.696
 20
445.808
 30
-1.85874e-013
  70
    32
  0
VERTEX
  8
0
  5
D75
 10
203.637
 20
445.758
 30
-1.85878e-013
  70
    32
  0
VERTEX
  8
0
  5
D76
 10
203.577
 20
445.707
 30
-1.85881e-013
  70
    32
  0
VERTEX
  8
0
  5
D77
 10
203.518
 20
445.655
 30
-1.85883e-013
  70
    32
  0
VERTEX
  8
0
  5
D78
 10
203.459
 20
445.601
 30
-1.85885e-013
  70
    32
  0
VERTEX
  8
0
  5
D79
 10
203.401
 20
445.546
 30
-1.85887e-013
  70
    32
  0
VERTEX
  8
0
  5
D7A
 10
203.343
 20
445.490
 30
-1.85889e-013
  70
    32
  0
VERTEX
  8
0
  5
D7B
 10
203.286
 20
445.432
 30
-1.85890e-013
  70
    32
  0
VERTEX
  8
0
  5
D7C
 10
203.229
 20
445.372
 30
-1.85891e-013
  70
    32
  0
VERTEX
  8
0
  5
D7D
 10
203.173
 20
445.312
 30
-1.85891e-013
  70
    32
  0
VERTEX
  8
0
  5
D7E
 10
203.117
 20
445.250
 30
-1.85891e-013
  70
    32
  0
VERTEX
  8
0
  5
D7F
 10
203.062
 20
445.187
 30
-1.85891e-013
  70
    32
  0
VERTEX
  8
0
  5
D80
 10
203.008
 20
445.123
 30
-1.85891e-013
  70
    32
  0
VERTEX
  8
0
  5
D81
 10
202.954
 20
445.058
 30
-1.85890e-013
  70
    32
  0
VERTEX
  8
0
  5
D82
 10
202.901
 20
444.992
 30
-1.85888e-013
  70
    32
  0
VERTEX
  8
0
  5
D83
 10
202.849
 20
444.924
 30
-1.85887e-013
  70
    32
  0
VERTEX
  8
0
  5
D84
 10
202.798
 20
444.856
 30
-1.85885e-013
  70
    32
  0
VERTEX
  8
0
  5
D85
 10
202.748
 20
444.787
 30
-1.85882e-013
  70
    32
  0
VERTEX
  8
0
  5
D86
 10
202.698
 20
444.717
 30
-1.85880e-013
  70
    32
  0
VERTEX
  8
0
  5
D87
 10
202.649
 20
444.646
 30
-1.85877e-013
  70
    32
  0
VERTEX
  8
0
  5
D88
 10
202.602
 20
444.574
 30
-1.85873e-013
  70
    32
  0
VERTEX
  8
0
  5
D89
 10
202.555
 20
444.501
 30
-1.85869e-013
  70
    32
  0
VERTEX
  8
0
  5
D8A
 10
202.509
 20
444.428
 30
-1.85865e-013
  70
    32
  0
VERTEX
  8
0
  5
D8B
 10
202.464
 20
444.354
 30
-1.85861e-013
  70
    32
  0
VERTEX
  8
0
  5
D8C
 10
202.421
 20
444.279
 30
-1.85856e-013
  70
    32
  0
VERTEX
  8
0
  5
D8D
 10
202.378
 20
444.203
 30
-1.85851e-013
  70
    32
  0
VERTEX
  8
0
  5
D8E
 10
202.337
 20
444.128
 30
-1.85845e-013
  70
    32
  0
VERTEX
  8
0
  5
D8F
 10
202.296
 20
444.051
 30
-1.85840e-013
  70
    32
  0
VERTEX
  8
0
  5
D90
 10
202.257
 20
443.974
 30
-1.85834e-013
  70
    32
  0
VERTEX
  8
0
  5
D91
 10
202.219
 20
443.897
 30
-1.85827e-013
  70
    32
  0
VERTEX
  8
0
  5
D92
 10
202.182
 20
443.819
 30
-1.85820e-013
  70
    32
  0
VERTEX
  8
0
  5
D93
 10
202.146
 20
443.741
 30
-1.85813e-013
  70
    32
  0
VERTEX
  8
0
  5
D94
 10
202.112
 20
443.663
 30
-1.85806e-013
  70
    32
  0
VERTEX
  8
0
  5
D95
 10
202.078
 20
443.584
 30
-1.85798e-013
  70
    32
  0
VERTEX
  8
0
  5
D96
 10
202.046
 20
443.505
 30
-1.85790e-013
  70
    32
  0
VERTEX
  8
0
  5
D97
 10
202.016
 20
443.426
 30
-1.85782e-013
  70
    32
  0
VERTEX
  8
0
  5
D98
 10
201.986
 20
443.347
 30
-1.85774e-013
  70
    32
  0
VERTEX
  8
0
  5
D99
 10
201.958
 20
443.268
 30
-1.85765e-013
  70
    32
  0
VERTEX
  8
0
  5
D9A
 10
201.931
 20
443.189
 30
-1.85756e-013
  70
    32
  0
VERTEX
  8
0
  5
D9B
 10
201.906
 20
443.110
 30
-1.85746e-013
  70
    32
  0
VERTEX
  8
0
  5
D9C
 10
201.882
 20
443.031
 30
-1.85737e-013
  70
    32
  0
VERTEX
  8
0
  5
D9D
 10
201.860
 20
442.953
 30
-1.85727e-013
  70
    32
  0
VERTEX
  8
0
  5
D9E
 10
201.838
 20
442.874
 30
-1.85716e-013
  70
    32
  0
VERTEX
  8
0
  5
D9F
 10
201.819
 20
442.796
 30
-1.85706e-013
  70
    32
  0
VERTEX
  8
0
  5
DA0
 10
201.800
 20
442.718
 30
-1.85695e-013
  70
    32
  0
VERTEX
  8
0
  5
DA1
 10
201.783
 20
442.640
 30
-1.85684e-013
  70
    32
  0
VERTEX
  8
0
  5
DA2
 10
201.768
 20
442.563
 30
-1.85673e-013
  70
    32
  0
VERTEX
  8
0
  5
DA3
 10
201.754
 20
442.486
 30
-1.85662e-013
  70
    32
  0
VERTEX
  8
0
  5
DA4
 10
201.741
 20
442.409
 30
-1.85650e-013
  70
    32
  0
VERTEX
  8
0
  5
DA5
 10
201.730
 20
442.333
 30
-1.85639e-013
  70
    32
  0
VERTEX
  8
0
  5
DA6
 10
201.721
 20
442.258
 30
-1.85627e-013
  70
    32
  0
VERTEX
  8
0
  5
DA7
 10
201.713
 20
442.183
 30
-1.85614e-013
  70
    32
  0
VERTEX
  8
0
  5
DA8
 10
201.706
 20
442.109
 30
-1.85602e-013
  70
    32
  0
VERTEX
  8
0
  5
DA9
 10
201.701
 20
442.036
 30
-1.85589e-013
  70
    32
  0
VERTEX
  8
0
  5
DAA
 10
201.697
 20
441.963
 30
-1.85577e-013
  70
    32
  0
VERTEX
  8
0
  5
DAB
 10
201.695
 20
441.891
 30
-1.85564e-013
  70
    32
  0
VERTEX
  8
0
  5
DAC
 10
201.695
 20
441.820
 30
-1.85551e-013
  70
    32
  0
VERTEX
  8
0
  5
DAD
 10
201.696
 20
441.750
 30
-1.85537e-013
  70
    32
  0
VERTEX
  8
0
  5
DAE
 10
201.698
 20
441.681
 30
-1.85524e-013
  70
    32
  0
VERTEX
  8
0
  5
DAF
 10
201.702
 20
441.613
 30
-1.85511e-013
  70
    32
  0
VERTEX
  8
0
  5
DB0
 10
201.708
 20
441.545
 30
-1.85497e-013
  70
    32
  0
VERTEX
  8
0
  5
DB1
 10
201.714
 20
441.479
 30
-1.85483e-013
  70
    32
  0
VERTEX
  8
0
  5
DB2
 10
201.723
 20
441.414
 30
-1.85469e-013
  70
    32
  0
VERTEX
  8
0
  5
DB3
 10
201.733
 20
441.350
 30
-1.85455e-013
  70
    32
  0
VERTEX
  8
0
  5
DB4
 10
201.744
 20
441.287
 30
-1.85441e-013
  70
    32
  0
VERTEX
  8
0
  5
DB5
 10
201.757
 20
441.225
 30
-1.85427e-013
  70
    32
  0
VERTEX
  8
0
  5
DB6
 10
201.771
 20
441.165
 30
-1.85413e-013
  70
    32
  0
VERTEX
  8
0
  5
DB7
 10
201.787
 20
441.105
 30
-1.85399e-013
  70
    32
  0
VERTEX
  8
0
  5
DB8
 10
201.804
 20
441.047
 30
-1.85384e-013
  70
    32
  0
VERTEX
  8
0
  5
DB9
 10
201.823
 20
440.991
 30
-1.85370e-013
  70
    32
  0
VERTEX
  8
0
  5
DBA
 10
201.843
 20
440.936
 30
-1.85356e-013
  70
    32
  0
VERTEX
  8
0
  5
DBB
 10
201.864
 20
440.882
 30
-1.85341e-013
  70
    32
  0
VERTEX
  8
0
  5
DBC
 10
201.887
 20
440.829
 30
-1.85327e-013
  70
    32
  0
VERTEX
  8
0
  5
DBD
 10
201.912
 20
440.779
 30
-1.85312e-013
  70
    32
  0
VERTEX
  8
0
  5
DBE
 10
201.937
 20
440.729
 30
-1.85298e-013
  70
    32
  0
VERTEX
  8
0
  5
DBF
 10
201.964
 20
440.681
 30
-1.85283e-013
  70
    32
  0
VERTEX
  8
0
  5
DC0
 10
201.993
 20
440.635
 30
-1.85269e-013
  70
    32
  0
VERTEX
  8
0
  5
DC1
 10
202.022
 20
440.590
 30
-1.85254e-013
  70
    32
  0
VERTEX
  8
0
  5
DC2
 10
202.053
 20
440.547
 30
-1.85240e-013
  70
    32
  0
VERTEX
  8
0
  5
DC3
 10
202.086
 20
440.506
 30
-1.85225e-013
  70
    32
  0
VERTEX
  8
0
  5
DC4
 10
202.119
 20
440.466
 30
-1.85211e-013
  70
    32
  0
VERTEX
  8
0
  5
DC5
 10
202.154
 20
440.428
 30
-1.85197e-013
  70
    32
  0
VERTEX
  8
0
  5
DC6
 10
202.190
 20
440.391
 30
-1.85182e-013
  70
    32
  0
VERTEX
  8
0
  5
DC7
 10
202.227
 20
440.357
 30
-1.85168e-013
  70
    32
  0
VERTEX
  8
0
  5
DC8
 10
202.265
 20
440.324
 30
-1.85154e-013
  70
    32
  0
VERTEX
  8
0
  5
DC9
 10
202.305
 20
440.293
 30
-1.85140e-013
  70
    32
  0
VERTEX
  8
0
  5
DCA
 10
202.346
 20
440.263
 30
-1.85126e-013
  70
    32
  0
VERTEX
  8
0
  5
DCB
 10
202.388
 20
440.236
 30
-1.85112e-013
  70
    32
  0
VERTEX
  8
0
  5
DCC
 10
202.430
 20
440.210
 30
-1.85098e-013
  70
    32
  0
VERTEX
  8
0
  5
DCD
 10
202.474
 20
440.186
 30
-1.85085e-013
  70
    32
  0
VERTEX
  8
0
  5
DCE
 10
202.519
 20
440.164
 30
-1.85071e-013
  70
    32
  0
VERTEX
  8
0
  5
DCF
 10
202.565
 20
440.144
 30
-1.85058e-013
  70
    32
  0
VERTEX
  8
0
  5
DD0
 10
202.612
 20
440.126
 30
-1.85045e-013
  70
    32
  0
VERTEX
  8
0
  5
DD1
 10
202.660
 20
440.109
 30
-1.85032e-013
  70
    32
  0
VERTEX
  8
0
  5
DD2
 10
202.709
 20
440.095
 30
-1.85019e-013
  70
    32
  0
VERTEX
  8
0
  5
DD3
 10
202.759
 20
440.082
 30
-1.85006e-013
  70
    32
  0
VERTEX
  8
0
  5
DD4
 10
202.809
 20
440.072
 30
-1.84994e-013
  70
    32
  0
VERTEX
  8
0
  5
DD5
 10
202.861
 20
440.063
 30
-1.84982e-013
  70
    32
  0
VERTEX
  8
0
  5
DD6
 10
202.913
 20
440.056
 30
-1.84969e-013
  70
    32
  0
VERTEX
  8
0
  5
DD7
 10
202.966
 20
440.051
 30
-1.84957e-013
  70
    32
  0
VERTEX
  8
0
  5
DD8
 10
203.020
 20
440.049
 30
-1.84946e-013
  70
    32
  0
VERTEX
  8
0
  5
DD9
 10
203.074
 20
440.048
 30
-1.84934e-013
  70
    32
  0
VERTEX
  8
0
  5
DDA
 10
203.129
 20
440.049
 30
-1.84923e-013
  70
    32
  0
VERTEX
  8
0
  5
DDB
 10
203.185
 20
440.051
 30
-1.84912e-013
  70
    32
  0
VERTEX
  8
0
  5
DDC
 10
203.241
 20
440.056
 30
-1.84901e-013
  70
    32
  0
VERTEX
  8
0
  5
DDD
 10
203.298
 20
440.063
 30
-1.84890e-013
  70
    32
  0
VERTEX
  8
0
  5
DDE
 10
203.356
 20
440.072
 30
-1.84880e-013
  70
    32
  0
VERTEX
  8
0
  5
DDF
 10
203.414
 20
440.082
 30
-1.84870e-013
  70
    32
  0
VERTEX
  8
0
  5
DE0
 10
203.472
 20
440.095
 30
-1.84860e-013
  70
    32
  0
VERTEX
  8
0
  5
DE1
 10
203.531
 20
440.109
 30
-1.84851e-013
  70
    32
  0
VERTEX
  8
0
  5
DE2
 10
203.590
 20
440.126
 30
-1.84841e-013
  70
    32
  0
VERTEX
  8
0
  5
DE3
 10
203.650
 20
440.144
 30
-1.84832e-013
  70
    32
  0
VERTEX
  8
0
  5
DE4
 10
203.710
 20
440.164
 30
-1.84824e-013
  70
    32
  0
VERTEX
  8
0
  5
DE5
 10
203.770
 20
440.186
 30
-1.84815e-013
  70
    32
  0
VERTEX
  8
0
  5
DE6
 10
203.830
 20
440.210
 30
-1.84807e-013
  70
    32
  0
VERTEX
  8
0
  5
DE7
 10
203.891
 20
440.236
 30
-1.84799e-013
  70
    32
  0
VERTEX
  8
0
  5
DE8
 10
203.952
 20
440.263
 30
-1.84791e-013
  70
    32
  0
VERTEX
  8
0
  5
DE9
 10
204.013
 20
440.293
 30
-1.84784e-013
  70
    32
  0
VERTEX
  8
0
  5
DEA
 10
204.074
 20
440.324
 30
-1.84777e-013
  70
    32
  0
VERTEX
  8
0
  5
DEB
 10
204.135
 20
440.357
 30
-1.84771e-013
  70
    32
  0
VERTEX
  8
0
  5
DEC
 10
204.197
 20
440.392
 30
-1.84764e-013
  70
    32
  0
VERTEX
  8
0
  5
DED
 10
204.258
 20
440.428
 30
-1.84758e-013
  70
    32
  0
VERTEX
  8
0
  5
DEE
 10
204.319
 20
440.466
 30
-1.84753e-013
  70
    32
  0
VERTEX
  8
0
  5
DEF
 10
204.380
 20
440.506
 30
-1.84747e-013
  70
    32
  0
VERTEX
  8
0
  5
DF0
 10
204.441
 20
440.547
 30
-1.84742e-013
  70
    32
  0
VERTEX
  8
0
  5
DF1
 10
204.502
 20
440.590
 30
-1.84738e-013
  70
    32
  0
VERTEX
  8
0
  5
DF2
 10
204.563
 20
440.635
 30
-1.84733e-013
  70
    32
  0
VERTEX
  8
0
  5
DF3
 10
204.623
 20
440.682
 30
-1.84729e-013
  70
    32
  0
SEQEND
  8
0
  5
DF4
  0
LINE
  5
799
  8
0
  6
EURO_COMMON_ROOF-MANSARD$0
 10
204.62307055606169
 20
440.68150039925371
 30
-0.0000000000002422
 11
346.38465459506477
 21
358.8354116935875
 31
-0.000000000000299
210
-0.0000000000000001
220
0.816496580927726
230
0.5773502691896258
  0
LINE
  5
79A
  8
0
  6
EURO_COMMON_ROOF-MANSARD$0
 10
268.33983052106868
 20
496.29228311806082
 30
0.0000000000000568
 11
410.10141456007199
 21
414.4461944123945
 31
0.0000000000002842
210
-0.0000000000000001
220
0.816496580927726
230
0.5773502691896258
  0
LINE
  5
79B
  8
0
  6
EURO_COMMON_ROOF-MANSARD$0
 10
203.7565648023112
 20
445.85565052393031
 30
-0.0000000000002422
 11
268.33983052106868
 21
496.29228311806082
 31
0.0000000000000568
210
-0.0000000000000001
220
0.816496580927726
230
0.5773502691896258
  0
LINE
  5
79C
  8
0
  6
EURO_COMMON_ROOF-MANSARD$0
 10
203.7565648023112
 20
445.85565052393031
 30
-0.0000000000002422
 11
345.51814884131431
 21
364.00956181826427
 31
-0.0000000000002422
210
-0.0000000000000001
220
0.816496580927726
230
0.5773502691896258
  0
LINE
  5
79D
  8
0
  6
EURO_COMMON_ROOF-MANSARD$0
 10
385.22787689356841
 20
429.12561122492781
 30
0.0000000000001137
 11
409.70210682062242
 21
414.99540798833419
 31
0.0000000000002842
210
-0.0000000000000001
220
0.816496580927726
230
0.5773502691896258
  0
LINE
  5
79E
  8
0
  6
EURO_COMMON_ROOF-MANSARD$0
 10
345.1188411018652
 20
364.55877539420379
 30
-0.0000000000002422
 11
409.46749599925317
 21
414.81218746412759
 31
-0.0000000000001767
210
-0.0000000000000001
220
0.816496580927726
230
0.5773502691896258
  0
LINE
  5
79F
  8
0
  6
EURO_COMMON_ROOF-MANSARD$0
 10
337.39942160454922
 20
369.01558431896677
 30
-0.0000000000002422
 11
345.1188411018652
 21
364.55877539420379
 31
-0.0000000000002422
210
-0.0000000000000001
220
0.816496580927726
230
0.5773502691896258
  0
LINE
  5
7A0
  8
0
  6
EURO_COMMON_ROOF-MANSARD$0
 10
345.5777007374304
 20
361.81879515714968
 30
-0.0000000000001285
 11
203.47588889673381
 21
443.86131447570932
 31
-0.0000000000002422
210
-0.0000000000000001
220
0.816496580927726
230
0.5773502691896258
  0
LINE
  5
7A1
  8
0
  6
EURO_COMMON_ROOF-MANSARD$0
 10
370.70712400479277
 20
381.44374714018699
 30
-0.0000000000001853
 11
228.60531216409589
 21
463.48626645874668
 31
-0.000000000000299
210
-0.0000000000000001
220
0.816496580927726
230
0.5773502691896258
  0
LINE
  5
7A2
  8
0
  6
EURO_COMMON_ROOF-MANSARD$0
 10
345.6367806751864
 20
361.4660121941036
 30
-0.0000000000001853
 11
203.53496883448949
 21
443.50853151266318
 31
-0.0000000000002422
210
-0.0000000000000001
220
0.816496580927726
230
0.5773502691896258
  0
LINE
  5
7A3
  8
0
  6
EURO_COMMON_ROOF-MANSARD$0
 10
370.7662039425486
 20
381.0909641771409
 30
-0.000000000000299
 11
228.66439210185189
 21
463.1334834957006
 31
-0.0000000000003559
210
-0.0000000000000001
220
0.816496580927726
230
0.5773502691896258
  0
LINE
  5
7A4
  8
0
  6
EURO_COMMON_ROOF-MANSARD$0
 10
237.06426720255479
 20
469.6934090364071
 30
0.0000000000001705
 11
237.06426720255479
 21
506.896271682438
 31
0.0000000000001137
210
-0.0000000000000001
220
0.816496580927726
230
0.5773502691896258
  0
LINE
  5
7A5
  8
0
  6
EURO_COMMON_ROOF-MANSARD$0
 10
370.42597614085503
 20
380.82526153046678
 30
-0.000000000000299
 11
345.63678067518617
 21
361.4660121941036
 31
-0.0000000000002422
210
-0.0000000000000001
220
0.816496580927726
230
0.5773502691896258
  0
LINE
  5
7A6
  8
0
  6
EURO_COMMON_ROOF-MANSARD$0
 10
345.6367806751864
 20
361.4660121941036
 30
-0.0000000000001853
 11
345.5777007374304
 21
361.81879515714968
 31
-0.0000000000001285
210
-0.0000000000000001
220
0.816496580927726
230
0.5773502691896258
  0
LINE
  5
7A7
  8
0
  6
EURO_COMMON_ROOF-MANSARD$0
 10
345.5777007374304
 20
361.81879515714968
 30
-0.0000000000001285
 11
370.70712400479277
 21
381.44374714018699
 31
-0.000000000000299
210
-0.0000000000000001
220
0.816496580927726
230
0.5773502691896258
  0
LINE
  5
7A8
  8
0
  6
EURO_COMMON_ROOF-MANSARD$0
 10
379.44722690718959
 20
388.26937532756762
 30
0.0000000000001705
 11
379.5063068449453
 21
387.91659236452142
 31
0.0000000000000568
210
-0.0000000000000001
220
0.816496580927726
230
0.5773502691896258
  0
LINE
  5
7A9
  8
0
  6
EURO_COMMON_ROOF-MANSARD$0
 10
379.5063068449453
 20
387.91659236452142
 30
0.0000000000000568
 11
379.5063068449453
 21
424.65732175098458
 31
0.0000000000001137
210
-0.0000000000000001
220
0.816496580927726
230
0.5773502691896258
  0
LINE
  5
7AA
  8
0
  6
EURO_COMMON_ROOF-MANSARD$0
 10
228.3241643001582
 20
462.8677808490267
 30
-0.000000000000299
 11
370.42597614085503
 21
380.82526153046678
 31
-0.000000000000299
210
-0.0000000000000001
220
0.816496580927726
230
0.5773502691896258
  0
LINE
  5
7AB
  8
0
  6
EURO_COMMON_ROOF-MANSARD$0
 10
379.16607904325178
 20
289.47021928793822
 30
0.0000000000000853
 11
379.16607904325178
 21
387.65088971784752
 31
0.0000000000000568
210
-0.0000000000000001
220
0.816496580927726
230
0.5773502691896258
  0
LINE
  5
7AC
  8
0
  6
EURO_COMMON_ROOF-MANSARD$0
 10
237.4044950042485
 20
505.77557455040909
 30
0.0000000000000568
 11
237.40449500424839
 21
469.95911168308129
 31
0.0000000000001137
210
-0.0000000000000001
220
0.816496580927726
230
0.5773502691896258
  0
LINE
  5
7AD
  8
0
  6
EURO_COMMON_ROOF-MANSARD$0
 10
237.40449500424839
 20
469.95911168308129
 30
0.0000000000001137
 11
237.34541506649271
 21
470.31189464612731
 31
0.0000000000000568
210
-0.0000000000000001
220
0.816496580927726
230
0.5773502691896258
  0
LINE
  5
7AE
  8
0
  6
EURO_COMMON_ROOF-MANSARD$0
 10
228.60531216409589
 20
463.48626645874691
 30
-0.0000000000001853
 11
203.47588889673381
 21
443.86131447570932
 31
-0.0000000000002422
210
-0.0000000000000001
220
0.816496580927726
230
0.5773502691896258
  0
LINE
  5
7AF
  8
0
  6
EURO_COMMON_ROOF-MANSARD$0
 10
203.47588889673381
 20
443.86131447570932
 30
-0.0000000000002422
 11
203.53496883448949
 21
443.50853151266341
 31
-0.000000000000299
210
-0.0000000000000001
220
0.816496580927726
230
0.5773502691896258
  0
LINE
  5
7B0
  8
0
  6
EURO_COMMON_ROOF-MANSARD$0
 10
203.53496883448929
 20
443.50853151266318
 30
-0.0000000000002422
 11
228.3241643001582
 21
462.8677808490267
 31
-0.000000000000299
210
-0.0000000000000001
220
0.816496580927726
230
0.5773502691896258
  0
LINE
  5
7B1
  8
0
  6
EURO_COMMON_ROOF-MANSARD$0
 10
237.0642672025549
 20
469.69340903640727
 30
0.0000000000000568
 11
237.06426720255479
 21
431.53031818364889
 31
0.0000000000002274
210
-0.0000000000000001
220
0.816496580927726
230
0.5773502691896258
  0
LINE
  5
7B2
  8
0
  6
EURO_COMMON_ROOF-MANSARD$0
 10
237.0642672025549
 20
371.90559983228508
 30
0.0000000000000568
 11
379.84653464663899
 21
289.47021928793828
 31
0.0000000000000853
210
-0.0000000000000001
220
0.816496580927726
230
0.5773502691896258
  0
LINE
  5
7B3
  8
0
  6
EURO_COMMON_ROOF-MANSARD$0
 10
203.69748486455569
 20
352.64127906744972
 30
0.0000000000001137
 11
237.0642672025549
 21
371.90559983228508
 31
0.0000000000000568
210
-0.0000000000000001
220
0.816496580927726
230
0.5773502691896258
  0
LINE
  5
7B4
  8
0
  6
EURO_COMMON_ROOF-MANSARD$0
 10
379.16607904325178
 20
289.47021928793822
 30
0.0000000000000853
 11
346.1395245069458
 21
308.5381094398802
 31
0.0000000000001705
210
-0.0000000000000001
220
0.816496580927726
230
0.5773502691896258
  0
LINE
  5
7B5
  8
0
  6
EURO_COMMON_ROOF-MANSARD$0
 10
346.1395245069462
 20
270.4023291359963
 30
0.0000000000001705
 11
379.16607904325178
 21
289.47021928793822
 31
0.0000000000000853
210
-0.0000000000000001
220
0.816496580927726
230
0.5773502691896258
  0
LINE
  5
7B6
  8
0
  6
EURO_COMMON_ROOF-MANSARD$0
 10
329.17386889546231
 20
539.93793373437995
 30
0.0000000000000568
 11
470.9354529344655
 21
458.09184502871369
 31
0.0000000000002274
210
-0.0000000000000001
220
0.816496580927726
230
0.5773502691896258
  0
LINE
  5
7B7
  8
0
  6
EURO_COMMON_ROOF-MANSARD$0
 10
337.39942160454922
 20
361.73006082965048
 30
-0.0000000000001853
 11
343.94659017047502
 21
357.95005129568341
 31
-0.0000000000002422
210
-0.0000000000000001
220
0.816496580927726
230
0.5773502691896258
  0
LINE
  5
7B8
  8
0
  6
EURO_COMMON_ROOF-MANSARD$0
 10
202.42558351719771
 20
440.21283225657879
 30
-0.0000000000001853
 11
344.18716755620079
 21
358.36674355091259
 31
-0.0000000000002422
210
-0.0000000000000001
220
0.816496580927726
230
0.5773502691896258
  0
ENDSEC
  0
EOF
