  0
SECTION
  2
HEADER
  9
$ACADVER
  1
AC1009
  9
$INSBASE
 10
0.0
 20
0.0
 30
0.0
  9
$EXTMIN
 10
-19.184669260484782
 20
3.9267153554377501
 30
-0.0015258207003583
  9
$EXTMAX
 10
163.82084009908019
 20
151.11511932233091
 30
0.0000000349246037
  9
$LIMMIN
 10
0.0
 20
0.0
  9
$LIMMAX
 10
12.0
 20
9.0
  9
$ORTHOMODE
 70
     0
  9
$REGENMODE
 70
     1
  9
$FILLMODE
 70
     1
  9
$QTEXTMODE
 70
     0
  9
$MIRRTEXT
 70
     0
  9
$DRAGMODE
 70
     2
  9
$LTSCALE
 40
0.2
  9
$OSMODE
 70
     0
  9
$ATTMODE
 70
     1
  9
$TEXTSIZE
 40
25.0
  9
$TRACEWID
 40
0.05
  9
$TEXTSTYLE
  7
ARIAL
  9
$CLAYER
  8
0
  9
$CELTYPE
  6
CONTINUOUS
  9
$CECOLOR
 62
   256
  9
$DIMSCALE
 40
1.0
  9
$DIMASZ
 40
2.0
  9
$DIMEXO
 40
2.0
  9
$DIMDLI
 40
6.0
  9
$DIMRND
 40
0.0
  9
$DIMDLE
 40
2.0
  9
$DIMEXE
 40
2.0
  9
$DIMTP
 40
0.0
  9
$DIMTM
 40
0.0
  9
$DIMTXT
 40
2.0
  9
$DIMCEN
 40
2.0
  9
$DIMTSZ
 40
0.0
  9
$DIMTOL
 70
     0
  9
$DIMLIM
 70
     0
  9
$DIMTIH
 70
     0
  9
$DIMTOH
 70
     0
  9
$DIMSE1
 70
     0
  9
$DIMSE2
 70
     0
  9
$DIMTAD
 70
     1
  9
$DIMZIN
 70
     0
  9
$DIMBLK
  1
ARCHTICK
  9
$DIMASO
 70
     1
  9
$DIMSHO
 70
     1
  9
$DIMPOST
  1

  9
$DIMAPOST
  1

  9
$DIMALT
 70
     0
  9
$DIMALTD
 70
     2
  9
$DIMALTF
 40
0.0394
  9
$DIMLFAC
 40
1.0
  9
$DIMTOFL
 70
     0
  9
$DIMTVP
 40
0.0
  9
$DIMTIX
 70
     0
  9
$DIMSOXD
 70
     0
  9
$DIMSAH
 70
     0
  9
$DIMBLK1
  1

  9
$DIMBLK2
  1

  9
$DIMSTYLE
  2
1_TO_1
  9
$DIMCLRD
 70
   256
  9
$DIMCLRE
 70
   256
  9
$DIMCLRT
 70
   256
  9
$DIMTFAC
 40
1.0
  9
$DIMGAP
 40
1.0
  9
$LUNITS
 70
     2
  9
$LUPREC
 70
     1
  9
$SKETCHINC
 40
0.1
  9
$FILLETRAD
 40
0.0
  9
$AUNITS
 70
     1
  9
$AUPREC
 70
     4
  9
$MENU
  1
.
  9
$ELEVATION
 40
0.0
  9
$PELEVATION
 40
0.0
  9
$THICKNESS
 40
0.0
  9
$LIMCHECK
 70
     0
  9
$BLIPMODE
 70
     0
  9
$CHAMFERA
 40
0.0
  9
$CHAMFERB
 40
0.0
  9
$SKPOLY
 70
     0
  9
$TDCREATE
 40
2452152.65359294
  9
$TDUPDATE
 40
2455419.600452187
  9
$TDINDWG
 40
25.8558772801
  9
$TDUSRTIMER
 40
25.8558772801
  9
$USRTIMER
 70
     1
  9
$ANGBASE
 50
0.0
  9
$ANGDIR
 70
     0
  9
$PDMODE
 70
     0
  9
$PDSIZE
 40
0.0
  9
$PLINEWID
 40
0.0
  9
$COORDS
 70
     1
  9
$SPLFRAME
 70
     0
  9
$SPLINETYPE
 70
     6
  9
$SPLINESEGS
 70
     8
  9
$ATTDIA
 70
     0
  9
$ATTREQ
 70
     0
  9
$HANDLING
 70
     1
  9
$HANDSEED
  5
4C3
  9
$SURFTAB1
 70
     6
  9
$SURFTAB2
 70
     6
  9
$SURFTYPE
 70
     6
  9
$SURFU
 70
     6
  9
$SURFV
 70
     6
  9
$UCSNAME
  2

  9
$UCSORG
 10
0.0
 20
0.0
 30
0.0
  9
$UCSXDIR
 10
1.0
 20
0.0
 30
0.0
  9
$UCSYDIR
 10
0.0
 20
1.0
 30
0.0
  9
$PUCSNAME
  2

  9
$PUCSORG
 10
0.0
 20
0.0
 30
0.0
  9
$PUCSXDIR
 10
1.0
 20
0.0
 30
0.0
  9
$PUCSYDIR
 10
0.0
 20
1.0
 30
0.0
  9
$USERI1
 70
     0
  9
$USERI2
 70
     0
  9
$USERI3
 70
     0
  9
$USERI4
 70
     0
  9
$USERI5
 70
     0
  9
$USERR1
 40
0.0
  9
$USERR2
 40
0.0
  9
$USERR3
 40
0.0
  9
$USERR4
 40
0.0
  9
$USERR5
 40
0.0
  9
$WORLDVIEW
 70
     1
  9
$SHADEDGE
 70
     3
  9
$SHADEDIF
 70
    70
  9
$TILEMODE
 70
     1
  9
$MAXACTVP
 70
    48
  9
$PLIMCHECK
 70
     0
  9
$PEXTMIN
 10
0.0
 20
0.0
 30
0.0
  9
$PEXTMAX
 10
208.41041893864801
 20
295.40953368001158
 30
0.0
  9
$PLIMMIN
 10
-0.793749988079071
 20
-0.793749988079071
  9
$PLIMMAX
 10
209.2062500119209
 20
296.20625001192087
  9
$UNITMODE
 70
     0
  9
$VISRETAIN
 70
     1
  9
$PLINEGEN
 70
     1
  9
$PSLTSCALE
 70
     1
  0
ENDSEC
  0
SECTION
  2
TABLES
  0
TABLE
  2
VPORT
 70
     1
  0
VPORT
  2
*ACTIVE
 70
     0
 10
0.0
 20
0.0
 11
1.0
 21
1.0
 12
72.318085419297745
 22
77.520917338884345
 13
0.0
 23
0.0
 14
1.0
 24
1.0
 15
50.0
 25
50.0
 16
0.0
 26
0.0
 36
1.0
 17
0.0
 27
0.0
 37
0.0
 40
148.42528131115279
 41
1.978962131837307
 42
50.0
 43
0.0
 44
0.0
 50
0.0
 51
0.0
 71
     0
 72
 20000
 73
     1
 74
     3
 75
     0
 76
     0
 77
     0
 78
     0
  0
ENDTAB
  0
TABLE
  2
LTYPE
 70
     2
  0
LTYPE
  2
CONTINUOUS
 70
     0
  3
Solid line
 72
    65
 73
     0
 40
0.0
  0
ENDTAB
  0
TABLE
  2
LAYER
 70
     6
  0
LAYER
  2
0
 70
     0
 62
     7
  6
CONTINUOUS
  0
ENDTAB
  0
TABLE
  2
STYLE
 70
     4
  0
STYLE
  2
STANDARD
 70
     0
 40
0.0
 41
1.0
 50
0.0
 71
     0
 42
1.5
  3
romans.shx
  4

  0
STYLE
  2
ARIAL
 70
     0
 40
0.0
 41
1.0
 50
0.0
 71
     0
 42
25.0
  3
txt
  4

  0
STYLE
  2
EURO_COMMON_CLADHEADFLSH-L
 70
     0
 40
0.0
 41
1.0
 50
0.0
 71
     0
 42
25.0
  3
txt
  4

  0
ENDTAB
  0
TABLE
  2
VIEW
 70
     2
  0
VIEW
  2
09
 70
     0
 40
2970.0
 10
19050.0
 20
1485.0
 41
2100.0
 11
0.0
 21
0.0
 31
1.0
 12
0.0
 22
0.0
 32
0.0
 42
50.0
 43
0.0
 44
0.0
 50
0.0
 71
     0
  0
VIEW
  2
COMM-04
 70
     1
 40
477.26027331217421
 10
194.21746115522001
 20
180.60494410563541
 41
755.81685306636155
 11
0.0
 21
0.0
 31
1.0
 12
0.0
 22
0.0
 32
0.0
 42
50.0
 43
0.0
 44
0.0
 50
0.0
 71
     0
  0
ENDTAB
  0
TABLE
  2
UCS
 70
     0
  0
ENDTAB
  0
TABLE
  2
APPID
 70
     7
  0
APPID
  2
ACAD
 70
     0
  0
APPID
  2
RAK
 70
     0
  0
APPID
  2
GENIUS_GENOREF_13
 70
     0
  0
APPID
  2
ACAD_PSEXT
 70
     0
  0
APPID
  2
ACAD_MLEADERVER
 70
     0
  0
APPID
  2
ACAD_EXEMPT_FROM_CAD_STANDARDS
 70
     0
  0
APPID
  2
ACADANNOTATIVE
 70
     0
  0
ENDTAB
  0
TABLE
  2
DIMSTYLE
 70
     2
  0
DIMSTYLE
  2
1_TO_1
 70
     0
  3

  4

  5
ARCHTICK
  6

  7

 40
1.0
 41
2.0
 42
2.0
 43
6.0
 44
2.0
 45
0.0
 46
2.0
 47
0.0
 48
0.0
140
2.0
141
2.0
142
0.0
143
0.0394
144
1.0
145
0.0
146
1.0
147
1.0
 71
     0
 72
     0
 73
     0
 74
     0
 75
     0
 76
     0
 77
     1
 78
     0
170
     0
171
     2
172
     0
173
     0
174
     0
175
     0
176
   256
177
   256
178
   256
  0
DIMSTYLE
  2
EURO_COMMON_CLADHEADFLSH-L
 70
     0
  3

  4

  5
EURO_COMMON_CLADHEADFLSH-L
  6

  7

 40
1.0
 41
2.0
 42
2.0
 43
6.0
 44
2.0
 45
0.0
 46
2.0
 47
0.0
 48
0.0
140
2.0
141
2.0
142
0.0
143
0.0394
144
1.0
145
0.0
146
1.0
147
1.0
 71
     0
 72
     0
 73
     0
 74
     0
 75
     0
 76
     0
 77
     1
 78
     0
170
     0
171
     2
172
     0
173
     0
174
     0
175
     0
176
   256
177
   256
178
   256
  0
ENDTAB
  0
ENDSEC
  0
SECTION
  2
BLOCKS
  0
BLOCK
  8
0
  2
$MODEL_SPACE
 70
     0
 10
0.0
 20
0.0
 30
0.0
  3
$MODEL_SPACE
  1

  0
ENDBLK
  5
17
  8
0
  0
BLOCK
 67
     1
  8
0
  2
$PAPER_SPACE
 70
     0
 10
0.0
 20
0.0
 30
0.0
  3
$PAPER_SPACE
  1

  0
ENDBLK
  5
20
 67
     1
  8
0
  0
BLOCK
  8
0
  2
_ARCHTICK
 70
     0
 10
0.0
 20
0.0
 30
0.0
  3
_ARCHTICK
  1

  0
POLYLINE
  5
11A
  8
0
  6
BYBLOCK
 62
     0
 66
     1
 10
0.0
 20
0.0
 30
0.0
 40
0.15
 41
0.15
  0
VERTEX
  5
43C
  8
0
  6
BYBLOCK
 62
     0
 10
-0.5
 20
-0.5
 30
0.0
  0
VERTEX
  5
43D
  8
0
  6
BYBLOCK
 62
     0
 10
0.5
 20
0.5
 30
0.0
  0
SEQEND
  5
43E
  8
0
  6
BYBLOCK
 62
     0
  0
ENDBLK
  5
11C
  8
0
  0
BLOCK
  8
0
  2
EURO_COMMON_CLADHEADFLSH-L
 70
     0
 10
0.0
 20
0.0
 30
0.0
  3
EURO_COMMON_CLADHEADFLSH-L
  1

  0
POLYLINE
  5
387
  8
0
  6
BYBLOCK
 62
     0
 66
     1
 10
0.0
 20
0.0
 30
0.0
 40
0.15
 41
0.15
  0
VERTEX
  5
445
  8
0
  6
BYBLOCK
 62
     0
 10
-0.5
 20
-0.5
 30
0.0
  0
VERTEX
  5
446
  8
0
  6
BYBLOCK
 62
     0
 10
0.5
 20
0.5
 30
0.0
  0
SEQEND
  5
447
  8
0
  6
BYBLOCK
 62
     0
  0
ENDBLK
  5
388
  8
0
  0
BLOCK
  8
0
  2
*U3
 70
     1
 10
0.0
 20
0.0
 30
0.0
  3
*U3
  1

  0
SOLID
  5
465
  8
0
  6
CONTINUOUS
 10
69.352664457570086
 20
52.875780710976088
 30
0.0
 11
67.831899612393954
 21
54.216819635387871
 31
0.0
 12
69.705392495477895
 22
53.441490332352778
 32
0.0
 13
69.705392495477895
 23
53.441490332352778
 33
0.0
  0
POLYLINE
  5
466
  8
0
  6
CONTINUOUS
 66
     1
 10
0.0
 20
0.0
 30
0.0
  0
VERTEX
  5
467
  8
0
  6
CONTINUOUS
 10
69.529028476524005
 20
53.158635521664444
 30
0.0
  0
VERTEX
  5
468
  8
0
  6
CONTINUOUS
 10
85.0
 20
43.512263560156377
 30
0.0
  0
VERTEX
  5
469
  8
0
  6
CONTINUOUS
 10
87.0
 20
43.512263560156377
 30
0.0
  0
SEQEND
  5
46A
  8
0
  6
CONTINUOUS
  0
ENDBLK
  5
46C
  8
0
  0
BLOCK
  8
0
  2
*U4
 70
     1
 10
0.0
 20
0.0
 30
0.0
  3
*U4
  1

  0
TEXT
  5
46E
  8
0
  6
CONTINUOUS
 10
87.924965893587995
 20
42.806260831643407
 30
0.0
 40
2.0
  1
Jamb overflashing
  7
EURO_COMMON_CLADHEADFLSH-L
  0
ENDBLK
  5
470
  8
0
  0
BLOCK
  8
0
  2
*U5
 70
     1
 10
0.0
 20
0.0
 30
0.0
  3
*U5
  1

  0
SOLID
  5
472
  8
0
  6
CONTINUOUS
 10
56.102581282117299
 20
43.63273236877923
 30
0.0
 11
54.271596512521683
 21
44.50371221046327
 31
0.0
 12
56.286089081063722
 22
44.273645258468839
 32
0.0
 13
56.286089081063722
 23
44.273645258468839
 33
0.0
  0
POLYLINE
  5
473
  8
0
  6
CONTINUOUS
 66
     1
 10
0.0
 20
0.0
 30
0.0
  0
VERTEX
  5
474
  8
0
  6
CONTINUOUS
 10
56.194335181590517
 20
43.953188813624031
 30
0.0
  0
VERTEX
  5
475
  8
0
  6
CONTINUOUS
 10
85.0
 20
35.705478035682738
 30
0.0
  0
VERTEX
  5
476
  8
0
  6
CONTINUOUS
 10
87.0
 20
35.705478035682738
 30
0.0
  0
SEQEND
  5
477
  8
0
  6
CONTINUOUS
  0
ENDBLK
  5
479
  8
0
  0
BLOCK
  8
0
  2
*U6
 70
     1
 10
0.0
 20
0.0
 30
0.0
  3
*U6
  1

  0
TEXT
  5
47B
  8
0
  6
CONTINUOUS
 10
87.795361527967259
 20
34.721849113445373
 30
0.0
 40
2.0
  1
Lower side sheet
  7
EURO_COMMON_CLADHEADFLSH-L
  0
ENDBLK
  5
47D
  8
0
  0
BLOCK
  8
0
  2
*U7
 70
     1
 10
0.0
 20
0.0
 30
0.0
  3
*U7
  1

  0
SOLID
  5
47F
  8
0
  6
CONTINUOUS
 10
67.996818038571647
 20
78.420427210989246
 30
0.0
 11
66.659158405750077
 21
79.944165317696161
 31
0.0
 12
68.418697444378125
 22
78.936626989564175
 32
0.0
 13
68.418697444378125
 23
78.936626989564175
 33
0.0
  0
POLYLINE
  5
480
  8
0
  6
CONTINUOUS
 66
     1
 10
0.0
 20
0.0
 30
0.0
  0
VERTEX
  5
481
  8
0
  6
CONTINUOUS
 10
68.207757741474879
 20
78.67852710027671
 30
0.0
  0
VERTEX
  5
482
  8
0
  6
CONTINUOUS
 10
85.0
 20
64.954574707769666
 30
0.0
  0
VERTEX
  5
483
  8
0
  6
CONTINUOUS
 10
87.0
 20
64.954574707769666
 30
0.0
  0
SEQEND
  5
484
  8
0
  6
CONTINUOUS
  0
ENDBLK
  5
486
  8
0
  0
BLOCK
  8
0
  2
*U8
 70
     1
 10
0.0
 20
0.0
 30
0.0
  3
*U8
  1

  0
TEXT
  5
488
  8
0
  6
CONTINUOUS
 10
87.784447476125507
 20
65.898867568160753
 30
0.0
 40
2.0
  1
Primary head flashing - between
  7
EURO_COMMON_CLADHEADFLSH-L
  0
TEXT
  5
489
  8
0
  6
CONTINUOUS
 10
87.821282401091409
 20
62.548481028824689
 30
0.0
 40
2.0
  1
upper and lower side sheets
  7
EURO_COMMON_CLADHEADFLSH-L
  0
ENDBLK
  5
48B
  8
0
  0
BLOCK
  8
0
  2
*U9
 70
     1
 10
0.0
 20
0.0
 30
0.0
  3
*U9
  1

  0
SOLID
  5
48D
  8
0
  6
CONTINUOUS
 10
66.470512456001416
 20
76.432496846128458
 30
0.0
 11
65.499999999998124
 21
78.212726236924354
 31
0.0
 12
66.995424017556672
 22
76.843486258388765
 32
0.0
 13
66.995424017556672
 23
76.843486258388765
 33
0.0
  0
POLYLINE
  5
48E
  8
0
  6
CONTINUOUS
 66
     1
 10
0.0
 20
0.0
 30
0.0
  0
VERTEX
  5
48F
  8
0
  6
CONTINUOUS
 10
66.732968236779044
 20
76.637991552258612
 30
0.0
  0
VERTEX
  5
490
  8
0
  6
CONTINUOUS
 10
85.0
 20
53.30752151635749
 30
0.0
  0
VERTEX
  5
491
  8
0
  6
CONTINUOUS
 10
87.0
 20
53.30752151635749
 30
0.0
  0
SEQEND
  5
492
  8
0
  6
CONTINUOUS
  0
ENDBLK
  5
494
  8
0
  0
BLOCK
  8
0
  2
*U10
 70
     1
 10
0.0
 20
0.0
 30
0.0
  3
*U10
  1

  0
TEXT
  5
496
  8
0
  6
CONTINUOUS
 10
87.934515688949503
 20
54.285238660513933
 30
0.0
 40
2.0
  1
Turn down and seal
  7
EURO_COMMON_CLADHEADFLSH-L
  0
TEXT
  5
497
  8
0
  6
CONTINUOUS
 10
87.89768076398363
 20
50.934852121177869
 30
0.0
 40
2.0
  1
end of head flashing
  7
EURO_COMMON_CLADHEADFLSH-L
  0
ENDBLK
  5
499
  8
0
  0
BLOCK
  8
0
  2
*U11
 70
     1
 10
0.0
 20
0.0
 30
0.0
  3
*U11
  1

  0
SOLID
  5
49B
  8
0
  6
CONTINUOUS
 10
24.549791456688851
 20
111.1020367144276
 30
0.0
 11
26.314840079157872
 21
110.1041817793638
 31
0.0
 12
24.321570862747549
 22
110.4756504079477
 32
0.0
 13
24.321570862747549
 23
110.4756504079477
 33
0.0
  0
POLYLINE
  5
49C
  8
0
  6
CONTINUOUS
 66
     1
 10
0.0
 20
0.0
 30
0.0
  0
VERTEX
  5
49D
  8
0
  6
CONTINUOUS
 10
24.4356811597182
 20
110.7888435611877
 30
0.0
  0
VERTEX
  5
49E
  8
0
  6
CONTINUOUS
 10
-3.4628504903548669
 20
120.95352851263679
 30
0.0
  0
VERTEX
  5
49F
  8
0
  6
CONTINUOUS
 10
-5.4628504903548674
 20
120.95352851263679
 30
0.0
  0
SEQEND
  5
4A0
  8
0
  6
CONTINUOUS
  0
ENDBLK
  5
4A2
  8
0
  0
BLOCK
  8
0
  2
*U12
 70
     1
 10
0.0
 20
0.0
 30
0.0
  3
*U12
  1

  0
TEXT
  5
4A4
  8
0
  6
CONTINUOUS
 10
-14.110872318458551
 20
121.63656625706609
 30
0.0
 40
2.0
  1
Upper
  7
EURO_COMMON_CLADHEADFLSH-L
  0
TEXT
  5
4A5
  8
0
  6
CONTINUOUS
 10
-19.179085142469461
 20
118.30323292373269
 30
0.0
 40
2.0
  1
side sheet
  7
EURO_COMMON_CLADHEADFLSH-L
  0
ENDBLK
  5
4A7
  8
0
  0
BLOCK
  8
0
  2
*U13
 70
     1
 10
0.0
 20
0.0
 30
0.0
  3
*U13
  1

  0
SOLID
  5
4A9
  8
0
  6
CONTINUOUS
 10
12.0188205948755
 20
94.368796854001687
 30
0.0
 11
13.52497630892276
 21
93.011370584860757
 31
0.0
 12
11.659988059697209
 22
93.806939526789549
 32
0.0
 13
11.659988059697209
 23
93.806939526789549
 33
0.0
  0
POLYLINE
  5
4AA
  8
0
  6
CONTINUOUS
 66
     1
 10
0.0
 20
0.0
 30
0.0
  0
VERTEX
  5
4AB
  8
0
  6
CONTINUOUS
 10
11.839404327286349
 20
94.087868190395596
 30
0.0
  0
VERTEX
  5
4AC
  8
0
  6
CONTINUOUS
 10
-3.4628504903548669
 20
103.86071731813369
 30
0.0
  0
VERTEX
  5
4AD
  8
0
  6
CONTINUOUS
 10
-5.4628504903548674
 20
103.86071731813369
 30
0.0
  0
SEQEND
  5
4AE
  8
0
  6
CONTINUOUS
  0
ENDBLK
  5
4B0
  8
0
  0
BLOCK
  8
0
  2
*U14
 70
     1
 10
0.0
 20
0.0
 30
0.0
  3
*U14
  1

  0
TEXT
  5
4B2
  8
0
  6
CONTINUOUS
 10
-18.555619931009709
 20
102.87708839589629
 30
0.0
 40
2.0
  1
Full sheet
  7
EURO_COMMON_CLADHEADFLSH-L
  0
ENDBLK
  5
4B4
  8
0
  0
BLOCK
  8
0
  2
*U15
 70
     1
 10
0.0
 20
0.0
 30
0.0
  3
*U15
  1

  0
SOLID
  5
4B6
  8
0
  6
CONTINUOUS
 10
83.785218249981995
 20
106.7249933649816
 30
0.0
 11
83.113812887425979
 21
104.8117955314469
 31
0.0
 12
83.128429473562306
 22
106.8393303564303
 32
0.0
 13
83.128429473562306
 23
106.8393303564303
 33
0.0
  0
POLYLINE
  5
4B7
  8
0
  6
CONTINUOUS
 66
     1
 10
0.0
 20
0.0
 30
0.0
  0
VERTEX
  5
4B8
  8
0
  6
CONTINUOUS
 10
83.456823861772165
 20
106.782161860706
 30
0.0
  0
VERTEX
  5
4B9
  8
0
  6
CONTINUOUS
 10
85.0
 20
115.64666629435
 30
0.0
  0
VERTEX
  5
4BA
  8
0
  6
CONTINUOUS
 10
87.0
 20
115.64666629435
 30
0.0
  0
SEQEND
  5
4BB
  8
0
  6
CONTINUOUS
  0
ENDBLK
  5
4BD
  8
0
  0
BLOCK
  8
0
  2
*U16
 70
     1
 10
0.0
 20
0.0
 30
0.0
  3
*U16
  1

  0
TEXT
  5
4BF
  8
0
  6
CONTINUOUS
 10
87.874488403819925
 20
116.6243834385064
 30
0.0
 40
2.0
  1
Secondary head flashing to back
  7
EURO_COMMON_CLADHEADFLSH-L
  0
TEXT
  5
4C0
  8
0
  6
CONTINUOUS
 10
87.907230559345152
 20
113.2569436931676
 30
0.0
 40
2.0
  1
of cavity and sealed to jamb
  7
EURO_COMMON_CLADHEADFLSH-L
  0
ENDBLK
  5
4C2
  8
0
  0
ENDSEC
  0
SECTION
  2
ENTITIES
  0
LINE
  5
3A3
  8
0
 10
150.83968817999121
 20
76.212726236924894
 30
0.0
 11
65.499999999998167
 21
76.212726236923288
 31
0.0
  0
LINE
  5
3A4
  8
0
 10
77.641342353852522
 20
80.212726236923885
 30
0.0
 11
77.64134235385319
 21
102.2127262369237
 31
0.0
  0
LINE
  5
3A5
  8
0
 10
150.83968817999121
 20
80.21272623692505
 30
0.0
 11
19.118049850272872
 21
80.212726236923174
 31
0.0
  0
LINE
  5
3A6
  8
0
 10
70.0
 20
76.212726236924937
 30
0.0
 11
69.999999999998707
 21
18.959535019632199
 31
0.0
  0
LINE
  5
3A7
  8
0
 10
65.499999999998181
 20
106.2127262369237
 30
0.0
 11
65.499999999998167
 21
80.212726236923814
 31
0.0
  0
LINE
  5
3A8
  8
0
 10
70.499999999998181
 20
104.8117955314469
 30
0.0
 11
70.499999999998153
 21
76.212726236923373
 31
0.0
  0
LINE
  5
3A9
  8
0
 10
69.499999999999204
 20
76.212726236923885
 30
0.0
 11
69.499999999997911
 21
18.959535019631151
 31
0.0
  0
LINE
  5
3AA
  8
0
 10
65.999999999998167
 20
76.212726236924937
 30
0.0
 11
65.999999999996874
 21
18.959535019632199
 31
0.0
  0
LINE
  5
3AB
  8
0
 10
77.883527559543055
 20
136.3466238895503
 30
0.0
 11
77.883527559541776
 21
80.212726236923885
 31
0.0
  0
LINE
  5
3AC
  8
0
 10
77.383527559542387
 20
136.3466238895503
 30
0.0
 11
77.383527559541122
 21
80.212726236923885
 31
0.0
  0
POLYLINE
  5
3AD
  8
0
  6
CONTINUOUS
 66
     1
 10
0.0
 20
0.0
 30
0.0
 70
   128
  0
VERTEX
  5
448
  8
0
  6
CONTINUOUS
 10
-7.9894624464363284
 20
18.959535019632199
 30
0.0
  0
VERTEX
  5
449
  8
0
  6
CONTINUOUS
 10
37.488565406125417
 20
18.959535019632199
 30
0.0
  0
VERTEX
  5
44A
  8
0
  6
CONTINUOUS
 10
38.488565406125161
 20
16.212057600177911
 30
0.0
  0
VERTEX
  5
44B
  8
0
  6
CONTINUOUS
 10
40.488565406125161
 20
21.70701243908697
 30
0.0
  0
VERTEX
  5
44C
  8
0
  6
CONTINUOUS
 10
41.48856540612541
 20
18.959535019632199
 30
0.0
  0
VERTEX
  5
44D
  8
0
  6
CONTINUOUS
 10
84.477799928271224
 20
18.959535019632199
 30
0.0
  0
SEQEND
  5
44E
  8
0
  6
CONTINUOUS
  0
POLYLINE
  5
3AE
  8
0
  6
CONTINUOUS
 66
     1
 10
0.0
 20
0.0
 30
0.0
 70
   128
  0
VERTEX
  5
44F
  8
0
  6
CONTINUOUS
 10
7.3940700100875407
 20
3.9322708571347671
 30
0.0
  0
VERTEX
  5
450
  8
0
  6
CONTINUOUS
 10
7.3940700100875443
 20
76.62523848570811
 30
0.0
  0
VERTEX
  5
451
  8
0
  6
CONTINUOUS
 10
10.141547429541779
 20
77.625238485708053
 30
0.0
  0
VERTEX
  5
452
  8
0
  6
CONTINUOUS
 10
4.646592590632733
 20
79.625238485708053
 30
0.0
  0
VERTEX
  5
453
  8
0
  6
CONTINUOUS
 10
7.3940700100875443
 20
80.625238485708095
 30
0.0
  0
VERTEX
  5
454
  8
0
  6
CONTINUOUS
 10
7.394070010087554
 20
151.11050744377761
 30
0.0
  0
SEQEND
  5
455
  8
0
  6
CONTINUOUS
  0
POLYLINE
  5
3AF
  8
0
  6
CONTINUOUS
 66
     1
 10
0.0
 20
0.0
 30
0.0
 70
   128
  0
VERTEX
  5
456
  8
0
  6
CONTINUOUS
 10
150.83968817999121
 20
62.268921146410882
 30
0.0
  0
VERTEX
  5
457
  8
0
  6
CONTINUOUS
 10
150.83968817999121
 20
102.4322036437828
 30
0.0
  0
VERTEX
  5
458
  8
0
  6
CONTINUOUS
 10
153.58716559944591
 20
103.432203643783
 30
0.0
  0
VERTEX
  5
459
  8
0
  6
CONTINUOUS
 10
148.0922107605366
 20
105.432203643783
 30
0.0
  0
VERTEX
  5
45A
  8
0
  6
CONTINUOUS
 10
150.83968817999121
 20
106.4322036437828
 30
0.0
  0
VERTEX
  5
45B
  8
0
  6
CONTINUOUS
 10
150.8396881799913
 20
151.11050744377761
 30
0.0
  0
SEQEND
  5
45C
  8
0
  6
CONTINUOUS
  0
POLYLINE
  5
3B0
  8
0
  6
CONTINUOUS
 66
     1
 10
0.0
 20
0.0
 30
0.0
 70
   128
  0
VERTEX
  5
45D
  8
0
  6
CONTINUOUS
 10
-7.9894624464363062
 20
136.3466238895503
 30
0.0
  0
VERTEX
  5
45E
  8
0
  6
CONTINUOUS
 10
80.492273166874625
 20
136.3466238895503
 30
0.0
  0
VERTEX
  5
45F
  8
0
  6
CONTINUOUS
 10
81.492273166874355
 20
133.599146470096
 30
0.0
  0
VERTEX
  5
460
  8
0
  6
CONTINUOUS
 10
83.492273166874355
 20
139.094101309005
 30
0.0
  0
VERTEX
  5
461
  8
0
  6
CONTINUOUS
 10
84.492273166874597
 20
136.3466238895503
 30
0.0
  0
VERTEX
  5
462
  8
0
  6
CONTINUOUS
 10
163.81525512893131
 20
136.3466238895503
 30
0.0
  0
SEQEND
  5
463
  8
0
  6
CONTINUOUS
  0
LINE
  5
3B1
  8
0
 10
65.499999999998167
 20
76.712726236925619
 30
0.0
 11
150.83968817999121
 21
76.712726236927253
 31
0.0
  0
LINE
  5
3B2
  8
0
 10
65.499999999998167
 20
79.712726236923814
 30
0.0
 11
150.83968817999121
 21
79.712726236925477
 31
0.0
  0
LINE
  5
3B3
  8
0
 10
65.499999999998167
 20
80.212726236925462
 30
0.0
 11
65.499999999998082
 21
76.212726236923288
 31
0.0
  0
LINE
  5
3B4
  8
0
 10
65.499999999998181
 20
106.2127262369237
 30
0.0
 11
150.2366789605652
 21
106.2127262369237
 31
0.0
  0
LINE
  5
3B5
  8
0
 10
70.499999999998181
 20
104.8117955314469
 30
0.0
 11
149.79676804002659
 21
104.8117955314469
 31
0.0
  0
LINE
  5
3B6
  8
0
 10
19.118049850272879
 20
102.2127262369237
 30
0.0
 11
77.64134235385319
 21
102.2127262369237
 31
0.0
  0
LINE
  5
3B7
  8
0
 10
145.0583435272541
 20
136.3466238895503
 30
0.0
 11
145.0583435272529
 21
80.212726236923885
 31
0.0
  0
LINE
  5
3B8
  8
0
 10
144.55834352725341
 20
136.3466238895503
 30
0.0
 11
144.55834352725219
 21
80.212726236923885
 31
0.0
  0
INSERT
  5
3B9
  8
0
  6
CONTINUOUS
  2
*U3
 10
0.0
 20
0.0
 30
0.0
1001
ACAD
1000
DSTYLE
1002
{
1070
   147
1040
1.0
1070
    77
1070
     0
1002
}
  0
INSERT
  5
3BA
  8
0
  6
CONTINUOUS
  2
*U4
 10
0.0
 20
0.0
 30
0.0
  0
INSERT
  5
3BB
  8
0
  6
CONTINUOUS
  2
*U5
 10
0.0
 20
0.0
 30
0.0
1001
ACAD
1000
DSTYLE
1002
{
1070
   147
1040
1.0
1070
    77
1070
     0
1002
}
  0
INSERT
  5
3BC
  8
0
  6
CONTINUOUS
  2
*U6
 10
0.0
 20
0.0
 30
0.0
  0
INSERT
  5
3BD
  8
0
  6
CONTINUOUS
  2
*U7
 10
0.0
 20
0.0
 30
0.0
1001
ACAD
1000
DSTYLE
1002
{
1070
   147
1040
1.0
1070
    77
1070
     0
1002
}
  0
INSERT
  5
3BE
  8
0
  6
CONTINUOUS
  2
*U8
 10
0.0
 20
0.0
 30
0.0
  0
INSERT
  5
3BF
  8
0
  6
CONTINUOUS
  2
*U9
 10
0.0
 20
0.0
 30
0.0
1001
ACAD
1000
DSTYLE
1002
{
1070
   147
1040
1.0
1070
    77
1070
     0
1002
}
  0
INSERT
  5
3C0
  8
0
  6
CONTINUOUS
  2
*U10
 10
0.0
 20
0.0
 30
0.0
  0
INSERT
  5
3C1
  8
0
  6
CONTINUOUS
  2
*U11
 10
0.0
 20
0.0
 30
0.0
1001
ACAD
1000
DSTYLE
1002
{
1070
   147
1040
1.0
1070
    77
1070
     0
1002
}
  0
INSERT
  5
3C2
  8
0
  6
CONTINUOUS
  2
*U12
 10
0.0
 20
0.0
 30
0.0
  0
LINE
  5
3C3
  8
0
  6
CONTINUOUS
 10
19.118049850272879
 20
136.3466238895503
 30
0.0
 11
19.118049850272861
 21
18.959535019632199
 31
0.0
  0
INSERT
  5
3C4
  8
0
  6
CONTINUOUS
  2
*U13
 10
0.0
 20
0.0
 30
0.0
1001
ACAD
1000
DSTYLE
1002
{
1070
   147
1040
1.0
1070
    77
1070
     0
1002
}
  0
INSERT
  5
3C5
  8
0
  6
CONTINUOUS
  2
*U14
 10
0.0
 20
0.0
 30
0.0
  0
LINE
  5
3C6
  8
0
  6
CONTINUOUS
 10
70.499999999998181
 20
75.077034774107403
 30
0.0
 11
150.2366789605652
 21
75.077034774107432
 31
0.0
  0
LINE
  5
3C7
  8
0
 10
70.499999999998181
 20
77.383905689073515
 30
0.0
 11
150.2366789605652
 21
77.383905689073543
 31
0.0
  0
LINE
  5
3C8
  8
0
 10
70.499999999998181
 20
81.322746429554456
 30
0.0
 11
150.2366789605652
 21
81.322746429554485
 31
0.0
  0
LINE
  5
3C9
  8
0
  6
CONTINUOUS
 10
70.499999999998181
 20
75.077034774107403
 30
0.0
 11
70.499999999998153
 21
76.212726236923373
 31
0.0
  0
INSERT
  5
3CA
  8
0
  6
CONTINUOUS
  2
*U15
 10
0.0
 20
0.0
 30
0.0
1001
ACAD
1000
DSTYLE
1002
{
1070
   147
1040
1.0
1070
    77
1070
     0
1002
}
  0
INSERT
  5
3CB
  8
0
  6
CONTINUOUS
  2
*U16
 10
0.0
 20
0.0
 30
0.0
  0
ENDSEC
  0
EOF
