  0
SECTION
  2
HEADER
  9
$ACADVER
  1
AC1009
  9
$INSBASE
 10
0.0
 20
0.0
 30
0.0
  9
$EXTMIN
 10
-223.6312525714371
 20
-75.986125744630499
 30
-0.0015258207003583
  9
$EXTMAX
 10
105.2880543080888
 20
288.63234357159553
 30
0.0000000349246037
  9
$LIMMIN
 10
0.0
 20
0.0
  9
$LIMMAX
 10
12.0
 20
9.0
  9
$ORTHOMODE
 70
     0
  9
$REGENMODE
 70
     1
  9
$FILLMODE
 70
     1
  9
$QTEXTMODE
 70
     0
  9
$MIRRTEXT
 70
     0
  9
$DRAGMODE
 70
     2
  9
$LTSCALE
 40
1.0
  9
$OSMODE
 70
     0
  9
$ATTMODE
 70
     1
  9
$TEXTSIZE
 40
35.0
  9
$TRACEWID
 40
0.05
  9
$TEXTSTYLE
  7
ARIAL
  9
$CLAYER
  8
0
  9
$CELTYPE
  6
BYLAYER
  9
$CECOLOR
 62
   256
  9
$DIMSCALE
 40
2.0
  9
$DIMASZ
 40
2.0
  9
$DIMEXO
 40
2.0
  9
$DIMDLI
 40
6.0
  9
$DIMRND
 40
0.0
  9
$DIMDLE
 40
2.0
  9
$DIMEXE
 40
2.0
  9
$DIMTP
 40
0.0
  9
$DIMTM
 40
0.0
  9
$DIMTXT
 40
2.0
  9
$DIMCEN
 40
2.0
  9
$DIMTSZ
 40
0.0
  9
$DIMTOL
 70
     0
  9
$DIMLIM
 70
     0
  9
$DIMTIH
 70
     0
  9
$DIMTOH
 70
     0
  9
$DIMSE1
 70
     0
  9
$DIMSE2
 70
     0
  9
$DIMTAD
 70
     1
  9
$DIMZIN
 70
     0
  9
$DIMBLK
  1
ARCHTICK
  9
$DIMASO
 70
     1
  9
$DIMSHO
 70
     1
  9
$DIMPOST
  1

  9
$DIMAPOST
  1

  9
$DIMALT
 70
     0
  9
$DIMALTD
 70
     2
  9
$DIMALTF
 40
0.0394
  9
$DIMLFAC
 40
1.0
  9
$DIMTOFL
 70
     0
  9
$DIMTVP
 40
0.0
  9
$DIMTIX
 70
     0
  9
$DIMSOXD
 70
     0
  9
$DIMSAH
 70
     0
  9
$DIMBLK1
  1

  9
$DIMBLK2
  1

  9
$DIMSTYLE
  2
1_TO_2
  9
$DIMCLRD
 70
   256
  9
$DIMCLRE
 70
   256
  9
$DIMCLRT
 70
   256
  9
$DIMTFAC
 40
1.0
  9
$DIMGAP
 40
1.0
  9
$LUNITS
 70
     2
  9
$LUPREC
 70
     1
  9
$SKETCHINC
 40
0.1
  9
$FILLETRAD
 40
0.0
  9
$AUNITS
 70
     1
  9
$AUPREC
 70
     4
  9
$MENU
  1
.
  9
$ELEVATION
 40
0.0
  9
$PELEVATION
 40
0.0
  9
$THICKNESS
 40
0.0
  9
$LIMCHECK
 70
     0
  9
$BLIPMODE
 70
     0
  9
$CHAMFERA
 40
0.0
  9
$CHAMFERB
 40
0.0
  9
$SKPOLY
 70
     0
  9
$TDCREATE
 40
2452152.65359294
  9
$TDUPDATE
 40
2455419.6003328939
  9
$TDINDWG
 40
25.899074629600001
  9
$TDUSRTIMER
 40
25.899074629600001
  9
$USRTIMER
 70
     1
  9
$ANGBASE
 50
0.0
  9
$ANGDIR
 70
     0
  9
$PDMODE
 70
     0
  9
$PDSIZE
 40
0.0
  9
$PLINEWID
 40
0.0
  9
$COORDS
 70
     1
  9
$SPLFRAME
 70
     0
  9
$SPLINETYPE
 70
     6
  9
$SPLINESEGS
 70
     8
  9
$ATTDIA
 70
     0
  9
$ATTREQ
 70
     0
  9
$HANDLING
 70
     1
  9
$HANDSEED
  5
B54
  9
$SURFTAB1
 70
     6
  9
$SURFTAB2
 70
     6
  9
$SURFTYPE
 70
     6
  9
$SURFU
 70
     6
  9
$SURFV
 70
     6
  9
$UCSNAME
  2

  9
$UCSORG
 10
0.0
 20
0.0
 30
0.0
  9
$UCSXDIR
 10
1.0
 20
0.0
 30
0.0
  9
$UCSYDIR
 10
0.0
 20
1.0
 30
0.0
  9
$PUCSNAME
  2

  9
$PUCSORG
 10
0.0
 20
0.0
 30
0.0
  9
$PUCSXDIR
 10
1.0
 20
0.0
 30
0.0
  9
$PUCSYDIR
 10
0.0
 20
1.0
 30
0.0
  9
$USERI1
 70
     0
  9
$USERI2
 70
     0
  9
$USERI3
 70
     0
  9
$USERI4
 70
     0
  9
$USERI5
 70
     0
  9
$USERR1
 40
0.0
  9
$USERR2
 40
0.0
  9
$USERR3
 40
0.0
  9
$USERR4
 40
0.0
  9
$USERR5
 40
0.0
  9
$WORLDVIEW
 70
     1
  9
$SHADEDGE
 70
     3
  9
$SHADEDIF
 70
    70
  9
$TILEMODE
 70
     1
  9
$MAXACTVP
 70
    48
  9
$PLIMCHECK
 70
     0
  9
$PEXTMIN
 10
0.0
 20
0.0
 30
0.0
  9
$PEXTMAX
 10
208.41041893864801
 20
295.40953368001158
 30
0.0
  9
$PLIMMIN
 10
-0.793749988079071
 20
-0.793749988079071
  9
$PLIMMAX
 10
209.2062500119209
 20
296.20625001192087
  9
$UNITMODE
 70
     0
  9
$VISRETAIN
 70
     1
  9
$PLINEGEN
 70
     1
  9
$PSLTSCALE
 70
     1
  0
ENDSEC
  0
SECTION
  2
TABLES
  0
TABLE
  2
VPORT
 70
     1
  0
VPORT
  2
*ACTIVE
 70
     0
 10
0.0
 20
0.0
 11
1.0
 21
1.0
 12
-59.171599131674178
 22
106.3231089134825
 13
0.0
 23
0.0
 14
1.0
 24
1.0
 15
50.0
 25
50.0
 16
0.0
 26
0.0
 36
1.0
 17
0.0
 27
0.0
 37
0.0
 40
367.68249006678252
 41
1.9789621318373061
 42
50.0
 43
0.0
 44
0.0
 50
0.0
 51
0.0
 71
     0
 72
 20000
 73
     1
 74
     3
 75
     0
 76
     0
 77
     0
 78
     0
  0
ENDTAB
  0
TABLE
  2
LTYPE
 70
     2
  0
LTYPE
  2
CONTINUOUS
 70
     0
  3
Solid line
 72
    65
 73
     0
 40
0.0
  0
ENDTAB
  0
TABLE
  2
LAYER
 70
    10
  0
LAYER
  2
0
 70
     0
 62
     7
  6
CONTINUOUS
  0
ENDTAB
  0
TABLE
  2
STYLE
 70
     4
  0
STYLE
  2
STANDARD
 70
     0
 40
0.0
 41
1.0
 50
0.0
 71
     0
 42
1.5
  3
romans.shx
  4

  0
STYLE
  2
ARIAL
 70
     0
 40
0.0
 41
1.0
 50
0.0
 71
     0
 42
35.0
  3
txt
  4

  0
STYLE
  2
EURO_COMMON_CNR-EXT2$0$ARI
 70
     0
 40
0.0
 41
1.0
 50
0.0
 71
     0
 42
35.0
  3
txt
  4

  0
ENDTAB
  0
TABLE
  2
VIEW
 70
     2
  0
VIEW
  2
09
 70
     0
 40
2970.0
 10
19050.0
 20
1485.0
 41
2100.0
 11
0.0
 21
0.0
 31
1.0
 12
0.0
 22
0.0
 32
0.0
 42
50.0
 43
0.0
 44
0.0
 50
0.0
 71
     0
  0
VIEW
  2
COMM-04
 70
     1
 40
477.26027331217421
 10
194.21746115522001
 20
180.60494410563541
 41
755.81685306636155
 11
0.0
 21
0.0
 31
1.0
 12
0.0
 22
0.0
 32
0.0
 42
50.0
 43
0.0
 44
0.0
 50
0.0
 71
     0
  0
ENDTAB
  0
TABLE
  2
UCS
 70
     0
  0
ENDTAB
  0
TABLE
  2
APPID
 70
    13
  0
APPID
  2
ACAD
 70
     0
  0
APPID
  2
GENIUS_GENOREF_13
 70
     0
  0
APPID
  2
ACAD_PSEXT
 70
     0
  0
APPID
  2
ACDBDYNAMICBLOCKGUID
 70
     0
  0
APPID
  2
ACDBBLOCKREPETAG
 70
     0
  0
APPID
  2
ACAD_MLEADERVER
 70
     0
  0
APPID
  2
ACADANNOTATIVE
 70
     0
  0
APPID
  2
RAK
 70
     0
  0
APPID
  2
GENIUS_GENREC_14
 70
     0
  0
APPID
  2
GENIUS_GENOBJ-N-REC_13
 70
     0
  0
APPID
  2
GENIUS_GENODEF_13
 70
     0
  0
APPID
  2
ACAD_EXEMPT_FROM_CAD_STANDARDS
 70
     0
  0
APPID
  2
CONTENTBLOCKICON
 70
     0
  0
ENDTAB
  0
TABLE
  2
DIMSTYLE
 70
     2
  0
DIMSTYLE
  2
1_TO_2
 70
     0
  3

  4

  5
ARCHTICK
  6

  7

 40
2.0
 41
2.0
 42
2.0
 43
6.0
 44
2.0
 45
0.0
 46
2.0
 47
0.0
 48
0.0
140
2.0
141
2.0
142
0.0
143
0.0394
144
1.0
145
0.0
146
1.0
147
1.0
 71
     0
 72
     0
 73
     0
 74
     0
 75
     0
 76
     0
 77
     1
 78
     0
170
     0
171
     2
172
     0
173
     0
174
     0
175
     0
176
   256
177
   256
178
   256
  0
DIMSTYLE
  2
EURO_COMMON_CNR-EXT2$0$1_T
 70
     0
  3

  4

  5
EURO_COMMON_CNR-EXT2$0$_AR
  6

  7

 40
2.0
 41
2.0
 42
2.0
 43
6.0
 44
2.0
 45
0.0
 46
2.0
 47
0.0
 48
0.0
140
2.0
141
2.0
142
0.0
143
0.0394
144
1.0
145
0.0
146
1.0
147
1.0
 71
     0
 72
     0
 73
     0
 74
     0
 75
     0
 76
     0
 77
     1
 78
     0
170
     0
171
     2
172
     0
173
     0
174
     0
175
     0
176
   256
177
   256
178
   256
  0
ENDTAB
  0
ENDSEC
  0
SECTION
  2
BLOCKS
  0
BLOCK
  8
0
  2
$MODEL_SPACE
 70
     0
 10
0.0
 20
0.0
 30
0.0
  3
$MODEL_SPACE
  1

  0
ENDBLK
  5
17
  8
0
  0
BLOCK
 67
     1
  8
0
  2
$PAPER_SPACE
 70
     0
 10
0.0
 20
0.0
 30
0.0
  3
$PAPER_SPACE
  1

  0
ENDBLK
  5
20
 67
     1
  8
0
  0
BLOCK
  8
0
  2
_ARCHTICK
 70
     0
 10
0.0
 20
0.0
 30
0.0
  3
_ARCHTICK
  1

  0
POLYLINE
  5
C0
  8
0
  6
BYBLOCK
 62
     0
 66
     1
 10
0.0
 20
0.0
 30
0.0
 40
0.15
 41
0.15
  0
VERTEX
  5
8E6
  8
0
  6
BYBLOCK
 62
     0
 10
-0.5
 20
-0.5
 30
0.0
  0
VERTEX
  5
8E7
  8
0
  6
BYBLOCK
 62
     0
 10
0.5
 20
0.5
 30
0.0
  0
SEQEND
  5
8E8
  8
0
  6
BYBLOCK
 62
     0
  0
ENDBLK
  5
C1
  8
0
  0
BLOCK
  8
0
  2
EURO_COMMON_CNR-EXT2$0$_AR
 70
     0
 10
0.0
 20
0.0
 30
0.0
  3
EURO_COMMON_CNR-EXT2$0$_AR
  1

  0
POLYLINE
  5
6AC
  8
0
  6
BYBLOCK
 62
     0
 66
     1
 10
0.0
 20
0.0
 30
0.0
 40
0.15
 41
0.15
  0
VERTEX
  5
90A
  8
0
  6
BYBLOCK
 62
     0
 10
-0.5
 20
-0.5
 30
0.0
  0
VERTEX
  5
90B
  8
0
  6
BYBLOCK
 62
     0
 10
0.5
 20
0.5
 30
0.0
  0
SEQEND
  5
90C
  8
0
  6
BYBLOCK
 62
     0
  0
ENDBLK
  5
6AD
  8
0
  0
BLOCK
  8
0
  2
*U7
 70
     1
 10
0.0
 20
0.0
 30
0.0
  3
*U7
  1

  0
SOLID
  5
94B
  8
0
  6
CONTINUOUS
 10
21.630752670746201
 20
214.94046586212141
 30
0.0
 11
18.266258205953001
 21
212.67670318886701
 31
0.0
 12
20.71469480564781
 22
215.9092877062028
 32
0.0
 13
20.71469480564781
 23
215.9092877062028
 33
0.0
  0
POLYLINE
  5
94C
  8
0
  6
CONTINUOUS
 66
     1
 10
0.0
 20
0.0
 30
0.0
  0
VERTEX
  5
94D
  8
0
  6
CONTINUOUS
 10
21.172723738197
 20
215.42487678416211
 30
0.0
  0
VERTEX
  5
94E
  8
0
  6
CONTINUOUS
 10
63.365328749011042
 20
255.31958797927979
 30
0.0
  0
VERTEX
  5
94F
  8
0
  6
CONTINUOUS
 10
67.365328749011042
 20
255.31958797927979
 30
0.0
  0
SEQEND
  5
950
  8
0
  6
CONTINUOUS
  0
ENDBLK
  5
952
  8
0
  0
BLOCK
  8
0
  2
*U8
 70
     1
 10
0.0
 20
0.0
 30
0.0
  3
*U8
  1

  0
TEXT
  5
954
  8
0
 10
68.923309649420318
 20
253.35233013480499
 30
0.0
 40
4.0
  1
Euroline
  7
EURO_COMMON_CNR-EXT2$0$ARI
  0
ENDBLK
  5
956
  8
0
  0
BLOCK
  8
0
  2
*U9
 70
     1
 10
0.0
 20
0.0
 30
0.0
  3
*U9
  1

  0
SOLID
  5
958
  8
0
  6
CONTINUOUS
 10
17.46281358543559
 20
196.1034967039798
 30
0.0
 11
13.999999999999989
 21
193.99319660281719
 31
0.0
 12
16.591212818278201
 22
197.11250110459881
 32
0.0
 13
16.591212818278201
 23
197.11250110459881
 33
0.0
  0
POLYLINE
  5
959
  8
0
  6
CONTINUOUS
 66
     1
 10
0.0
 20
0.0
 30
0.0
  0
VERTEX
  5
95A
  8
0
  6
CONTINUOUS
 10
17.027013201856889
 20
196.6079989042893
 30
0.0
  0
VERTEX
  5
95B
  8
0
  6
CONTINUOUS
 10
63.365328749011042
 20
236.63608139323
 30
0.0
  0
VERTEX
  5
95C
  8
0
  6
CONTINUOUS
 10
67.365328749011042
 20
236.63608139323
 30
0.0
  0
SEQEND
  5
95D
  8
0
  6
CONTINUOUS
  0
ENDBLK
  5
95F
  8
0
  0
BLOCK
  8
0
  2
*U10
 70
     1
 10
0.0
 20
0.0
 30
0.0
  3
*U10
  1

  0
TEXT
  5
961
  8
0
 10
68.926038162380749
 20
235.22407593620409
 30
0.0
 40
4.0
  1
Underlay
  7
EURO_COMMON_CNR-EXT2$0$ARI
  0
ENDBLK
  5
963
  8
0
  0
BLOCK
  8
0
  2
*U11
 70
     1
 10
0.0
 20
0.0
 30
0.0
  3
*U11
  1

  0
SOLID
  5
965
  8
0
  6
CONTINUOUS
 10
15.503477151990509
 20
86.570938091692369
 30
0.0
 11
12.000000000000041
 21
84.528857708865786
 31
0.0
 12
14.651803668263479
 22
87.596818228401361
 32
0.0
 13
14.651803668263479
 23
87.596818228401361
 33
0.0
  0
POLYLINE
  5
966
  8
0
  6
CONTINUOUS
 66
     1
 10
0.0
 20
0.0
 30
0.0
  0
VERTEX
  5
967
  8
0
  6
CONTINUOUS
 10
15.077640410126991
 20
87.083878160046865
 30
0.0
  0
VERTEX
  5
968
  8
0
  6
CONTINUOUS
 10
63.36532874901102
 20
127.17174249927859
 30
0.0
  0
VERTEX
  5
969
  8
0
  6
CONTINUOUS
 10
67.365328749011027
 20
127.17174249927859
 30
0.0
  0
SEQEND
  5
96A
  8
0
  6
CONTINUOUS
  0
ENDBLK
  5
96C
  8
0
  0
BLOCK
  8
0
  2
*U12
 70
     1
 10
0.0
 20
0.0
 30
0.0
  3
*U12
  1

  0
TEXT
  5
96E
  8
0
 10
68.934223701262056
 20
125.7597370422527
 30
0.0
 40
4.0
  1
Plywood
  7
EURO_COMMON_CNR-EXT2$0$ARI
  0
ENDBLK
  5
970
  8
0
  0
BLOCK
  8
0
  2
*U13
 70
     1
 10
0.0
 20
0.0
 30
0.0
  3
*U13
  1

  0
SOLID
  5
972
  8
0
  6
CONTINUOUS
 10
1.9275096116564669
 20
121.1794708245893
 30
0.0
 11
-1.999999999999992
 21
120.16995970786471
 31
0.0
 12
1.38780278398057
 22
122.3986895571955
 32
0.0
 13
1.38780278398057
 23
122.3986895571955
 33
0.0
  0
POLYLINE
  5
973
  8
0
  6
CONTINUOUS
 66
     1
 10
0.0
 20
0.0
 30
0.0
  0
VERTEX
  5
974
  8
0
  6
CONTINUOUS
 10
1.6576561978185189
 20
121.78908019089241
 30
0.0
  0
VERTEX
  5
975
  8
0
  6
CONTINUOUS
 10
63.365328749011042
 20
149.1049762686022
 30
0.0
  0
VERTEX
  5
976
  8
0
  6
CONTINUOUS
 10
67.365328749011042
 20
149.1049762686022
 30
0.0
  0
SEQEND
  5
977
  8
0
  6
CONTINUOUS
  0
ENDBLK
  5
979
  8
0
  0
BLOCK
  8
0
  2
*U14
 70
     1
 10
0.0
 20
0.0
 30
0.0
  3
*U14
  1

  0
TEXT
  5
97B
  8
0
 10
69.087020427046511
 20
147.13908268060769
 30
0.0
 40
4.0
  1
Cavibat
  7
EURO_COMMON_CNR-EXT2$0$ARI
  0
ENDBLK
  5
97D
  8
0
  0
BLOCK
  8
0
  2
*U15
 70
     1
 10
0.0
 20
0.0
 30
0.0
  3
*U15
  1

  0
SOLID
  5
97F
  8
0
  6
CONTINUOUS
 10
21.630752670746169
 20
63.899762529337352
 30
0.0
 11
18.26625820595298
 21
61.635999856082833
 31
0.0
 12
20.714694805647781
 22
64.86858437341867
 32
0.0
 13
20.714694805647781
 23
64.86858437341867
 33
0.0
  0
POLYLINE
  5
980
  8
0
  6
CONTINUOUS
 66
     1
 10
0.0
 20
0.0
 30
0.0
  0
VERTEX
  5
981
  8
0
  6
CONTINUOUS
 10
21.172723738196979
 20
64.384173451378004
 30
0.0
  0
VERTEX
  5
982
  8
0
  6
CONTINUOUS
 10
63.365328749011042
 20
104.2788846464956
 30
0.0
  0
VERTEX
  5
983
  8
0
  6
CONTINUOUS
 10
67.365328749011042
 20
104.2788846464956
 30
0.0
  0
SEQEND
  5
984
  8
0
  6
CONTINUOUS
  0
ENDBLK
  5
986
  8
0
  0
BLOCK
  8
0
  2
*U16
 70
     1
 10
0.0
 20
0.0
 30
0.0
  3
*U16
  1

  0
TEXT
  5
988
  8
0
 10
68.93422370126207
 20
106.1674703672778
 30
0.0
 40
4.0
  1
Purpose made
  7
EURO_COMMON_CNR-EXT2$0$ARI
  0
TEXT
  5
989
  8
0
 10
69.147047712176104
 20
99.500803700611172
 30
0.0
 40
4.0
  1
corner panel
  7
EURO_COMMON_CNR-EXT2$0$ARI
  0
ENDBLK
  5
98B
  8
0
  0
ENDSEC
  0
SECTION
  2
ENTITIES
  0
POLYLINE
  5
72C
  8
0
 66
     1
 10
0.0
 20
0.0
 30
0.0
  0
VERTEX
  5
90D
  8
0
 10
12.00000000000005
 20
284.5
 30
0.0
  0
VERTEX
  5
90E
  8
0
 10
11.99999999999998
 20
-18.000000000000028
 30
0.0
  0
VERTEX
  5
90F
  8
0
 10
-0.0000000000000178
 20
-18.000000000000021
 30
0.0
  0
VERTEX
  5
910
  8
0
 10
0.0000000000000506
 20
284.5
 30
0.0
  0
SEQEND
  5
911
  8
0
  0
POLYLINE
  5
72D
  8
0
 66
     1
 10
0.0
 20
0.0
 30
0.0
  0
VERTEX
  5
912
  8
0
 10
-219.5
 20
-19.999999999999911
 30
0.0
  0
VERTEX
  5
913
  8
0
 10
11.99999999999998
 20
-20.000000000000028
 30
0.0
  0
VERTEX
  5
914
  8
0
 10
11.99999999999998
 20
-32.000000000000028
 30
0.0
  0
VERTEX
  5
915
  8
0
 10
-219.5
 20
-31.999999999999911
 30
0.0
  0
SEQEND
  5
916
  8
0
  0
POLYLINE
  5
72E
  8
0
 66
     1
 10
0.0
 20
0.0
 30
0.0
 70
   128
  0
VERTEX
  5
917
  8
0
 10
-219.5
 20
-34.000000000000028
 30
0.0
  0
VERTEX
  5
918
  8
0
 10
12.0
 20
-34.000000000000007
 30
0.0
 42
0.4142135623730951
  0
VERTEX
  5
919
  8
0
 10
14.0
 20
-32.000000000000007
 30
0.0
  0
VERTEX
  5
91A
  8
0
 10
13.99999999999994
 20
284.5
 30
0.0
  0
SEQEND
  5
91B
  8
0
  0
POLYLINE
  5
72F
  8
0
 66
     1
 10
0.0
 20
0.0
 30
0.0
 70
   128
  0
VERTEX
  5
91C
  8
0
 10
-219.5
 20
1.9999999999999749
 30
0.0
  0
VERTEX
  5
91D
  8
0
 10
-24.0
 20
1.9999999999999989
 30
0.0
 42
0.4142135623730951
  0
VERTEX
  5
91E
  8
0
 10
-22.000000000000011
 20
3.9999999999999991
 30
0.0
  0
VERTEX
  5
91F
  8
0
 10
-22.00000000000005
 20
284.5
 30
0.0
  0
SEQEND
  5
920
  8
0
  0
POLYLINE
  5
732
  8
0
 66
     1
 10
0.0
 20
0.0
 30
0.0
 40
0.6
 41
0.6
  0
VERTEX
  5
921
  8
0
 10
-191.2849862628446
 20
-73.625000000000028
 30
0.0
  0
VERTEX
  5
922
  8
0
 10
-193.2849862628446
 20
-73.625000000000028
 30
0.0
 42
-0.9999999999999998
  0
VERTEX
  5
923
  8
0
 10
-193.2849862628446
 20
-72.725000000000165
 30
0.0
  0
VERTEX
  5
924
  8
0
 10
-185.50666002915571
 20
-72.725000000000165
 30
0.0
 42
0.4452286853080764
  0
VERTEX
  5
925
  8
0
 10
-184.41268594425131
 20
-71.510018690405815
 30
0.0
  0
VERTEX
  5
926
  8
0
 10
-187.86010486096529
 20
-38.71001869040564
 30
0.0
 42
0.3838640350355089
  0
VERTEX
  5
927
  8
0
 10
-188.9540789458697
 20
-37.72499999999971
 30
0.0
  0
VERTEX
  5
928
  8
0
 10
-219.5
 20
-37.724999999999739
 30
0.0
  0
SEQEND
  5
929
  8
0
  0
LINE
  5
734
  8
0
 10
-24.000000000000021
 20
4.0000000000000284
 30
0.0
 11
-23.999999999999929
 21
284.5
 31
0.0
  0
LINE
  5
735
  8
0
 10
-123.9999999999999
 20
156.0
 30
0.0
 11
-123.9999999999999
 21
284.5
 31
0.0
  0
LINE
  5
736
  8
0
 10
-174.0
 20
104.0
 30
0.0
 11
-219.5
 21
104.0000000000001
 31
0.0
  0
LINE
  5
737
  8
0
 10
-174.0
 20
4.0000000000000284
 30
0.0
 11
-219.5
 21
4.0000000000000897
 31
0.0
  0
POLYLINE
  5
738
  8
0
  6
CONTINUOUS
 66
     1
 10
0.0
 20
0.0
 30
0.0
 70
   128
  0
VERTEX
  5
92A
  8
0
  6
CONTINUOUS
 10
-219.5
 20
-48.782956672585442
 30
0.0
  0
VERTEX
  5
92B
  8
0
  6
CONTINUOUS
 10
-219.5
 20
33.478568690824893
 30
0.0
  0
VERTEX
  5
92C
  8
0
  6
CONTINUOUS
 10
-223.6212161291817
 20
34.978568690825092
 30
0.0
  0
VERTEX
  5
92D
  8
0
  6
CONTINUOUS
 10
-215.3787838708181
 20
37.978568690825078
 30
0.0
  0
VERTEX
  5
92E
  8
0
  6
CONTINUOUS
 10
-219.5
 20
39.478568690824893
 30
0.0
  0
VERTEX
  5
92F
  8
0
  6
CONTINUOUS
 10
-219.5
 20
123.7400940542347
 30
0.0
  0
SEQEND
  5
930
  8
0
  6
CONTINUOUS
  0
POLYLINE
  5
739
  8
0
  6
CONTINUOUS
 66
     1
 10
0.0
 20
0.0
 30
0.0
 70
   128
  0
VERTEX
  5
931
  8
0
  6
CONTINUOUS
 10
-140.74631223861019
 20
284.5
 30
0.0
  0
VERTEX
  5
932
  8
0
  6
CONTINUOUS
 10
-57.63883148631929
 20
284.5
 30
0.0
  0
VERTEX
  5
933
  8
0
  6
CONTINUOUS
 10
-56.138831486319411
 20
288.62121612918122
 30
0.0
  0
VERTEX
  5
934
  8
0
  6
CONTINUOUS
 10
-53.138831486319411
 20
280.37878387081793
 30
0.0
  0
VERTEX
  5
935
  8
0
  6
CONTINUOUS
 10
-51.638831486319297
 20
284.5
 30
0.0
  0
VERTEX
  5
936
  8
0
  6
CONTINUOUS
 10
29.468649265971191
 20
284.5
 30
0.0
  0
SEQEND
  5
937
  8
0
  6
CONTINUOUS
  0
POLYLINE
  5
73A
  8
0
  6
CONTINUOUS
 66
     1
 10
0.0
 20
0.0
 30
0.0
 70
   128
 40
0.5
 41
0.5
  0
VERTEX
  5
938
  8
0
  6
CONTINUOUS
 10
-187.68148292225689
 20
-71.625000000000355
 30
0.0
  0
VERTEX
  5
939
  8
0
  6
CONTINUOUS
 10
-193.2849862628446
 20
-71.625000000000355
 30
0.0
 42
0.9999999999999998
  0
VERTEX
  5
93A
  8
0
  6
CONTINUOUS
 10
-193.2849862628446
 20
-74.724999999999341
 30
0.0
  0
VERTEX
  5
93B
  8
0
  6
CONTINUOUS
 10
-185.99105882941899
 20
-74.724999999999341
 30
0.0
 42
0.4142135623730946
  0
VERTEX
  5
93C
  8
0
  6
CONTINUOUS
 10
-183.49105882941899
 20
-72.224999999999341
 30
0.0
  0
VERTEX
  5
93D
  8
0
  6
CONTINUOUS
 10
-183.4910588294189
 20
-37.500000000000028
 30
0.0
 42
-0.4142135623730942
  0
VERTEX
  5
93E
  8
0
  6
CONTINUOUS
 10
-180.9910588294189
 20
-35.000000000000028
 30
0.0
  0
VERTEX
  5
93F
  8
0
  6
CONTINUOUS
 10
-152.9440893051667
 20
-35.000000000000028
 30
0.0
  0
SEQEND
  5
940
  8
0
  6
CONTINUOUS
  0
POLYLINE
  5
73B
  8
0
  6
CONTINUOUS
 66
     1
 10
0.0
 20
0.0
 30
0.0
 70
   128
 40
0.5
 41
0.5
  0
VERTEX
  5
941
  8
0
  6
CONTINUOUS
 10
52.44125820594968
 20
163.55277250997921
 30
0.0
  0
VERTEX
  5
942
  8
0
  6
CONTINUOUS
 10
52.44125820594968
 20
157.9492691693915
 30
0.0
 42
0.9999999999999998
  0
VERTEX
  5
943
  8
0
  6
CONTINUOUS
 10
53.89125820594969
 20
157.9492691693915
 30
0.0
  0
VERTEX
  5
944
  8
0
  6
CONTINUOUS
 10
53.89125820594969
 20
165.24319660281699
 30
0.0
 42
0.414213562373094
  0
VERTEX
  5
945
  8
0
  6
CONTINUOUS
 10
51.391258205949697
 20
167.74319660281699
 30
0.0
  0
VERTEX
  5
946
  8
0
  6
CONTINUOUS
 10
17.491258205949858
 20
167.74319660281719
 30
0.0
 42
-0.4142135623730946
  0
VERTEX
  5
947
  8
0
  6
CONTINUOUS
 10
14.99125820594986
 20
170.24319660281719
 30
0.0
  0
VERTEX
  5
948
  8
0
  6
CONTINUOUS
 10
14.991258205949849
 20
187.02961024256001
 30
0.0
  0
SEQEND
  5
949
  8
0
  6
CONTINUOUS
  0
INSERT
  5
73C
  8
0
  2
*U7
 10
0.0
 20
0.0
 30
0.0
1001
ACAD
1000
DSTYLE
1002
{
1070
   147
1040
1.0
1070
    77
1070
     0
1002
}
  0
INSERT
  5
73D
  8
0
  2
*U8
 10
0.0
 20
0.0
 30
0.0
  0
INSERT
  5
73E
  8
0
  2
*U9
 10
0.0
 20
0.0
 30
0.0
1001
ACAD
1000
DSTYLE
1002
{
1070
   147
1040
1.0
1070
    77
1070
     0
1002
}
  0
INSERT
  5
73F
  8
0
  2
*U10
 10
0.0
 20
0.0
 30
0.0
  0
INSERT
  5
740
  8
0
  2
*U11
 10
0.0
 20
0.0
 30
0.0
1001
ACAD
1000
DSTYLE
1002
{
1070
   147
1040
1.0
1070
    77
1070
     0
1002
}
  0
INSERT
  5
741
  8
0
  2
*U12
 10
0.0
 20
0.0
 30
0.0
  0
INSERT
  5
742
  8
0
  2
*U13
 10
0.0
 20
0.0
 30
0.0
1001
ACAD
1000
DSTYLE
1002
{
1070
   147
1040
1.0
1070
    77
1070
     0
1002
}
  0
INSERT
  5
743
  8
0
  2
*U14
 10
0.0
 20
0.0
 30
0.0
  0
INSERT
  5
744
  8
0
  2
*U15
 10
0.0
 20
0.0
 30
0.0
1001
ACAD
1000
DSTYLE
1002
{
1070
   147
1040
1.0
1070
    77
1070
     0
1002
}
  0
INSERT
  5
745
  8
0
  2
*U16
 10
0.0
 20
0.0
 30
0.0
  0
POLYLINE
  5
746
  8
0
 66
     1
 10
0.0
 20
0.0
 30
0.0
 40
0.6
 41
0.6
  0
VERTEX
  5
98C
  8
0
 10
51.341258205951682
 20
163.7830138446551
 30
0.0
  0
VERTEX
  5
98D
  8
0
 10
51.341258205949863
 20
157.94926916939019
 30
0.0
 42
0.9999999999999376
  0
VERTEX
  5
98E
  8
0
 10
54.991258205949947
 20
157.94926916939019
 30
0.0
  0
VERTEX
  5
98F
  8
0
 10
54.99125820594972
 20
168.3151295264978
 30
0.0
 42
0.383864035035509
  0
VERTEX
  5
990
  8
0
 10
54.006239515543797
 20
169.4091036114022
 30
0.0
  0
VERTEX
  5
991
  8
0
 10
18.75876755115528
 20
173.11376219726651
 30
0.0
 42
-0.3838640350352048
  0
VERTEX
  5
992
  8
0
 10
18.266258205953001
 20
173.66074923972141
 30
0.0
  0
VERTEX
  5
993
  8
0
 10
18.266258205952919
 20
284.49999999999989
 30
0.0
  0
SEQEND
  5
994
  8
0
  0
POLYLINE
  5
749
  8
0
  6
CONTINUOUS
 66
     1
 10
0.0
 20
0.0
 30
0.0
 70
   128
 40
0.5
 41
0.5
  0
VERTEX
  5
995
  8
0
  6
CONTINUOUS
 10
-187.68148292225689
 20
-70.625000000000369
 30
0.0
  0
VERTEX
  5
996
  8
0
  6
CONTINUOUS
 10
-193.2849862628446
 20
-70.625000000000369
 30
0.0
 42
0.9999999999999998
  0
VERTEX
  5
997
  8
0
  6
CONTINUOUS
 10
-193.2849862628446
 20
-75.724999999999341
 30
0.0
  0
VERTEX
  5
998
  8
0
  6
CONTINUOUS
 10
-184.5324069152019
 20
-75.724999999999326
 30
0.0
 42
0.383864035035425
  0
VERTEX
  5
999
  8
0
  6
CONTINUOUS
 10
-182.0461021767812
 20
-73.48632115816838
 30
0.0
  0
VERTEX
  5
99A
  8
0
  6
CONTINUOUS
 10
-178.55163415673709
 20
-40.238678841832673
 30
0.0
 42
-0.3838640350354245
  0
VERTEX
  5
99B
  8
0
  6
CONTINUOUS
 10
-176.0653294183164
 20
-38.000000000001727
 30
0.0
  0
VERTEX
  5
99C
  8
0
  6
CONTINUOUS
 10
15.49125820594959
 20
-38.00000000000172
 30
0.0
 42
0.4142135623730951
  0
VERTEX
  5
99D
  8
0
  6
CONTINUOUS
 10
17.991258205949588
 20
-35.50000000000172
 30
0.0
  0
VERTEX
  5
99E
  8
0
  6
CONTINUOUS
 10
17.99125820594962
 20
160.7719997121674
 30
0.0
 42
-0.3838640350354173
  0
VERTEX
  5
99F
  8
0
  6
CONTINUOUS
 10
20.22993704778051
 20
163.25830445058801
 30
0.0
  0
VERTEX
  5
9A0
  8
0
  6
CONTINUOUS
 10
50.404937047780571
 20
166.4298247497297
 30
0.0
 42
-0.4452286853085345
  0
VERTEX
  5
9A1
  8
0
  6
CONTINUOUS
 10
53.166258205949688
 20
163.94352001130909
 30
0.0
  0
VERTEX
  5
9A2
  8
0
  6
CONTINUOUS
 10
53.166258205949703
 20
157.9492691693915
 30
0.0
 40
0.0
 41
0.0
  0
SEQEND
  5
9A3
  8
0
  6
CONTINUOUS
  0
LINE
  5
769
  8
0
 10
11.39505380444534
 20
175.6819876744257
 30
0.0
 11
-41.642703059146058
 21
175.88410343645401
 31
0.0
1001
ACDBBLOCKREPETAG
1070
     1
1071
        0
1005
769
  0
LINE
  5
76A
  8
0
 10
11.395053804445331
 20
180.58198767442539
 30
0.0
 11
-41.631061268406853
 21
180.3799162768187
 31
0.0
1001
ACDBBLOCKREPETAG
1070
     1
1071
        1
1005
76A
  0
LINE
  5
76B
  8
0
 10
-45.008741794050223
 20
178.1281292597231
 30
0.0
 11
-41.631061268406853
 21
180.3799162768187
 31
0.0
1001
ACDBBLOCKREPETAG
1070
     1
1071
        2
1005
76B
  0
LINE
  5
76C
  8
0
 10
-45.008741794050223
 20
178.1281292597231
 30
0.0
 11
-41.642703059146058
 21
175.88410343645401
 31
0.0
1001
ACDBBLOCKREPETAG
1070
     1
1071
        3
1005
76C
  0
LINE
  5
76D
  8
0
 10
-35.633721276004771
 20
180.40277088105509
 30
0.0
 11
-34.903128240003703
 21
175.85842033104251
 31
0.0
1001
ACDBBLOCKREPETAG
1070
     1
1071
        6
1005
76D
  0
LINE
  5
76E
  8
0
 10
-43.653894682195691
 20
179.0313606676261
 30
0.0
 11
-43.439146302137161
 21
177.69560755892701
 31
0.0
1001
ACDBBLOCKREPETAG
1070
     1
1071
        7
1005
76E
  0
LINE
  5
76F
  8
0
 10
-45.008741794050223
 20
178.1281292597231
 30
0.0
 11
-36.79831201583692
 21
175.86564247872909
 31
0.0
1001
ACDBBLOCKREPETAG
1070
     1
1071
        8
1005
76F
  0
LINE
  5
770
  8
0
 10
-36.984246992208931
 20
180.3976243109434
 30
0.0
 11
-36.255309793838087
 21
175.863573211204
 31
0.0
1001
ACDBBLOCKREPETAG
1070
     1
1071
       10
1005
770
  0
LINE
  5
771
  8
0
 10
-38.334772708413901
 20
180.39247774083159
 30
0.0
 11
-37.644482695937477
 21
176.09881540997719
 31
0.0
1001
ACDBBLOCKREPETAG
1070
     1
1071
       12
1005
771
  0
LINE
  5
772
  8
0
 10
-39.685298424616811
 20
180.38733117071979
 30
0.0
 11
-39.058478753440099
 21
176.4884597373626
 31
0.0
1001
ACDBBLOCKREPETAG
1070
     1
1071
       14
1005
772
  0
LINE
  5
773
  8
0
 10
-41.035824140821411
 20
180.38218460060801
 30
0.0
 11
-40.472474810942778
 21
176.87810406474799
 31
0.0
1001
ACDBBLOCKREPETAG
1070
     1
1071
       16
1005
773
  0
LINE
  5
774
  8
0
 10
-42.31365266581394
 20
179.92485534521401
 30
0.0
 11
-41.886470868445123
 21
177.2677483921334
 31
0.0
1001
ACDBBLOCKREPETAG
1070
     1
1071
       18
1005
774
  0
LINE
  5
775
  8
0
 10
11.395053804445331
 20
180.58198767442539
 30
0.0
 11
12.07146190409423
 21
180.58198767442539
 31
0.0
1001
ACDBBLOCKREPETAG
1070
     1
1071
       20
1005
775
  0
LINE
  5
776
  8
0
 10
12.07146190409423
 20
180.58198767442539
 30
0.0
 11
14.991258205949849
 21
183.03198767442521
 31
0.0
1001
ACDBBLOCKREPETAG
1070
     1
1071
       22
1005
776
  0
LINE
  5
777
  8
0
 10
14.99125820594996
 20
183.0319876744253
 30
0.0
 11
15.30646561419163
 21
183.0319876744253
 31
0.0
1001
ACDBBLOCKREPETAG
1070
     1
1071
       23
1005
777
  0
LINE
  5
778
  8
0
 10
15.30646561419163
 20
183.0319876744253
 30
0.0
 11
15.30646561419185
 21
173.2319876744252
 31
0.0
1001
ACDBBLOCKREPETAG
1070
     1
1071
       24
1005
778
  0
LINE
  5
779
  8
0
 10
14.991258205949849
 20
183.03198767442521
 30
0.0
 11
14.991258205949849
 21
173.2319876744252
 31
0.0
1001
ACDBBLOCKREPETAG
1070
     1
1071
       25
1005
779
  0
LINE
  5
77A
  8
0
 10
14.991258205949951
 20
173.2319876744252
 30
0.0
 11
15.30646561419185
 21
173.2319876744252
 31
0.0
1001
ACDBBLOCKREPETAG
1070
     1
1071
       27
1005
77A
  0
LINE
  5
77B
  8
0
 10
12.07146190409434
 20
175.68198767442539
 30
0.0
 11
12.07146190409423
 21
180.58198767442539
 31
0.0
1001
ACDBBLOCKREPETAG
1070
     1
1071
       28
1005
77B
  0
LINE
  5
77C
  8
0
 10
-30.231618411187831
 20
180.4233571615022
 30
0.0
 11
-29.494402024667568
 21
175.83780881039641
 31
0.0
1001
ACDBBLOCKREPETAG
1070
     1
1071
       32
1005
77C
  0
LINE
  5
77D
  8
0
 10
-31.58214412739289
 20
180.41821059139039
 30
0.0
 11
-30.846583578500869
 21
175.8429616905579
 31
0.0
1001
ACDBBLOCKREPETAG
1070
     1
1071
       34
1005
77D
  0
LINE
  5
77E
  8
0
 10
-32.932669843595917
 20
180.4130640212787
 30
0.0
 11
-32.198765132335517
 21
175.84811457071939
 31
0.0
1001
ACDBBLOCKREPETAG
1070
     1
1071
       36
1005
77E
  0
LINE
  5
77F
  8
0
 10
-34.283195559800099
 20
180.4079174511669
 30
0.0
 11
-33.550946686170192
 21
175.85326745088099
 31
0.0
1001
ACDBBLOCKREPETAG
1070
     1
1071
       38
1005
77F
  0
LINE
  5
780
  8
0
 10
-24.829515546370772
 20
180.4439434419493
 30
0.0
 11
-24.085675809330791
 21
175.81719728975031
 31
0.0
1001
ACDBBLOCKREPETAG
1070
     1
1071
      112
1005
780
  0
LINE
  5
781
  8
0
 10
-26.180041262575859
 20
180.4387968718375
 30
0.0
 11
-25.437857363164088
 21
175.8223501699118
 31
0.0
1001
ACDBBLOCKREPETAG
1070
     1
1071
      114
1005
781
  0
LINE
  5
782
  8
0
 10
-27.530566978778861
 20
180.43365030172581
 30
0.0
 11
-26.79003891699876
 21
175.8275030500734
 31
0.0
1001
ACDBBLOCKREPETAG
1070
     1
1071
      116
1005
782
  0
LINE
  5
783
  8
0
 10
-28.88109269498306
 20
180.428503731614
 30
0.0
 11
-28.142220470833418
 21
175.83265593023489
 31
0.0
1001
ACDBBLOCKREPETAG
1070
     1
1071
      118
1005
783
  0
LINE
  5
784
  8
0
 10
-19.42741268155326
 20
180.46452972239629
 30
0.0
 11
-18.6769495939945
 21
175.7965857691043
 31
0.0
1001
ACDBBLOCKREPETAG
1070
     1
1071
      119
1005
784
  0
LINE
  5
785
  8
0
 10
-20.77793839775811
 20
180.4593831522846
 30
0.0
 11
-20.029131147828348
 21
175.80173864926579
 31
0.0
1001
ACDBBLOCKREPETAG
1070
     1
1071
      121
1005
785
  0
LINE
  5
786
  8
0
 10
-22.1284641139619
 20
180.4542365821728
 30
0.0
 11
-21.381312701662718
 21
175.8068915294273
 31
0.0
1001
ACDBBLOCKREPETAG
1070
     1
1071
      123
1005
786
  0
LINE
  5
787
  8
0
 10
-23.478989830166171
 20
180.44909001206111
 30
0.0
 11
-22.733494255496861
 21
175.81204440958879
 31
0.0
1001
ACDBBLOCKREPETAG
1070
     1
1071
      125
1005
787
  0
LINE
  5
788
  8
0
 10
-14.025309816736209
 20
180.4851160028434
 30
0.0
 11
-13.26822337865773
 21
175.7759742484582
 31
0.0
1001
ACDBBLOCKREPETAG
1070
     1
1071
      127
1005
788
  0
LINE
  5
789
  8
0
 10
-15.375835532941069
 20
180.47996943273171
 30
0.0
 11
-14.62040493249159
 21
175.78112712861969
 31
0.0
1001
ACDBBLOCKREPETAG
1070
     1
1071
      129
1005
789
  0
LINE
  5
78A
  8
0
 10
-16.726361249144841
 20
180.4748228626199
 30
0.0
 11
-15.972586486325939
 21
175.7862800087812
 31
0.0
1001
ACDBBLOCKREPETAG
1070
     1
1071
      131
1005
78A
  0
LINE
  5
78B
  8
0
 10
-18.076886965349122
 20
180.4696762925081
 30
0.0
 11
-17.324768040160091
 21
175.79143288894281
 31
0.0
1001
ACDBBLOCKREPETAG
1070
     1
1071
      133
1005
78B
  0
LINE
  5
78C
  8
0
 10
-8.6232069519191548
 20
180.5057022832905
 30
0.0
 11
-7.8594971633209774
 21
175.7553627278121
 31
0.0
1001
ACDBBLOCKREPETAG
1070
     1
1071
      135
1005
78C
  0
LINE
  5
78D
  8
0
 10
-9.9737326681240148
 20
180.5005557131787
 30
0.0
 11
-9.2116787171548218
 21
175.76051560797359
 31
0.0
1001
ACDBBLOCKREPETAG
1070
     1
1071
      137
1005
78D
  0
LINE
  5
78E
  8
0
 10
-11.32425838432779
 20
180.49540914306701
 30
0.0
 11
-10.56386027098919
 21
175.76566848813519
 31
0.0
1001
ACDBBLOCKREPETAG
1070
     1
1071
      139
1005
78E
  0
LINE
  5
78F
  8
0
 10
-12.67478410053207
 20
180.4902625729552
 30
0.0
 11
-11.91604182482333
 21
175.77082136829671
 31
0.0
1001
ACDBBLOCKREPETAG
1070
     1
1071
      141
1005
78F
  0
LINE
  5
790
  8
0
 10
-3.2211040871020939
 20
180.52628856373761
 30
0.0
 11
-2.4507709479842101
 21
175.734751207166
 31
0.0
1001
ACDBBLOCKREPETAG
1070
     1
1071
      143
1005
790
  0
LINE
  5
791
  8
0
 10
-4.5716298033069576
 20
180.5211419936258
 30
0.0
 11
-3.8029525018180581
 21
175.73990408732749
 31
0.0
1001
ACDBBLOCKREPETAG
1070
     1
1071
      145
1005
791
  0
LINE
  5
792
  8
0
 10
-5.922155519510734
 20
180.51599542351411
 30
0.0
 11
-5.1551340556524279
 21
175.74505696748909
 31
0.0
1001
ACDBBLOCKREPETAG
1070
     1
1071
      147
1005
792
  0
LINE
  5
793
  8
0
 10
-7.272681235715023
 20
180.51084885340231
 30
0.0
 11
-6.5073156094865681
 21
175.75020984765061
 31
0.0
1001
ACDBBLOCKREPETAG
1070
     1
1071
      149
1005
793
  0
LINE
  5
794
  8
0
 10
2.1809987777149589
 20
180.5468748441846
 30
0.0
 11
2.95795526735255
 21
175.71413968652001
 31
0.0
1001
ACDBBLOCKREPETAG
1070
     1
1071
      151
1005
794
  0
LINE
  5
795
  8
0
 10
0.830473061510089
 20
180.54172827407291
 30
0.0
 11
1.6057737135187129
 21
175.7192925666815
 31
0.0
1001
ACDBBLOCKREPETAG
1070
     1
1071
      153
1005
795
  0
LINE
  5
796
  8
0
 10
-0.5200526546936786
 20
180.5365817039611
 30
0.0
 11
0.2535921596843309
 21
175.72444544684299
 31
0.0
1001
ACDBBLOCKREPETAG
1070
     1
1071
      155
1005
796
  0
LINE
  5
797
  8
0
 10
-1.87057837089797
 20
180.53143513384941
 30
0.0
 11
-1.0985893941498079
 21
175.72959832700451
 31
0.0
1001
ACDBBLOCKREPETAG
1070
     1
1071
      157
1005
797
  0
LINE
  5
798
  8
0
 10
11.395053804445331
 20
175.68198767442499
 30
0.0
 11
12.07146190409423
 21
175.68198767442499
 31
0.0
1001
ACDBBLOCKREPETAG
1070
     1
1071
      159
1005
798
  0
LINE
  5
799
  8
0
 10
12.07146190409423
 20
175.68198767442499
 30
0.0
 11
14.99125820594984
 21
173.2319876744252
 31
0.0
1001
ACDBBLOCKREPETAG
1070
     1
1071
      160
1005
799
  0
LINE
  5
79A
  8
0
 10
-169.41371565259021
 20
-31.40379559849552
 30
0.0
 11
-169.21159989056181
 21
21.633961265095891
 31
0.0
1001
ACDBBLOCKREPETAG
1070
     1
1071
        0
1005
79A
  0
LINE
  5
79B
  8
0
 10
-164.51371565259049
 20
-31.40379559849551
 30
0.0
 11
-164.71578705019721
 21
21.622319474356679
 31
0.0
1001
ACDBBLOCKREPETAG
1070
     1
1071
        1
1005
79B
  0
LINE
  5
79C
  8
0
 10
-166.96757406729279
 20
25.00000000000005
 30
0.0
 11
-164.71578705019721
 21
21.622319474356679
 31
0.0
1001
ACDBBLOCKREPETAG
1070
     1
1071
        2
1005
79C
  0
LINE
  5
79D
  8
0
 10
-166.96757406729279
 20
25.00000000000005
 30
0.0
 11
-169.21159989056181
 21
21.633961265095891
 31
0.0
1001
ACDBBLOCKREPETAG
1070
     1
1071
        3
1005
79D
  0
LINE
  5
79E
  8
0
 10
-164.69293244596071
 20
15.62497948195459
 30
0.0
 11
-169.2372829959734
 21
14.894386445953529
 31
0.0
1001
ACDBBLOCKREPETAG
1070
     1
1071
        6
1005
79E
  0
LINE
  5
79F
  8
0
 10
-166.06434265938981
 20
23.645152888145521
 30
0.0
 11
-167.40009576808879
 21
23.43040450808699
 31
0.0
1001
ACDBBLOCKREPETAG
1070
     1
1071
        7
1005
79F
  0
LINE
  5
7A0
  8
0
 10
-166.96757406729279
 20
25.00000000000005
 30
0.0
 11
-169.2300608482868
 21
16.78957022178674
 31
0.0
1001
ACDBBLOCKREPETAG
1070
     1
1071
        8
1005
7A0
  0
LINE
  5
7A1
  8
0
 10
-164.69807901607251
 20
16.975505198158761
 30
0.0
 11
-169.23213011581191
 21
16.24656799978791
 31
0.0
1001
ACDBBLOCKREPETAG
1070
     1
1071
       10
1005
7A1
  0
LINE
  5
7A2
  8
0
 10
-164.70322558618429
 20
18.326030914363731
 30
0.0
 11
-168.99688791703869
 21
17.63574090188731
 31
0.0
1001
ACDBBLOCKREPETAG
1070
     1
1071
       12
1005
7A2
  0
LINE
  5
7A3
  8
0
 10
-164.70837215629601
 20
19.67655663056663
 30
0.0
 11
-168.60724358965331
 21
19.049736959389922
 31
0.0
1001
ACDBBLOCKREPETAG
1070
     1
1071
       14
1005
7A3
  0
LINE
  5
7A4
  8
0
 10
-164.71351872640781
 20
21.027082346771241
 30
0.0
 11
-168.21759926226781
 21
20.463733016892611
 31
0.0
1001
ACDBBLOCKREPETAG
1070
     1
1071
       16
1005
7A4
  0
LINE
  5
7A5
  8
0
 10
-165.1708479818019
 20
22.30491087176377
 30
0.0
 11
-167.82795493488251
 21
21.877729074394949
 31
0.0
1001
ACDBBLOCKREPETAG
1070
     1
1071
       18
1005
7A5
  0
LINE
  5
7A6
  8
0
 10
-164.51371565259049
 20
-31.40379559849551
 30
0.0
 11
-164.51371565259049
 21
-32.080203698144402
 31
0.0
1001
ACDBBLOCKREPETAG
1070
     1
1071
       20
1005
7A6
  0
LINE
  5
7A7
  8
0
 10
-164.51371565259049
 20
-32.080203698144402
 30
0.0
 11
-162.0637156525907
 21
-35.000000000000021
 31
0.0
1001
ACDBBLOCKREPETAG
1070
     1
1071
       22
1005
7A7
  0
LINE
  5
7A8
  8
0
 10
-162.06371565259059
 20
-35.000000000000142
 30
0.0
 11
-162.06371565259059
 21
-35.315207408241811
 31
0.0
1001
ACDBBLOCKREPETAG
1070
     1
1071
       23
1005
7A8
  0
LINE
  5
7A9
  8
0
 10
-162.06371565259059
 20
-35.315207408241811
 30
0.0
 11
-171.86371565259071
 21
-35.315207408242031
 31
0.0
1001
ACDBBLOCKREPETAG
1070
     1
1071
       24
1005
7A9
  0
LINE
  5
7AA
  8
0
 10
-162.0637156525907
 20
-35.000000000000021
 30
0.0
 11
-171.86371565259071
 21
-35.000000000000021
 31
0.0
1001
ACDBBLOCKREPETAG
1070
     1
1071
       25
1005
7AA
  0
LINE
  5
7AB
  8
0
 10
-171.86371565259071
 20
-35.000000000000128
 30
0.0
 11
-171.86371565259071
 21
-35.315207408242031
 31
0.0
1001
ACDBBLOCKREPETAG
1070
     1
1071
       27
1005
7AB
  0
LINE
  5
7AC
  8
0
 10
-169.4137156525905
 20
-32.080203698144523
 30
0.0
 11
-164.51371565259049
 21
-32.080203698144402
 31
0.0
1001
ACDBBLOCKREPETAG
1070
     1
1071
       28
1005
7AC
  0
LINE
  5
7AD
  8
0
 10
-164.67234616551369
 20
10.222876617137651
 30
0.0
 11
-169.2578945166195
 21
9.4856602306173912
 31
0.0
1001
ACDBBLOCKREPETAG
1070
     1
1071
       32
1005
7AD
  0
LINE
  5
7AE
  8
0
 10
-164.67749273562541
 20
11.57340233334271
 30
0.0
 11
-169.2527416364579
 21
10.83784178445069
 31
0.0
1001
ACDBBLOCKREPETAG
1070
     1
1071
       34
1005
7AE
  0
LINE
  5
7AF
  8
0
 10
-164.68263930573721
 20
12.92392804954574
 30
0.0
 11
-169.24758875629641
 21
12.190023338285339
 31
0.0
1001
ACDBBLOCKREPETAG
1070
     1
1071
       36
1005
7AF
  0
LINE
  5
7B0
  8
0
 10
-164.68778587584899
 20
14.27445376574992
 30
0.0
 11
-169.24243587613489
 21
13.54220489212002
 31
0.0
1001
ACDBBLOCKREPETAG
1070
     1
1071
       38
1005
7B0
  0
LINE
  5
7B1
  8
0
 10
-164.65175988506661
 20
4.8207737523205969
 30
0.0
 11
-169.27850603726549
 21
4.0769340152806199
 31
0.0
1001
ACDBBLOCKREPETAG
1070
     1
1071
      112
1005
7B1
  0
LINE
  5
7B2
  8
0
 10
-164.65690645517839
 20
6.1712994685256808
 30
0.0
 11
-169.273353157104
 21
5.4291155691139181
 31
0.0
1001
ACDBBLOCKREPETAG
1070
     1
1071
      114
1005
7B2
  0
LINE
  5
7B3
  8
0
 10
-164.66205302529011
 20
7.5218251847286828
 30
0.0
 11
-169.26820027694251
 21
6.7812971229485859
 31
0.0
1001
ACDBBLOCKREPETAG
1070
     1
1071
      116
1005
7B3
  0
LINE
  5
7B4
  8
0
 10
-164.66719959540191
 20
8.8723509009328865
 30
0.0
 11
-169.26304739678099
 21
8.1334786767832483
 31
0.0
1001
ACDBBLOCKREPETAG
1070
     1
1071
      118
1005
7B4
  0
LINE
  5
7B5
  8
0
 10
-164.63117360461951
 20
-0.5813291124969169
 30
0.0
 11
-169.29911755791159
 21
-1.331792200055673
 31
0.0
1001
ACDBBLOCKREPETAG
1070
     1
1071
      119
1005
7B5
  0
LINE
  5
7B6
  8
0
 10
-164.63632017473131
 20
0.7691966037079397
 30
0.0
 11
-169.2939646777501
 21
0.020389353778171
 31
0.0
1001
ACDBBLOCKREPETAG
1070
     1
1071
      121
1005
7B6
  0
LINE
  5
7B7
  8
0
 10
-164.641466744843
 20
2.1197223199117232
 30
0.0
 11
-169.28881179758861
 21
1.372570907612541
 31
0.0
1001
ACDBBLOCKREPETAG
1070
     1
1071
      123
1005
7B7
  0
LINE
  5
7B8
  8
0
 10
-164.64661331495481
 20
3.4702480361159971
 30
0.0
 11
-169.283658917427
 21
2.724752461446684
 31
0.0
1001
ACDBBLOCKREPETAG
1070
     1
1071
      125
1005
7B8
  0
LINE
  5
7B9
  8
0
 10
-164.6105873241724
 20
-5.9834319773139661
 30
0.0
 11
-169.31972907855771
 21
-6.7405184153924402
 31
0.0
1001
ACDBBLOCKREPETAG
1070
     1
1071
      127
1005
7B9
  0
LINE
  5
7BA
  8
0
 10
-164.6157338942842
 20
-4.6329062611091061
 30
0.0
 11
-169.31457619839611
 21
-5.3883368615585852
 31
0.0
1001
ACDBBLOCKREPETAG
1070
     1
1071
      129
1005
7BA
  0
LINE
  5
7BB
  8
0
 10
-164.62088046439601
 20
-3.2823805449053332
 30
0.0
 11
-169.30942331823459
 21
-4.0361553077242247
 31
0.0
1001
ACDBBLOCKREPETAG
1070
     1
1071
      131
1005
7BB
  0
LINE
  5
7BC
  8
0
 10
-164.6260270345077
 20
-1.931854828701048
 30
0.0
 11
-169.3042704380731
 21
-2.6839737538900792
 31
0.0
1001
ACDBBLOCKREPETAG
1070
     1
1071
      133
1005
7BC
  0
LINE
  5
7BD
  8
0
 10
-164.59000104372541
 20
-11.385534842131021
 30
0.0
 11
-169.3403405992037
 21
-12.149244630729189
 31
0.0
1001
ACDBBLOCKREPETAG
1070
     1
1071
      135
1005
7BD
  0
LINE
  5
7BE
  8
0
 10
-164.5951476138371
 20
-10.035009125926161
 30
0.0
 11
-169.33518771904221
 21
-10.79706307689535
 31
0.0
1001
ACDBBLOCKREPETAG
1070
     1
1071
      137
1005
7BE
  0
LINE
  5
7BF
  8
0
 10
-164.6002941839489
 20
-8.6844834097223824
 30
0.0
 11
-169.33003483888069
 21
-9.4448815230609853
 31
0.0
1001
ACDBBLOCKREPETAG
1070
     1
1071
      139
1005
7BF
  0
LINE
  5
7C0
  8
0
 10
-164.60544075406071
 20
-7.333957693518097
 30
0.0
 11
-169.3248819587192
 21
-8.0926999692268424
 31
0.0
1001
ACDBBLOCKREPETAG
1070
     1
1071
      141
1005
7C0
  0
LINE
  5
7C1
  8
0
 10
-164.5694147632783
 20
-16.787637706948079
 30
0.0
 11
-169.3609521198498
 21
-17.55797084606596
 31
0.0
1001
ACDBBLOCKREPETAG
1070
     1
1071
      143
1005
7C1
  0
LINE
  5
7C2
  8
0
 10
-164.57456133338999
 20
-15.43711199074321
 30
0.0
 11
-169.35579923968831
 21
-16.205789292232112
 31
0.0
1001
ACDBBLOCKREPETAG
1070
     1
1071
      145
1005
7C2
  0
LINE
  5
7C3
  8
0
 10
-164.5797079035018
 20
-14.086586274539441
 30
0.0
 11
-169.35064635952679
 21
-14.85360773839774
 31
0.0
1001
ACDBBLOCKREPETAG
1070
     1
1071
      147
1005
7C3
  0
LINE
  5
7C4
  8
0
 10
-164.5848544736136
 20
-12.736060558335151
 30
0.0
 11
-169.34549347936519
 21
-13.5014261845636
 31
0.0
1001
ACDBBLOCKREPETAG
1070
     1
1071
      149
1005
7C4
  0
LINE
  5
7C5
  8
0
 10
-164.5488284828312
 20
-22.189740571765132
 30
0.0
 11
-169.3815636404959
 21
-22.966697061402719
 31
0.0
1001
ACDBBLOCKREPETAG
1070
     1
1071
      151
1005
7C5
  0
LINE
  5
7C6
  8
0
 10
-164.553975052943
 20
-20.839214855560272
 30
0.0
 11
-169.37641076033441
 21
-21.614515507568889
 31
0.0
1001
ACDBBLOCKREPETAG
1070
     1
1071
      153
1005
7C6
  0
LINE
  5
7C7
  8
0
 10
-164.55912162305469
 20
-19.488689139356492
 30
0.0
 11
-169.37125788017289
 21
-20.262333953734501
 31
0.0
1001
ACDBBLOCKREPETAG
1070
     1
1071
      155
1005
7C7
  0
LINE
  5
7C8
  8
0
 10
-164.5642681931665
 20
-18.1381634231522
 30
0.0
 11
-169.36610500001129
 21
-18.910152399900358
 31
0.0
1001
ACDBBLOCKREPETAG
1070
     1
1071
      157
1005
7C8
  0
LINE
  5
7C9
  8
0
 10
-169.41371565259081
 20
-31.403795598495499
 30
0.0
 11
-169.41371565259081
 21
-32.080203698144402
 31
0.0
1001
ACDBBLOCKREPETAG
1070
     1
1071
      159
1005
7C9
  0
LINE
  5
7CA
  8
0
 10
-169.41371565259081
 20
-32.080203698144402
 30
0.0
 11
-171.86371565259071
 21
-35.000000000000021
 31
0.0
1001
ACDBBLOCKREPETAG
1070
     1
1071
      160
1005
7CA
  0
LINE
  5
7CB
  8
0
 10
-2.000000000000286
 20
284.5
 30
0.0
 11
-2.0000000000002629
 21
267.5
 31
0.0
  0
LINE
  5
7CC
  8
0
 10
-20.000000000000291
 20
284.5
 30
0.0
 11
-20.00000000000027
 21
267.5
 31
0.0
  0
POLYLINE
  5
7CD
  8
0
 66
     1
 10
0.0
 20
0.0
 30
0.0
 70
     1
  0
VERTEX
  5
9A4
  8
0
 10
-17.999999999999812
 20
268.00000000000091
 30
0.0
  0
VERTEX
  5
9A5
  8
0
 10
-18.999999999999812
 20
269.50000000000091
 30
0.0
  0
VERTEX
  5
9A6
  8
0
 10
-19.000000000000281
 20
282.49999999999909
 30
0.0
  0
VERTEX
  5
9A7
  8
0
 10
-18.000000000000291
 20
283.99999999999909
 30
0.0
  0
VERTEX
  5
9A8
  8
0
 10
-11.500000000000281
 20
283.99999999999909
 30
0.0
  0
VERTEX
  5
9A9
  8
0
 10
-11.50000000000027
 20
268.0
 30
0.0
  0
SEQEND
  5
9AA
  8
0
  0
POLYLINE
  5
7CE
  8
0
 66
     1
 10
0.0
 20
0.0
 30
0.0
 70
     1
  0
VERTEX
  5
9AB
  8
0
 10
-10.500000000000259
 20
267.99999999999909
 30
0.0
  0
VERTEX
  5
9AC
  8
0
 10
-10.50000000000029
 20
283.99999999999909
 30
0.0
  0
VERTEX
  5
9AD
  8
0
 10
-4.0000000000011946
 20
283.99999999999909
 30
0.0
  0
VERTEX
  5
9AE
  8
0
 10
-3.0000000000011928
 20
282.49999999999909
 30
0.0
  0
VERTEX
  5
9AF
  8
0
 10
-3.000000000000266
 20
269.49999999999818
 30
0.0
  0
VERTEX
  5
9B0
  8
0
 10
-4.0000000000002638
 20
267.99999999999818
 30
0.0
  0
SEQEND
  5
9B1
  8
0
  0
LINE
  5
7CF
  8
0
 10
-2.0000000000002638
 20
267.5
 30
0.0
 11
-2.000000000000242
 21
250.5
 31
0.0
  0
LINE
  5
7D0
  8
0
 10
-20.00000000000027
 20
267.5
 30
0.0
 11
-20.000000000000249
 21
250.5
 31
0.0
  0
POLYLINE
  5
7D1
  8
0
 66
     1
 10
0.0
 20
0.0
 30
0.0
 70
     1
  0
VERTEX
  5
9B2
  8
0
 10
-17.99999999999979
 20
251.00000000000091
 30
0.0
  0
VERTEX
  5
9B3
  8
0
 10
-18.99999999999979
 20
252.50000000000091
 30
0.0
  0
VERTEX
  5
9B4
  8
0
 10
-19.000000000000259
 20
265.49999999999909
 30
0.0
  0
VERTEX
  5
9B5
  8
0
 10
-18.00000000000027
 20
266.99999999999909
 30
0.0
  0
VERTEX
  5
9B6
  8
0
 10
-11.50000000000027
 20
266.99999999999909
 30
0.0
  0
VERTEX
  5
9B7
  8
0
 10
-11.50000000000024
 20
251.0
 30
0.0
  0
SEQEND
  5
9B8
  8
0
  0
POLYLINE
  5
7D2
  8
0
 66
     1
 10
0.0
 20
0.0
 30
0.0
 70
     1
  0
VERTEX
  5
9B9
  8
0
 10
-10.50000000000024
 20
250.99999999999909
 30
0.0
  0
VERTEX
  5
9BA
  8
0
 10
-10.500000000000259
 20
266.99999999999909
 30
0.0
  0
VERTEX
  5
9BB
  8
0
 10
-4.0000000000011742
 20
266.99999999999909
 30
0.0
  0
VERTEX
  5
9BC
  8
0
 10
-3.0000000000011711
 20
265.49999999999909
 30
0.0
  0
VERTEX
  5
9BD
  8
0
 10
-3.0000000000002451
 20
252.49999999999821
 30
0.0
  0
VERTEX
  5
9BE
  8
0
 10
-4.0000000000002434
 20
250.99999999999821
 30
0.0
  0
SEQEND
  5
9BF
  8
0
  0
LINE
  5
7D3
  8
0
 10
-2.000000000000242
 20
250.5
 30
0.0
 11
-2.0000000000002198
 21
233.5
 31
0.0
  0
LINE
  5
7D4
  8
0
 10
-20.000000000000242
 20
250.5
 30
0.0
 11
-20.000000000000231
 21
233.5
 31
0.0
  0
POLYLINE
  5
7D5
  8
0
 66
     1
 10
0.0
 20
0.0
 30
0.0
 70
     1
  0
VERTEX
  5
9C0
  8
0
 10
-17.999999999999769
 20
234.00000000000091
 30
0.0
  0
VERTEX
  5
9C1
  8
0
 10
-18.999999999999769
 20
235.50000000000091
 30
0.0
  0
VERTEX
  5
9C2
  8
0
 10
-19.000000000000242
 20
248.49999999999909
 30
0.0
  0
VERTEX
  5
9C3
  8
0
 10
-18.000000000000242
 20
249.99999999999909
 30
0.0
  0
VERTEX
  5
9C4
  8
0
 10
-11.50000000000024
 20
249.99999999999909
 30
0.0
  0
VERTEX
  5
9C5
  8
0
 10
-11.50000000000022
 20
234.0
 30
0.0
  0
SEQEND
  5
9C6
  8
0
  0
POLYLINE
  5
7D6
  8
0
 66
     1
 10
0.0
 20
0.0
 30
0.0
 70
     1
  0
VERTEX
  5
9C7
  8
0
 10
-10.50000000000022
 20
233.99999999999909
 30
0.0
  0
VERTEX
  5
9C8
  8
0
 10
-10.50000000000024
 20
249.99999999999909
 30
0.0
  0
VERTEX
  5
9C9
  8
0
 10
-4.0000000000011511
 20
249.99999999999909
 30
0.0
  0
VERTEX
  5
9CA
  8
0
 10
-3.0000000000011502
 20
248.49999999999909
 30
0.0
  0
VERTEX
  5
9CB
  8
0
 10
-3.000000000000222
 20
235.49999999999821
 30
0.0
  0
VERTEX
  5
9CC
  8
0
 10
-4.0000000000002212
 20
233.99999999999821
 30
0.0
  0
SEQEND
  5
9CD
  8
0
  0
LINE
  5
7D7
  8
0
 10
-2.0000000000002212
 20
233.5
 30
0.0
 11
-2.0000000000001981
 21
216.5
 31
0.0
  0
LINE
  5
7D8
  8
0
 10
-20.000000000000231
 20
233.5
 30
0.0
 11
-20.000000000000199
 21
216.5
 31
0.0
  0
POLYLINE
  5
7D9
  8
0
 66
     1
 10
0.0
 20
0.0
 30
0.0
 70
     1
  0
VERTEX
  5
9CE
  8
0
 10
-17.999999999999751
 20
217.00000000000091
 30
0.0
  0
VERTEX
  5
9CF
  8
0
 10
-18.999999999999751
 20
218.50000000000091
 30
0.0
  0
VERTEX
  5
9D0
  8
0
 10
-19.00000000000022
 20
231.49999999999909
 30
0.0
  0
VERTEX
  5
9D1
  8
0
 10
-18.00000000000022
 20
232.99999999999909
 30
0.0
  0
VERTEX
  5
9D2
  8
0
 10
-11.50000000000022
 20
232.99999999999909
 30
0.0
  0
VERTEX
  5
9D3
  8
0
 10
-11.500000000000201
 20
217.0
 30
0.0
  0
SEQEND
  5
9D4
  8
0
  0
POLYLINE
  5
7DA
  8
0
 66
     1
 10
0.0
 20
0.0
 30
0.0
 70
     1
  0
VERTEX
  5
9D5
  8
0
 10
-10.500000000000201
 20
216.99999999999909
 30
0.0
  0
VERTEX
  5
9D6
  8
0
 10
-10.50000000000022
 20
232.99999999999909
 30
0.0
  0
VERTEX
  5
9D7
  8
0
 10
-4.0000000000011289
 20
232.99999999999909
 30
0.0
  0
VERTEX
  5
9D8
  8
0
 10
-3.0000000000011271
 20
231.49999999999909
 30
0.0
  0
VERTEX
  5
9D9
  8
0
 10
-3.0000000000002012
 20
218.49999999999821
 30
0.0
  0
VERTEX
  5
9DA
  8
0
 10
-4.000000000000199
 20
216.99999999999821
 30
0.0
  0
SEQEND
  5
9DB
  8
0
  0
LINE
  5
7DB
  8
0
 10
-2.000000000000199
 20
216.5
 30
0.0
 11
-2.0000000000001759
 21
199.5
 31
0.0
  0
LINE
  5
7DC
  8
0
 10
-20.000000000000199
 20
216.5
 30
0.0
 11
-20.000000000000181
 21
199.5
 31
0.0
  0
POLYLINE
  5
7DD
  8
0
 66
     1
 10
0.0
 20
0.0
 30
0.0
 70
     1
  0
VERTEX
  5
9DC
  8
0
 10
-17.999999999999719
 20
200.00000000000091
 30
0.0
  0
VERTEX
  5
9DD
  8
0
 10
-18.999999999999719
 20
201.50000000000091
 30
0.0
  0
VERTEX
  5
9DE
  8
0
 10
-19.000000000000199
 20
214.49999999999909
 30
0.0
  0
VERTEX
  5
9DF
  8
0
 10
-18.000000000000199
 20
215.99999999999909
 30
0.0
  0
VERTEX
  5
9E0
  8
0
 10
-11.500000000000201
 20
215.99999999999909
 30
0.0
  0
VERTEX
  5
9E1
  8
0
 10
-11.500000000000179
 20
200.0
 30
0.0
  0
SEQEND
  5
9E2
  8
0
  0
POLYLINE
  5
7DE
  8
0
 66
     1
 10
0.0
 20
0.0
 30
0.0
 70
     1
  0
VERTEX
  5
9E3
  8
0
 10
-10.500000000000179
 20
199.99999999999909
 30
0.0
  0
VERTEX
  5
9E4
  8
0
 10
-10.500000000000201
 20
215.99999999999909
 30
0.0
  0
VERTEX
  5
9E5
  8
0
 10
-4.0000000000011076
 20
215.99999999999909
 30
0.0
  0
VERTEX
  5
9E6
  8
0
 10
-3.0000000000011058
 20
214.49999999999909
 30
0.0
  0
VERTEX
  5
9E7
  8
0
 10
-3.000000000000179
 20
201.49999999999821
 30
0.0
  0
VERTEX
  5
9E8
  8
0
 10
-4.0000000000001767
 20
199.99999999999821
 30
0.0
  0
SEQEND
  5
9E9
  8
0
  0
LINE
  5
7DF
  8
0
 10
-2.0000000000001772
 20
199.5
 30
0.0
 11
-2.0000000000001541
 21
182.5
 31
0.0
  0
LINE
  5
7E0
  8
0
 10
-20.000000000000181
 20
199.5
 30
0.0
 11
-20.00000000000016
 21
182.5
 31
0.0
  0
POLYLINE
  5
7E1
  8
0
 66
     1
 10
0.0
 20
0.0
 30
0.0
 70
     1
  0
VERTEX
  5
9EA
  8
0
 10
-17.999999999999702
 20
183.00000000000091
 30
0.0
  0
VERTEX
  5
9EB
  8
0
 10
-18.999999999999702
 20
184.50000000000091
 30
0.0
  0
VERTEX
  5
9EC
  8
0
 10
-19.000000000000181
 20
197.49999999999909
 30
0.0
  0
VERTEX
  5
9ED
  8
0
 10
-18.000000000000181
 20
198.99999999999909
 30
0.0
  0
VERTEX
  5
9EE
  8
0
 10
-11.500000000000179
 20
198.99999999999909
 30
0.0
  0
VERTEX
  5
9EF
  8
0
 10
-11.50000000000016
 20
183.0
 30
0.0
  0
SEQEND
  5
9F0
  8
0
  0
POLYLINE
  5
7E2
  8
0
 66
     1
 10
0.0
 20
0.0
 30
0.0
 70
     1
  0
VERTEX
  5
9F1
  8
0
 10
-10.50000000000016
 20
182.99999999999909
 30
0.0
  0
VERTEX
  5
9F2
  8
0
 10
-10.500000000000179
 20
198.99999999999909
 30
0.0
  0
VERTEX
  5
9F3
  8
0
 10
-4.0000000000010871
 20
198.99999999999909
 30
0.0
  0
VERTEX
  5
9F4
  8
0
 10
-3.000000000001084
 20
197.49999999999909
 30
0.0
  0
VERTEX
  5
9F5
  8
0
 10
-3.0000000000001581
 20
184.49999999999821
 30
0.0
  0
VERTEX
  5
9F6
  8
0
 10
-4.0000000000001563
 20
182.99999999999821
 30
0.0
  0
SEQEND
  5
9F7
  8
0
  0
LINE
  5
7E3
  8
0
 10
-2.000000000000163
 20
182.5
 30
0.0
 11
-2.0000000000001399
 21
165.5
 31
0.0
  0
LINE
  5
7E4
  8
0
 10
-20.000000000000171
 20
182.5
 30
0.0
 11
-20.000000000000149
 21
165.5
 31
0.0
  0
POLYLINE
  5
7E5
  8
0
 66
     1
 10
0.0
 20
0.0
 30
0.0
 70
     1
  0
VERTEX
  5
9F8
  8
0
 10
-17.999999999999691
 20
166.00000000000091
 30
0.0
  0
VERTEX
  5
9F9
  8
0
 10
-18.999999999999691
 20
167.50000000000091
 30
0.0
  0
VERTEX
  5
9FA
  8
0
 10
-19.00000000000016
 20
180.49999999999909
 30
0.0
  0
VERTEX
  5
9FB
  8
0
 10
-18.00000000000016
 20
181.99999999999909
 30
0.0
  0
VERTEX
  5
9FC
  8
0
 10
-11.50000000000016
 20
181.99999999999909
 30
0.0
  0
VERTEX
  5
9FD
  8
0
 10
-11.50000000000014
 20
166.0
 30
0.0
  0
SEQEND
  5
9FE
  8
0
  0
POLYLINE
  5
7E6
  8
0
 66
     1
 10
0.0
 20
0.0
 30
0.0
 70
     1
  0
VERTEX
  5
9FF
  8
0
 10
-10.50000000000014
 20
165.99999999999909
 30
0.0
  0
VERTEX
  5
A00
  8
0
 10
-10.50000000000016
 20
181.99999999999909
 30
0.0
  0
VERTEX
  5
A01
  8
0
 10
-4.000000000001072
 20
181.99999999999909
 30
0.0
  0
VERTEX
  5
A02
  8
0
 10
-3.0000000000010698
 20
180.49999999999909
 30
0.0
  0
VERTEX
  5
A03
  8
0
 10
-3.000000000000143
 20
167.49999999999821
 30
0.0
  0
VERTEX
  5
A04
  8
0
 10
-4.0000000000001421
 20
165.99999999999821
 30
0.0
  0
SEQEND
  5
A05
  8
0
  0
LINE
  5
7E7
  8
0
 10
-2.0000000000001519
 20
165.5
 30
0.0
 11
-2.0000000000001301
 21
148.5
 31
0.0
  0
LINE
  5
7E8
  8
0
 10
-20.000000000000149
 20
165.5
 30
0.0
 11
-20.000000000000139
 21
148.5
 31
0.0
  0
POLYLINE
  5
7E9
  8
0
 66
     1
 10
0.0
 20
0.0
 30
0.0
 70
     1
  0
VERTEX
  5
A06
  8
0
 10
-17.99999999999968
 20
149.00000000000091
 30
0.0
  0
VERTEX
  5
A07
  8
0
 10
-18.99999999999968
 20
150.50000000000091
 30
0.0
  0
VERTEX
  5
A08
  8
0
 10
-19.000000000000149
 20
163.49999999999909
 30
0.0
  0
VERTEX
  5
A09
  8
0
 10
-18.000000000000149
 20
164.99999999999909
 30
0.0
  0
VERTEX
  5
A0A
  8
0
 10
-11.500000000000149
 20
164.99999999999909
 30
0.0
  0
VERTEX
  5
A0B
  8
0
 10
-11.50000000000013
 20
149.0
 30
0.0
  0
SEQEND
  5
A0C
  8
0
  0
POLYLINE
  5
7EA
  8
0
 66
     1
 10
0.0
 20
0.0
 30
0.0
 70
     1
  0
VERTEX
  5
A0D
  8
0
 10
-10.50000000000013
 20
148.99999999999909
 30
0.0
  0
VERTEX
  5
A0E
  8
0
 10
-10.500000000000149
 20
164.99999999999909
 30
0.0
  0
VERTEX
  5
A0F
  8
0
 10
-4.0000000000010623
 20
164.99999999999909
 30
0.0
  0
VERTEX
  5
A10
  8
0
 10
-3.0000000000010592
 20
163.49999999999909
 30
0.0
  0
VERTEX
  5
A11
  8
0
 10
-3.0000000000001328
 20
150.49999999999821
 30
0.0
  0
VERTEX
  5
A12
  8
0
 10
-4.0000000000001306
 20
148.99999999999821
 30
0.0
  0
SEQEND
  5
A13
  8
0
  0
LINE
  5
7EB
  8
0
 10
-2.0000000000001381
 20
148.5
 30
0.0
 11
-2.000000000000115
 21
131.5
 31
0.0
  0
LINE
  5
7EC
  8
0
 10
-20.000000000000139
 20
148.5
 30
0.0
 11
-20.000000000000121
 21
131.5
 31
0.0
  0
POLYLINE
  5
7ED
  8
0
 66
     1
 10
0.0
 20
0.0
 30
0.0
 70
     1
  0
VERTEX
  5
A14
  8
0
 10
-17.999999999999659
 20
132.00000000000091
 30
0.0
  0
VERTEX
  5
A15
  8
0
 10
-18.999999999999659
 20
133.50000000000091
 30
0.0
  0
VERTEX
  5
A16
  8
0
 10
-19.000000000000139
 20
146.49999999999909
 30
0.0
  0
VERTEX
  5
A17
  8
0
 10
-18.000000000000139
 20
147.99999999999909
 30
0.0
  0
VERTEX
  5
A18
  8
0
 10
-11.50000000000014
 20
147.99999999999909
 30
0.0
  0
VERTEX
  5
A19
  8
0
 10
-11.500000000000121
 20
132.0
 30
0.0
  0
SEQEND
  5
A1A
  8
0
  0
POLYLINE
  5
7EE
  8
0
 66
     1
 10
0.0
 20
0.0
 30
0.0
 70
     1
  0
VERTEX
  5
A1B
  8
0
 10
-10.500000000000121
 20
131.99999999999909
 30
0.0
  0
VERTEX
  5
A1C
  8
0
 10
-10.50000000000014
 20
147.99999999999909
 30
0.0
  0
VERTEX
  5
A1D
  8
0
 10
-4.0000000000010481
 20
147.99999999999909
 30
0.0
  0
VERTEX
  5
A1E
  8
0
 10
-3.0000000000010449
 20
146.49999999999909
 30
0.0
  0
VERTEX
  5
A1F
  8
0
 10
-3.000000000000119
 20
133.49999999999821
 30
0.0
  0
VERTEX
  5
A20
  8
0
 10
-4.0000000000001172
 20
131.99999999999821
 30
0.0
  0
SEQEND
  5
A21
  8
0
  0
LINE
  5
7EF
  8
0
 10
-2.0000000000001239
 20
131.5
 30
0.0
 11
-2.0000000000001008
 21
114.5
 31
0.0
  0
LINE
  5
7F0
  8
0
 10
-20.000000000000131
 20
131.5
 30
0.0
 11
-20.00000000000011
 21
114.5
 31
0.0
  0
POLYLINE
  5
7F1
  8
0
 66
     1
 10
0.0
 20
0.0
 30
0.0
 70
     1
  0
VERTEX
  5
A22
  8
0
 10
-17.999999999999648
 20
115.0000000000009
 30
0.0
  0
VERTEX
  5
A23
  8
0
 10
-18.999999999999648
 20
116.5000000000009
 30
0.0
  0
VERTEX
  5
A24
  8
0
 10
-19.000000000000121
 20
129.49999999999909
 30
0.0
  0
VERTEX
  5
A25
  8
0
 10
-18.000000000000131
 20
130.99999999999909
 30
0.0
  0
VERTEX
  5
A26
  8
0
 10
-11.500000000000121
 20
130.99999999999909
 30
0.0
  0
VERTEX
  5
A27
  8
0
 10
-11.500000000000099
 20
115.0
 30
0.0
  0
SEQEND
  5
A28
  8
0
  0
POLYLINE
  5
7F2
  8
0
 66
     1
 10
0.0
 20
0.0
 30
0.0
 70
     1
  0
VERTEX
  5
A29
  8
0
 10
-10.500000000000099
 20
114.9999999999991
 30
0.0
  0
VERTEX
  5
A2A
  8
0
 10
-10.500000000000121
 20
130.99999999999909
 30
0.0
  0
VERTEX
  5
A2B
  8
0
 10
-4.000000000001033
 20
130.99999999999909
 30
0.0
  0
VERTEX
  5
A2C
  8
0
 10
-3.0000000000010312
 20
129.49999999999909
 30
0.0
  0
VERTEX
  5
A2D
  8
0
 10
-3.0000000000001039
 20
116.4999999999982
 30
0.0
  0
VERTEX
  5
A2E
  8
0
 10
-4.000000000000103
 20
114.9999999999982
 30
0.0
  0
SEQEND
  5
A2F
  8
0
  0
LINE
  5
7F3
  8
0
 10
-2.0000000000001101
 20
114.5
 30
0.0
 11
-2.000000000000087
 21
97.500000000000028
 31
0.0
  0
LINE
  5
7F4
  8
0
 10
-20.00000000000011
 20
114.5
 30
0.0
 11
-20.000000000000089
 21
97.5
 31
0.0
  0
POLYLINE
  5
7F5
  8
0
 66
     1
 10
0.0
 20
0.0
 30
0.0
 70
     1
  0
VERTEX
  5
A30
  8
0
 10
-17.999999999999641
 20
98.000000000000909
 30
0.0
  0
VERTEX
  5
A31
  8
0
 10
-18.999999999999641
 20
99.500000000000909
 30
0.0
  0
VERTEX
  5
A32
  8
0
 10
-19.00000000000011
 20
112.4999999999991
 30
0.0
  0
VERTEX
  5
A33
  8
0
 10
-18.00000000000011
 20
113.9999999999991
 30
0.0
  0
VERTEX
  5
A34
  8
0
 10
-11.50000000000011
 20
113.9999999999991
 30
0.0
  0
VERTEX
  5
A35
  8
0
 10
-11.500000000000091
 20
98.000000000000014
 30
0.0
  0
SEQEND
  5
A36
  8
0
  0
POLYLINE
  5
7F6
  8
0
 66
     1
 10
0.0
 20
0.0
 30
0.0
 70
     1
  0
VERTEX
  5
A37
  8
0
 10
-10.500000000000091
 20
97.999999999999105
 30
0.0
  0
VERTEX
  5
A38
  8
0
 10
-10.50000000000011
 20
113.9999999999991
 30
0.0
  0
VERTEX
  5
A39
  8
0
 10
-4.0000000000010187
 20
113.9999999999991
 30
0.0
  0
VERTEX
  5
A3A
  8
0
 10
-3.0000000000010161
 20
112.4999999999991
 30
0.0
  0
VERTEX
  5
A3B
  8
0
 10
-3.0000000000000902
 20
99.499999999998209
 30
0.0
  0
VERTEX
  5
A3C
  8
0
 10
-4.0000000000000879
 20
97.999999999998209
 30
0.0
  0
SEQEND
  5
A3D
  8
0
  0
LINE
  5
7F7
  8
0
 10
-2.000000000000099
 20
97.500000000000028
 30
0.0
 11
-2.0000000000000759
 21
80.500000000000014
 31
0.0
  0
LINE
  5
7F8
  8
0
 10
-20.000000000000099
 20
97.5
 30
0.0
 11
-20.000000000000082
 21
80.5
 31
0.0
  0
POLYLINE
  5
7F9
  8
0
 66
     1
 10
0.0
 20
0.0
 30
0.0
 70
     1
  0
VERTEX
  5
A3E
  8
0
 10
-17.99999999999962
 20
81.000000000000924
 30
0.0
  0
VERTEX
  5
A3F
  8
0
 10
-18.999999999999631
 20
82.500000000000895
 30
0.0
  0
VERTEX
  5
A40
  8
0
 10
-19.000000000000099
 20
95.499999999999105
 30
0.0
  0
VERTEX
  5
A41
  8
0
 10
-18.000000000000099
 20
96.999999999999105
 30
0.0
  0
VERTEX
  5
A42
  8
0
 10
-11.500000000000099
 20
96.999999999999105
 30
0.0
  0
VERTEX
  5
A43
  8
0
 10
-11.50000000000008
 20
81.000000000000014
 30
0.0
  0
SEQEND
  5
A44
  8
0
  0
POLYLINE
  5
7FA
  8
0
 66
     1
 10
0.0
 20
0.0
 30
0.0
 70
     1
  0
VERTEX
  5
A45
  8
0
 10
-10.50000000000008
 20
80.999999999999105
 30
0.0
  0
VERTEX
  5
A46
  8
0
 10
-10.500000000000099
 20
96.999999999999105
 30
0.0
  0
VERTEX
  5
A47
  8
0
 10
-4.0000000000010081
 20
96.999999999999119
 30
0.0
  0
VERTEX
  5
A48
  8
0
 10
-3.0000000000010059
 20
95.499999999999105
 30
0.0
  0
VERTEX
  5
A49
  8
0
 10
-3.000000000000079
 20
82.499999999998195
 30
0.0
  0
VERTEX
  5
A4A
  8
0
 10
-4.0000000000000782
 20
80.999999999998224
 30
0.0
  0
SEQEND
  5
A4B
  8
0
  0
LINE
  5
7FB
  8
0
 10
-2.0000000000000848
 20
80.500000000000014
 30
0.0
 11
-2.0000000000000622
 21
63.500000000000028
 31
0.0
  0
LINE
  5
7FC
  8
0
 10
-20.000000000000089
 20
80.5
 30
0.0
 11
-20.000000000000071
 21
63.5
 31
0.0
  0
POLYLINE
  5
7FD
  8
0
 66
     1
 10
0.0
 20
0.0
 30
0.0
 70
     1
  0
VERTEX
  5
A4C
  8
0
 10
-17.999999999999609
 20
64.000000000000895
 30
0.0
  0
VERTEX
  5
A4D
  8
0
 10
-18.999999999999609
 20
65.500000000000909
 30
0.0
  0
VERTEX
  5
A4E
  8
0
 10
-19.000000000000082
 20
78.499999999999091
 30
0.0
  0
VERTEX
  5
A4F
  8
0
 10
-18.000000000000089
 20
79.999999999999091
 30
0.0
  0
VERTEX
  5
A50
  8
0
 10
-11.500000000000091
 20
79.999999999999105
 30
0.0
  0
VERTEX
  5
A51
  8
0
 10
-11.50000000000006
 20
64.000000000000014
 30
0.0
  0
SEQEND
  5
A52
  8
0
  0
POLYLINE
  5
7FE
  8
0
 66
     1
 10
0.0
 20
0.0
 30
0.0
 70
     1
  0
VERTEX
  5
A53
  8
0
 10
-10.50000000000006
 20
63.999999999999098
 30
0.0
  0
VERTEX
  5
A54
  8
0
 10
-10.50000000000008
 20
79.999999999999105
 30
0.0
  0
VERTEX
  5
A55
  8
0
 10
-4.0000000000009939
 20
79.999999999999119
 30
0.0
  0
VERTEX
  5
A56
  8
0
 10
-3.0000000000009921
 20
78.499999999999119
 30
0.0
  0
VERTEX
  5
A57
  8
0
 10
-3.0000000000000648
 20
65.499999999998209
 30
0.0
  0
VERTEX
  5
A58
  8
0
 10
-4.0000000000000631
 20
63.999999999998202
 30
0.0
  0
SEQEND
  5
A59
  8
0
  0
LINE
  5
7FF
  8
0
 10
-2.0000000000000711
 20
63.500000000000028
 30
0.0
 11
-2.000000000000048
 21
46.500000000000028
 31
0.0
  0
LINE
  5
800
  8
0
 10
-20.000000000000071
 20
63.500000000000007
 30
0.0
 11
-20.00000000000005
 21
46.5
 31
0.0
  0
POLYLINE
  5
801
  8
0
 66
     1
 10
0.0
 20
0.0
 30
0.0
 70
     1
  0
VERTEX
  5
A5A
  8
0
 10
-17.999999999999599
 20
47.000000000000902
 30
0.0
  0
VERTEX
  5
A5B
  8
0
 10
-18.999999999999599
 20
48.500000000000909
 30
0.0
  0
VERTEX
  5
A5C
  8
0
 10
-19.000000000000071
 20
61.499999999999091
 30
0.0
  0
VERTEX
  5
A5D
  8
0
 10
-18.000000000000071
 20
62.999999999999098
 30
0.0
  0
VERTEX
  5
A5E
  8
0
 10
-11.500000000000069
 20
62.999999999999112
 30
0.0
  0
VERTEX
  5
A5F
  8
0
 10
-11.50000000000005
 20
47.000000000000007
 30
0.0
  0
SEQEND
  5
A60
  8
0
  0
POLYLINE
  5
802
  8
0
 66
     1
 10
0.0
 20
0.0
 30
0.0
 70
     1
  0
VERTEX
  5
A61
  8
0
 10
-10.50000000000005
 20
46.999999999999098
 30
0.0
  0
VERTEX
  5
A62
  8
0
 10
-10.500000000000069
 20
62.999999999999112
 30
0.0
  0
VERTEX
  5
A63
  8
0
 10
-4.0000000000009797
 20
62.999999999999112
 30
0.0
  0
VERTEX
  5
A64
  8
0
 10
-3.000000000000977
 20
61.499999999999119
 30
0.0
  0
VERTEX
  5
A65
  8
0
 10
-3.0000000000000511
 20
48.499999999998202
 30
0.0
  0
VERTEX
  5
A66
  8
0
 10
-4.0000000000000488
 20
46.999999999998202
 30
0.0
  0
SEQEND
  5
A67
  8
0
  0
LINE
  5
803
  8
0
 10
-2.00000000000006
 20
46.500000000000028
 30
0.0
 11
-2.0000000000000369
 21
29.500000000000028
 31
0.0
  0
LINE
  5
804
  8
0
 10
-20.000000000000071
 20
46.500000000000007
 30
0.0
 11
-20.000000000000039
 21
29.5
 31
0.0
  0
POLYLINE
  5
805
  8
0
 66
     1
 10
0.0
 20
0.0
 30
0.0
 70
     1
  0
VERTEX
  5
A68
  8
0
 10
-17.999999999999591
 20
30.000000000000909
 30
0.0
  0
VERTEX
  5
A69
  8
0
 10
-18.999999999999591
 20
31.500000000000909
 30
0.0
  0
VERTEX
  5
A6A
  8
0
 10
-19.00000000000006
 20
44.499999999999091
 30
0.0
  0
VERTEX
  5
A6B
  8
0
 10
-18.00000000000006
 20
45.999999999999091
 30
0.0
  0
VERTEX
  5
A6C
  8
0
 10
-11.50000000000006
 20
45.999999999999098
 30
0.0
  0
VERTEX
  5
A6D
  8
0
 10
-11.500000000000041
 20
30.000000000000011
 30
0.0
  0
SEQEND
  5
A6E
  8
0
  0
POLYLINE
  5
806
  8
0
 66
     1
 10
0.0
 20
0.0
 30
0.0
 70
     1
  0
VERTEX
  5
A6F
  8
0
 10
-10.500000000000041
 20
29.999999999999108
 30
0.0
  0
VERTEX
  5
A70
  8
0
 10
-10.50000000000006
 20
45.999999999999098
 30
0.0
  0
VERTEX
  5
A71
  8
0
 10
-4.000000000000969
 20
45.999999999999112
 30
0.0
  0
VERTEX
  5
A72
  8
0
 10
-3.0000000000009668
 20
44.499999999999119
 30
0.0
  0
VERTEX
  5
A73
  8
0
 10
-3.00000000000004
 20
31.499999999998199
 30
0.0
  0
VERTEX
  5
A74
  8
0
 10
-4.0000000000000391
 20
29.999999999998199
 30
0.0
  0
SEQEND
  5
A75
  8
0
  0
LINE
  5
807
  8
0
 10
-2.0000000000000462
 20
29.500000000000028
 30
0.0
 11
-2.0000000000000231
 21
12.50000000000002
 31
0.0
  0
LINE
  5
808
  8
0
 10
-20.00000000000005
 20
29.5
 30
0.0
 11
-20.000000000000028
 21
12.5
 31
0.0
  0
POLYLINE
  5
809
  8
0
 66
     1
 10
0.0
 20
0.0
 30
0.0
 70
     1
  0
VERTEX
  5
A76
  8
0
 10
-17.99999999999957
 20
13.000000000000909
 30
0.0
  0
VERTEX
  5
A77
  8
0
 10
-18.99999999999957
 20
14.500000000000901
 30
0.0
  0
VERTEX
  5
A78
  8
0
 10
-19.000000000000039
 20
27.499999999999091
 30
0.0
  0
VERTEX
  5
A79
  8
0
 10
-18.00000000000005
 20
28.999999999999101
 30
0.0
  0
VERTEX
  5
A7A
  8
0
 10
-11.50000000000005
 20
28.999999999999101
 30
0.0
  0
VERTEX
  5
A7B
  8
0
 10
-11.50000000000003
 20
13.0
 30
0.0
  0
SEQEND
  5
A7C
  8
0
  0
POLYLINE
  5
80A
  8
0
 66
     1
 10
0.0
 20
0.0
 30
0.0
 70
     1
  0
VERTEX
  5
A7D
  8
0
 10
-10.50000000000002
 20
12.999999999999099
 30
0.0
  0
VERTEX
  5
A7E
  8
0
 10
-10.50000000000005
 20
28.999999999999108
 30
0.0
  0
VERTEX
  5
A7F
  8
0
 10
-4.0000000000009548
 20
28.999999999999108
 30
0.0
  0
VERTEX
  5
A80
  8
0
 10
-3.000000000000953
 20
27.499999999999108
 30
0.0
  0
VERTEX
  5
A81
  8
0
 10
-3.0000000000000262
 20
14.499999999998201
 30
0.0
  0
VERTEX
  5
A82
  8
0
 10
-4.000000000000024
 20
12.999999999998201
 30
0.0
  0
SEQEND
  5
A83
  8
0
  0
LINE
  5
80B
  8
0
 10
-11.50000000000002
 20
4.0000000000000098
 30
0.0
 11
-10.50000000000002
 21
4.0000000000000124
 31
0.0
  0
LINE
  5
80C
  8
0
 10
-3.0000000000004752
 20
4.0000000000000213
 30
0.0
 11
-2.00000000000002
 21
4.0000000000000231
 31
0.0
  0
LINE
  5
80D
  8
0
 10
-2.0000000000000311
 20
12.50000000000002
 30
0.0
 11
-2.00000000000002
 21
4.0000000000000231
 31
0.0
  0
LINE
  5
80E
  8
0
 10
-20.000000000000028
 20
12.5
 30
0.0
 11
-20.000000000000028
 21
4.0
 31
0.0
  0
POLYLINE
  5
80F
  8
0
 66
     1
 10
0.0
 20
0.0
 30
0.0
  0
VERTEX
  5
A84
  8
0
 10
-18.999999999999801
 20
4.0
 30
0.0
  0
VERTEX
  5
A85
  8
0
 10
-19.000000000000028
 20
10.499999999999091
 30
0.0
  0
VERTEX
  5
A86
  8
0
 10
-18.000000000000028
 20
11.999999999999091
 30
0.0
  0
VERTEX
  5
A87
  8
0
 10
-11.50000000000003
 20
11.999999999999099
 30
0.0
  0
VERTEX
  5
A88
  8
0
 10
-11.50000000000002
 20
4.0000000000000098
 30
0.0
  0
SEQEND
  5
A89
  8
0
  0
POLYLINE
  5
810
  8
0
 66
     1
 10
0.0
 20
0.0
 30
0.0
  0
VERTEX
  5
A8A
  8
0
 10
-10.50000000000002
 20
4.0000000000000124
 30
0.0
  0
VERTEX
  5
A8B
  8
0
 10
-10.50000000000003
 20
11.999999999999099
 30
0.0
  0
VERTEX
  5
A8C
  8
0
 10
-4.0000000000009406
 20
11.99999999999911
 30
0.0
  0
VERTEX
  5
A8D
  8
0
 10
-3.0000000000009379
 20
10.49999999999911
 30
0.0
  0
VERTEX
  5
A8E
  8
0
 10
-3.0000000000004752
 20
4.0000000000000187
 30
0.0
  0
SEQEND
  5
A8F
  8
0
  0
LINE
  5
811
  8
0
 10
-20.000000000000028
 20
4.0
 30
0.0
 11
-18.999999999999801
 21
4.0
 31
0.0
  0
LINE
  5
812
  8
0
 10
-219.5
 20
-17.999999999999979
 30
0.0
 11
-202.5
 21
-17.999999999999979
 31
0.0
  0
LINE
  5
813
  8
0
 10
-219.5
 20
0.0000000000000213
 30
0.0
 11
-202.5
 21
0.0000000000000213
 31
0.0
  0
POLYLINE
  5
814
  8
0
 66
     1
 10
0.0
 20
0.0
 30
0.0
 70
     1
  0
VERTEX
  5
A90
  8
0
 10
-203.00000000000091
 20
-2.000000000000433
 30
0.0
  0
VERTEX
  5
A91
  8
0
 10
-204.50000000000091
 20
-1.000000000000433
 30
0.0
  0
VERTEX
  5
A92
  8
0
 10
-217.49999999999909
 20
-0.9999999999999786
 30
0.0
  0
VERTEX
  5
A93
  8
0
 10
-218.99999999999909
 20
-1.999999999999978
 30
0.0
  0
VERTEX
  5
A94
  8
0
 10
-218.99999999999909
 20
-8.4999999999999787
 30
0.0
  0
VERTEX
  5
A95
  8
0
 10
-203.0
 20
-8.4999999999999787
 30
0.0
  0
SEQEND
  5
A96
  8
0
  0
POLYLINE
  5
815
  8
0
 66
     1
 10
0.0
 20
0.0
 30
0.0
 70
     1
  0
VERTEX
  5
A97
  8
0
 10
-202.99999999999909
 20
-9.4999999999999787
 30
0.0
  0
VERTEX
  5
A98
  8
0
 10
-218.99999999999909
 20
-9.4999999999999787
 30
0.0
  0
VERTEX
  5
A99
  8
0
 10
-218.99999999999909
 20
-15.999999999999069
 30
0.0
  0
VERTEX
  5
A9A
  8
0
 10
-217.49999999999909
 20
-16.999999999999069
 30
0.0
  0
VERTEX
  5
A9B
  8
0
 10
-204.49999999999821
 20
-16.999999999999979
 30
0.0
  0
VERTEX
  5
A9C
  8
0
 10
-202.99999999999821
 20
-15.99999999999998
 30
0.0
  0
SEQEND
  5
A9D
  8
0
  0
LINE
  5
816
  8
0
 10
-202.5
 20
-17.999999999999979
 30
0.0
 11
-185.5
 21
-17.999999999999979
 31
0.0
  0
LINE
  5
817
  8
0
 10
-202.5
 20
0.0000000000000213
 30
0.0
 11
-185.5
 21
0.0000000000000213
 31
0.0
  0
POLYLINE
  5
818
  8
0
 66
     1
 10
0.0
 20
0.0
 30
0.0
 70
     1
  0
VERTEX
  5
A9E
  8
0
 10
-186.00000000000091
 20
-2.000000000000433
 30
0.0
  0
VERTEX
  5
A9F
  8
0
 10
-187.50000000000091
 20
-1.000000000000433
 30
0.0
  0
VERTEX
  5
AA0
  8
0
 10
-200.49999999999909
 20
-0.9999999999999786
 30
0.0
  0
VERTEX
  5
AA1
  8
0
 10
-201.99999999999909
 20
-1.999999999999978
 30
0.0
  0
VERTEX
  5
AA2
  8
0
 10
-201.99999999999909
 20
-8.4999999999999787
 30
0.0
  0
VERTEX
  5
AA3
  8
0
 10
-186.0
 20
-8.4999999999999787
 30
0.0
  0
SEQEND
  5
AA4
  8
0
  0
POLYLINE
  5
819
  8
0
 66
     1
 10
0.0
 20
0.0
 30
0.0
 70
     1
  0
VERTEX
  5
AA5
  8
0
 10
-185.99999999999909
 20
-9.4999999999999787
 30
0.0
  0
VERTEX
  5
AA6
  8
0
 10
-201.99999999999909
 20
-9.4999999999999787
 30
0.0
  0
VERTEX
  5
AA7
  8
0
 10
-201.99999999999909
 20
-15.999999999999069
 30
0.0
  0
VERTEX
  5
AA8
  8
0
 10
-200.49999999999909
 20
-16.999999999999069
 30
0.0
  0
VERTEX
  5
AA9
  8
0
 10
-187.49999999999821
 20
-16.999999999999979
 30
0.0
  0
VERTEX
  5
AAA
  8
0
 10
-185.99999999999821
 20
-15.99999999999998
 30
0.0
  0
SEQEND
  5
AAB
  8
0
  0
LINE
  5
81A
  8
0
 10
-185.5
 20
-17.999999999999979
 30
0.0
 11
-168.5
 21
-17.999999999999979
 31
0.0
  0
LINE
  5
81B
  8
0
 10
-185.5
 20
0.0000000000000213
 30
0.0
 11
-168.5
 21
0.0000000000000213
 31
0.0
  0
POLYLINE
  5
81C
  8
0
 66
     1
 10
0.0
 20
0.0
 30
0.0
 70
     1
  0
VERTEX
  5
AAC
  8
0
 10
-169.00000000000091
 20
-2.000000000000433
 30
0.0
  0
VERTEX
  5
AAD
  8
0
 10
-170.50000000000091
 20
-1.000000000000433
 30
0.0
  0
VERTEX
  5
AAE
  8
0
 10
-183.49999999999909
 20
-0.9999999999999786
 30
0.0
  0
VERTEX
  5
AAF
  8
0
 10
-184.99999999999909
 20
-1.999999999999978
 30
0.0
  0
VERTEX
  5
AB0
  8
0
 10
-184.99999999999909
 20
-8.4999999999999787
 30
0.0
  0
VERTEX
  5
AB1
  8
0
 10
-169.0
 20
-8.4999999999999787
 30
0.0
  0
SEQEND
  5
AB2
  8
0
  0
POLYLINE
  5
81D
  8
0
 66
     1
 10
0.0
 20
0.0
 30
0.0
 70
     1
  0
VERTEX
  5
AB3
  8
0
 10
-168.99999999999909
 20
-9.4999999999999787
 30
0.0
  0
VERTEX
  5
AB4
  8
0
 10
-184.99999999999909
 20
-9.4999999999999787
 30
0.0
  0
VERTEX
  5
AB5
  8
0
 10
-184.99999999999909
 20
-15.999999999999069
 30
0.0
  0
VERTEX
  5
AB6
  8
0
 10
-183.49999999999909
 20
-16.999999999999069
 30
0.0
  0
VERTEX
  5
AB7
  8
0
 10
-170.49999999999821
 20
-16.999999999999979
 30
0.0
  0
VERTEX
  5
AB8
  8
0
 10
-168.9999999999981
 20
-15.99999999999998
 30
0.0
  0
SEQEND
  5
AB9
  8
0
  0
LINE
  5
81E
  8
0
 10
-168.5
 20
-17.999999999999979
 30
0.0
 11
-151.5
 21
-17.999999999999979
 31
0.0
  0
LINE
  5
81F
  8
0
 10
-168.5
 20
0.0000000000000213
 30
0.0
 11
-151.5
 21
0.0000000000000213
 31
0.0
  0
POLYLINE
  5
820
  8
0
 66
     1
 10
0.0
 20
0.0
 30
0.0
 70
     1
  0
VERTEX
  5
ABA
  8
0
 10
-152.00000000000091
 20
-2.000000000000433
 30
0.0
  0
VERTEX
  5
ABB
  8
0
 10
-153.50000000000091
 20
-1.000000000000433
 30
0.0
  0
VERTEX
  5
ABC
  8
0
 10
-166.49999999999909
 20
-0.9999999999999786
 30
0.0
  0
VERTEX
  5
ABD
  8
0
 10
-167.99999999999909
 20
-1.999999999999978
 30
0.0
  0
VERTEX
  5
ABE
  8
0
 10
-167.99999999999909
 20
-8.4999999999999787
 30
0.0
  0
VERTEX
  5
ABF
  8
0
 10
-152.0
 20
-8.4999999999999787
 30
0.0
  0
SEQEND
  5
AC0
  8
0
  0
POLYLINE
  5
821
  8
0
 66
     1
 10
0.0
 20
0.0
 30
0.0
 70
     1
  0
VERTEX
  5
AC1
  8
0
 10
-151.99999999999909
 20
-9.4999999999999787
 30
0.0
  0
VERTEX
  5
AC2
  8
0
 10
-167.99999999999909
 20
-9.4999999999999787
 30
0.0
  0
VERTEX
  5
AC3
  8
0
 10
-167.99999999999909
 20
-15.999999999999069
 30
0.0
  0
VERTEX
  5
AC4
  8
0
 10
-166.49999999999909
 20
-16.999999999999069
 30
0.0
  0
VERTEX
  5
AC5
  8
0
 10
-153.49999999999821
 20
-16.999999999999979
 30
0.0
  0
VERTEX
  5
AC6
  8
0
 10
-151.9999999999981
 20
-15.99999999999998
 30
0.0
  0
SEQEND
  5
AC7
  8
0
  0
LINE
  5
822
  8
0
 10
-151.5
 20
-17.999999999999979
 30
0.0
 11
-134.5
 21
-17.999999999999979
 31
0.0
  0
LINE
  5
823
  8
0
 10
-151.5
 20
0.0000000000000213
 30
0.0
 11
-134.5
 21
0.0000000000000213
 31
0.0
  0
POLYLINE
  5
824
  8
0
 66
     1
 10
0.0
 20
0.0
 30
0.0
 70
     1
  0
VERTEX
  5
AC8
  8
0
 10
-135.00000000000091
 20
-2.000000000000433
 30
0.0
  0
VERTEX
  5
AC9
  8
0
 10
-136.50000000000091
 20
-1.000000000000433
 30
0.0
  0
VERTEX
  5
ACA
  8
0
 10
-149.49999999999909
 20
-0.9999999999999786
 30
0.0
  0
VERTEX
  5
ACB
  8
0
 10
-150.99999999999909
 20
-1.999999999999978
 30
0.0
  0
VERTEX
  5
ACC
  8
0
 10
-150.99999999999909
 20
-8.4999999999999787
 30
0.0
  0
VERTEX
  5
ACD
  8
0
 10
-135.0
 20
-8.4999999999999787
 30
0.0
  0
SEQEND
  5
ACE
  8
0
  0
POLYLINE
  5
825
  8
0
 66
     1
 10
0.0
 20
0.0
 30
0.0
 70
     1
  0
VERTEX
  5
ACF
  8
0
 10
-134.99999999999909
 20
-9.4999999999999787
 30
0.0
  0
VERTEX
  5
AD0
  8
0
 10
-150.99999999999909
 20
-9.4999999999999787
 30
0.0
  0
VERTEX
  5
AD1
  8
0
 10
-150.99999999999909
 20
-15.999999999999069
 30
0.0
  0
VERTEX
  5
AD2
  8
0
 10
-149.49999999999909
 20
-16.999999999999069
 30
0.0
  0
VERTEX
  5
AD3
  8
0
 10
-136.49999999999821
 20
-16.999999999999979
 30
0.0
  0
VERTEX
  5
AD4
  8
0
 10
-134.99999999999821
 20
-15.99999999999998
 30
0.0
  0
SEQEND
  5
AD5
  8
0
  0
LINE
  5
826
  8
0
 10
-134.5
 20
-17.999999999999979
 30
0.0
 11
-117.5
 21
-17.999999999999979
 31
0.0
  0
LINE
  5
827
  8
0
 10
-134.5
 20
0.0000000000000213
 30
0.0
 11
-117.5
 21
0.0000000000000213
 31
0.0
  0
POLYLINE
  5
828
  8
0
 66
     1
 10
0.0
 20
0.0
 30
0.0
 70
     1
  0
VERTEX
  5
AD6
  8
0
 10
-118.0000000000009
 20
-2.000000000000433
 30
0.0
  0
VERTEX
  5
AD7
  8
0
 10
-119.5000000000009
 20
-1.000000000000433
 30
0.0
  0
VERTEX
  5
AD8
  8
0
 10
-132.49999999999909
 20
-0.9999999999999786
 30
0.0
  0
VERTEX
  5
AD9
  8
0
 10
-133.99999999999909
 20
-1.999999999999978
 30
0.0
  0
VERTEX
  5
ADA
  8
0
 10
-133.99999999999909
 20
-8.4999999999999787
 30
0.0
  0
VERTEX
  5
ADB
  8
0
 10
-118.0
 20
-8.4999999999999787
 30
0.0
  0
SEQEND
  5
ADC
  8
0
  0
POLYLINE
  5
829
  8
0
 66
     1
 10
0.0
 20
0.0
 30
0.0
 70
     1
  0
VERTEX
  5
ADD
  8
0
 10
-117.9999999999991
 20
-9.4999999999999787
 30
0.0
  0
VERTEX
  5
ADE
  8
0
 10
-133.99999999999909
 20
-9.4999999999999787
 30
0.0
  0
VERTEX
  5
ADF
  8
0
 10
-133.99999999999909
 20
-15.999999999999069
 30
0.0
  0
VERTEX
  5
AE0
  8
0
 10
-132.49999999999909
 20
-16.999999999999069
 30
0.0
  0
VERTEX
  5
AE1
  8
0
 10
-119.4999999999982
 20
-16.999999999999979
 30
0.0
  0
VERTEX
  5
AE2
  8
0
 10
-117.9999999999981
 20
-15.99999999999998
 30
0.0
  0
SEQEND
  5
AE3
  8
0
  0
LINE
  5
82A
  8
0
 10
-117.5
 20
-17.999999999999979
 30
0.0
 11
-100.5
 21
-17.999999999999979
 31
0.0
  0
LINE
  5
82B
  8
0
 10
-117.5
 20
0.0000000000000213
 30
0.0
 11
-100.5
 21
0.0000000000000213
 31
0.0
  0
POLYLINE
  5
82C
  8
0
 66
     1
 10
0.0
 20
0.0
 30
0.0
 70
     1
  0
VERTEX
  5
AE4
  8
0
 10
-101.0000000000009
 20
-2.000000000000433
 30
0.0
  0
VERTEX
  5
AE5
  8
0
 10
-102.5000000000009
 20
-1.000000000000433
 30
0.0
  0
VERTEX
  5
AE6
  8
0
 10
-115.4999999999991
 20
-0.9999999999999786
 30
0.0
  0
VERTEX
  5
AE7
  8
0
 10
-116.9999999999991
 20
-1.999999999999978
 30
0.0
  0
VERTEX
  5
AE8
  8
0
 10
-116.9999999999991
 20
-8.4999999999999787
 30
0.0
  0
VERTEX
  5
AE9
  8
0
 10
-101.0
 20
-8.4999999999999787
 30
0.0
  0
SEQEND
  5
AEA
  8
0
  0
POLYLINE
  5
82D
  8
0
 66
     1
 10
0.0
 20
0.0
 30
0.0
 70
     1
  0
VERTEX
  5
AEB
  8
0
 10
-100.9999999999991
 20
-9.4999999999999787
 30
0.0
  0
VERTEX
  5
AEC
  8
0
 10
-116.9999999999991
 20
-9.4999999999999787
 30
0.0
  0
VERTEX
  5
AED
  8
0
 10
-116.9999999999991
 20
-15.999999999999069
 30
0.0
  0
VERTEX
  5
AEE
  8
0
 10
-115.4999999999991
 20
-16.999999999999069
 30
0.0
  0
VERTEX
  5
AEF
  8
0
 10
-102.4999999999982
 20
-16.999999999999979
 30
0.0
  0
VERTEX
  5
AF0
  8
0
 10
-100.9999999999982
 20
-15.99999999999998
 30
0.0
  0
SEQEND
  5
AF1
  8
0
  0
LINE
  5
82E
  8
0
 10
-100.5
 20
-17.999999999999979
 30
0.0
 11
-83.500000000000014
 21
-17.999999999999979
 31
0.0
  0
LINE
  5
82F
  8
0
 10
-100.5
 20
0.0000000000000213
 30
0.0
 11
-83.500000000000014
 21
0.0000000000000213
 31
0.0
  0
POLYLINE
  5
830
  8
0
 66
     1
 10
0.0
 20
0.0
 30
0.0
 70
     1
  0
VERTEX
  5
AF2
  8
0
 10
-84.000000000000924
 20
-2.000000000000433
 30
0.0
  0
VERTEX
  5
AF3
  8
0
 10
-85.500000000000924
 20
-1.000000000000433
 30
0.0
  0
VERTEX
  5
AF4
  8
0
 10
-98.499999999999105
 20
-0.9999999999999786
 30
0.0
  0
VERTEX
  5
AF5
  8
0
 10
-99.999999999999105
 20
-1.999999999999978
 30
0.0
  0
VERTEX
  5
AF6
  8
0
 10
-99.999999999999105
 20
-8.4999999999999787
 30
0.0
  0
VERTEX
  5
AF7
  8
0
 10
-84.000000000000014
 20
-8.4999999999999787
 30
0.0
  0
SEQEND
  5
AF8
  8
0
  0
POLYLINE
  5
831
  8
0
 66
     1
 10
0.0
 20
0.0
 30
0.0
 70
     1
  0
VERTEX
  5
AF9
  8
0
 10
-83.999999999999105
 20
-9.4999999999999787
 30
0.0
  0
VERTEX
  5
AFA
  8
0
 10
-99.999999999999105
 20
-9.4999999999999787
 30
0.0
  0
VERTEX
  5
AFB
  8
0
 10
-99.999999999999105
 20
-15.999999999999069
 30
0.0
  0
VERTEX
  5
AFC
  8
0
 10
-98.499999999999105
 20
-16.999999999999069
 30
0.0
  0
VERTEX
  5
AFD
  8
0
 10
-85.499999999998195
 20
-16.999999999999979
 30
0.0
  0
VERTEX
  5
AFE
  8
0
 10
-83.999999999998195
 20
-15.99999999999998
 30
0.0
  0
SEQEND
  5
AFF
  8
0
  0
LINE
  5
832
  8
0
 10
-83.500000000000014
 20
-17.999999999999979
 30
0.0
 11
-66.500000000000014
 21
-17.999999999999979
 31
0.0
  0
LINE
  5
833
  8
0
 10
-83.500000000000014
 20
0.0000000000000213
 30
0.0
 11
-66.500000000000014
 21
0.0000000000000213
 31
0.0
  0
POLYLINE
  5
834
  8
0
 66
     1
 10
0.0
 20
0.0
 30
0.0
 70
     1
  0
VERTEX
  5
B00
  8
0
 10
-67.000000000000924
 20
-2.000000000000433
 30
0.0
  0
VERTEX
  5
B01
  8
0
 10
-68.500000000000924
 20
-1.000000000000433
 30
0.0
  0
VERTEX
  5
B02
  8
0
 10
-81.499999999999105
 20
-0.9999999999999786
 30
0.0
  0
VERTEX
  5
B03
  8
0
 10
-82.999999999999105
 20
-1.999999999999978
 30
0.0
  0
VERTEX
  5
B04
  8
0
 10
-82.999999999999105
 20
-8.4999999999999787
 30
0.0
  0
VERTEX
  5
B05
  8
0
 10
-67.000000000000014
 20
-8.4999999999999787
 30
0.0
  0
SEQEND
  5
B06
  8
0
  0
POLYLINE
  5
835
  8
0
 66
     1
 10
0.0
 20
0.0
 30
0.0
 70
     1
  0
VERTEX
  5
B07
  8
0
 10
-66.999999999999105
 20
-9.4999999999999787
 30
0.0
  0
VERTEX
  5
B08
  8
0
 10
-82.999999999999105
 20
-9.4999999999999787
 30
0.0
  0
VERTEX
  5
B09
  8
0
 10
-82.999999999999105
 20
-15.999999999999069
 30
0.0
  0
VERTEX
  5
B0A
  8
0
 10
-81.499999999999105
 20
-16.999999999999069
 30
0.0
  0
VERTEX
  5
B0B
  8
0
 10
-68.499999999998195
 20
-16.999999999999979
 30
0.0
  0
VERTEX
  5
B0C
  8
0
 10
-66.999999999998195
 20
-15.99999999999998
 30
0.0
  0
SEQEND
  5
B0D
  8
0
  0
LINE
  5
836
  8
0
 10
-66.500000000000014
 20
-17.999999999999979
 30
0.0
 11
-49.500000000000007
 21
-17.999999999999979
 31
0.0
  0
LINE
  5
837
  8
0
 10
-66.500000000000014
 20
0.0000000000000213
 30
0.0
 11
-49.500000000000007
 21
0.0000000000000213
 31
0.0
  0
POLYLINE
  5
838
  8
0
 66
     1
 10
0.0
 20
0.0
 30
0.0
 70
     1
  0
VERTEX
  5
B0E
  8
0
 10
-50.000000000000917
 20
-2.000000000000433
 30
0.0
  0
VERTEX
  5
B0F
  8
0
 10
-51.500000000000917
 20
-1.000000000000433
 30
0.0
  0
VERTEX
  5
B10
  8
0
 10
-64.499999999999105
 20
-0.9999999999999786
 30
0.0
  0
VERTEX
  5
B11
  8
0
 10
-65.999999999999105
 20
-1.999999999999978
 30
0.0
  0
VERTEX
  5
B12
  8
0
 10
-65.999999999999105
 20
-8.4999999999999787
 30
0.0
  0
VERTEX
  5
B13
  8
0
 10
-50.000000000000007
 20
-8.4999999999999787
 30
0.0
  0
SEQEND
  5
B14
  8
0
  0
POLYLINE
  5
839
  8
0
 66
     1
 10
0.0
 20
0.0
 30
0.0
 70
     1
  0
VERTEX
  5
B15
  8
0
 10
-49.999999999999112
 20
-9.4999999999999787
 30
0.0
  0
VERTEX
  5
B16
  8
0
 10
-65.999999999999105
 20
-9.4999999999999787
 30
0.0
  0
VERTEX
  5
B17
  8
0
 10
-65.999999999999105
 20
-15.999999999999069
 30
0.0
  0
VERTEX
  5
B18
  8
0
 10
-64.499999999999105
 20
-16.999999999999069
 30
0.0
  0
VERTEX
  5
B19
  8
0
 10
-51.499999999998202
 20
-16.999999999999979
 30
0.0
  0
VERTEX
  5
B1A
  8
0
 10
-49.999999999998188
 20
-15.99999999999998
 30
0.0
  0
SEQEND
  5
B1B
  8
0
  0
LINE
  5
83A
  8
0
 10
-49.500000000000007
 20
-17.999999999999979
 30
0.0
 11
-32.500000000000021
 21
-17.999999999999979
 31
0.0
  0
LINE
  5
83B
  8
0
 10
-49.500000000000007
 20
0.0000000000000213
 30
0.0
 11
-32.500000000000021
 21
0.0000000000000213
 31
0.0
  0
POLYLINE
  5
83C
  8
0
 66
     1
 10
0.0
 20
0.0
 30
0.0
 70
     1
  0
VERTEX
  5
B1C
  8
0
 10
-33.000000000000931
 20
-2.000000000000433
 30
0.0
  0
VERTEX
  5
B1D
  8
0
 10
-34.500000000000917
 20
-1.000000000000433
 30
0.0
  0
VERTEX
  5
B1E
  8
0
 10
-47.499999999999098
 20
-0.9999999999999786
 30
0.0
  0
VERTEX
  5
B1F
  8
0
 10
-48.999999999999098
 20
-1.999999999999978
 30
0.0
  0
VERTEX
  5
B20
  8
0
 10
-48.999999999999098
 20
-8.4999999999999787
 30
0.0
  0
VERTEX
  5
B21
  8
0
 10
-33.000000000000021
 20
-8.4999999999999787
 30
0.0
  0
SEQEND
  5
B22
  8
0
  0
POLYLINE
  5
83D
  8
0
 66
     1
 10
0.0
 20
0.0
 30
0.0
 70
     1
  0
VERTEX
  5
B23
  8
0
 10
-32.999999999999112
 20
-9.4999999999999787
 30
0.0
  0
VERTEX
  5
B24
  8
0
 10
-48.999999999999098
 20
-9.4999999999999787
 30
0.0
  0
VERTEX
  5
B25
  8
0
 10
-48.999999999999098
 20
-15.999999999999069
 30
0.0
  0
VERTEX
  5
B26
  8
0
 10
-47.499999999999098
 20
-16.999999999999069
 30
0.0
  0
VERTEX
  5
B27
  8
0
 10
-34.499999999998202
 20
-16.999999999999979
 30
0.0
  0
VERTEX
  5
B28
  8
0
 10
-32.999999999998188
 20
-15.99999999999998
 30
0.0
  0
SEQEND
  5
B29
  8
0
  0
LINE
  5
83E
  8
0
 10
-24.000000000000021
 20
-8.4999999999999787
 30
0.0
 11
-24.000000000000021
 21
-9.4999999999999787
 31
0.0
  0
LINE
  5
83F
  8
0
 10
-24.000000000000021
 20
-16.99999999999952
 30
0.0
 11
-24.000000000000021
 21
-17.999999999999979
 31
0.0
  0
LINE
  5
840
  8
0
 10
-32.500000000000021
 20
-17.999999999999979
 30
0.0
 11
-24.000000000000021
 21
-17.999999999999979
 31
0.0
  0
LINE
  5
841
  8
0
 10
-32.500000000000021
 20
0.0000000000000213
 30
0.0
 11
-24.000000000000021
 21
0.0000000000000213
 31
0.0
  0
POLYLINE
  5
842
  8
0
 66
     1
 10
0.0
 20
0.0
 30
0.0
  0
VERTEX
  5
B2A
  8
0
 10
-24.000000000000021
 20
-1.0000000000002061
 30
0.0
  0
VERTEX
  5
B2B
  8
0
 10
-30.499999999999108
 20
-0.9999999999999786
 30
0.0
  0
VERTEX
  5
B2C
  8
0
 10
-31.999999999999101
 20
-1.999999999999978
 30
0.0
  0
VERTEX
  5
B2D
  8
0
 10
-31.999999999999101
 20
-8.4999999999999787
 30
0.0
  0
VERTEX
  5
B2E
  8
0
 10
-24.000000000000021
 20
-8.4999999999999787
 30
0.0
  0
SEQEND
  5
B2F
  8
0
  0
POLYLINE
  5
843
  8
0
 66
     1
 10
0.0
 20
0.0
 30
0.0
  0
VERTEX
  5
B30
  8
0
 10
-24.000000000000021
 20
-9.4999999999999787
 30
0.0
  0
VERTEX
  5
B31
  8
0
 10
-31.999999999999101
 20
-9.4999999999999787
 30
0.0
  0
VERTEX
  5
B32
  8
0
 10
-31.999999999999101
 20
-15.999999999999069
 30
0.0
  0
VERTEX
  5
B33
  8
0
 10
-30.499999999999108
 20
-16.999999999999069
 30
0.0
  0
VERTEX
  5
B34
  8
0
 10
-24.000000000000021
 20
-16.99999999999952
 30
0.0
  0
SEQEND
  5
B35
  8
0
  0
LINE
  5
844
  8
0
 10
-24.000000000000021
 20
0.0000000000000213
 30
0.0
 11
-24.000000000000021
 21
-1.0000000000002061
 31
0.0
  0
POLYLINE
  5
845
  8
0
 66
     1
 10
0.0
 20
0.0
 30
0.0
 70
     1
1001
ACDBBLOCKREPETAG
1070
     1
1071
        0
1005
845
  0
VERTEX
  5
B36
  8
0
 10
-124.0
 20
4.0000000000000284
 30
0.0
  0
VERTEX
  5
B37
  8
0
 10
-124.0
 20
104.0
 30
0.0
  0
VERTEX
  5
B38
  8
0
 10
-174.0
 20
104.0
 30
0.0
  0
VERTEX
  5
B39
  8
0
 10
-174.0
 20
4.0000000000000311
 30
0.0
  0
SEQEND
  5
B3A
  8
0
  0
POLYLINE
  5
846
  8
0
 66
     1
 10
0.0
 20
0.0
 30
0.0
 70
     1
 40
0.25
 41
0.25
1001
ACDBBLOCKREPETAG
1070
     1
1071
        0
1005
845
  0
VERTEX
  5
B3B
  8
0
 10
-124.125
 20
4.1250000000000284
 30
0.0
  0
VERTEX
  5
B3C
  8
0
 10
-124.125
 20
103.875
 30
0.0
  0
VERTEX
  5
B3D
  8
0
 10
-173.875
 20
103.875
 30
0.0
  0
VERTEX
  5
B3E
  8
0
 10
-173.875
 20
4.1250000000000311
 30
0.0
  0
SEQEND
  5
B3F
  8
0
  0
LINE
  5
847
  8
0
 10
-124.0
 20
4.0000000000000284
 30
0.0
 11
-174.0
 21
104.0
 31
0.0
1001
ACDBBLOCKREPETAG
1070
     1
1071
        1
1005
847
  0
LINE
  5
848
  8
0
 10
-174.0
 20
4.0000000000000311
 30
0.0
 11
-124.0
 21
104.0
 31
0.0
1001
ACDBBLOCKREPETAG
1070
     1
1071
        2
1005
848
  0
POLYLINE
  5
849
  8
0
 66
     1
 10
0.0
 20
0.0
 30
0.0
 70
     1
1001
ACDBBLOCKREPETAG
1070
     1
1071
        0
1005
849
  0
VERTEX
  5
B40
  8
0
 10
-124.0
 20
104.0
 30
0.0
  0
VERTEX
  5
B41
  8
0
 10
-24.000000000000028
 20
104.0
 30
0.0
  0
VERTEX
  5
B42
  8
0
 10
-24.000000000000028
 20
154.0
 30
0.0
  0
VERTEX
  5
B43
  8
0
 10
-124.0
 20
154.0
 30
0.0
  0
SEQEND
  5
B44
  8
0
  0
POLYLINE
  5
84A
  8
0
 66
     1
 10
0.0
 20
0.0
 30
0.0
 70
     1
 40
0.25
 41
0.25
1001
ACDBBLOCKREPETAG
1070
     1
1071
        0
1005
849
  0
VERTEX
  5
B45
  8
0
 10
-123.875
 20
104.125
 30
0.0
  0
VERTEX
  5
B46
  8
0
 10
-24.125000000000028
 20
104.125
 30
0.0
  0
VERTEX
  5
B47
  8
0
 10
-24.125000000000028
 20
153.875
 30
0.0
  0
VERTEX
  5
B48
  8
0
 10
-123.875
 20
153.875
 30
0.0
  0
SEQEND
  5
B49
  8
0
  0
LINE
  5
84B
  8
0
 10
-124.0
 20
104.0
 30
0.0
 11
-24.000000000000028
 21
154.0
 31
0.0
1001
ACDBBLOCKREPETAG
1070
     1
1071
        1
1005
84B
  0
LINE
  5
84C
  8
0
 10
-124.0
 20
154.0
 30
0.0
 11
-24.000000000000028
 21
104.0
 31
0.0
1001
ACDBBLOCKREPETAG
1070
     1
1071
        2
1005
84C
  0
POLYLINE
  5
84D
  8
0
 66
     1
 10
0.0
 20
0.0
 30
0.0
 70
     1
1001
ACDBBLOCKREPETAG
1070
     1
1071
        0
1005
84D
  0
VERTEX
  5
B4A
  8
0
 10
-124.0
 20
4.0000000000000391
 30
0.0
  0
VERTEX
  5
B4B
  8
0
 10
-24.000000000000021
 20
4.0000000000000391
 30
0.0
  0
VERTEX
  5
B4C
  8
0
 10
-24.000000000000021
 20
54.000000000000043
 30
0.0
  0
VERTEX
  5
B4D
  8
0
 10
-124.0
 20
54.000000000000043
 30
0.0
  0
SEQEND
  5
B4E
  8
0
  0
POLYLINE
  5
84E
  8
0
 66
     1
 10
0.0
 20
0.0
 30
0.0
 70
     1
 40
0.25
 41
0.25
1001
ACDBBLOCKREPETAG
1070
     1
1071
        0
1005
84D
  0
VERTEX
  5
B4F
  8
0
 10
-123.875
 20
4.1250000000000391
 30
0.0
  0
VERTEX
  5
B50
  8
0
 10
-24.125000000000011
 20
4.1250000000000391
 30
0.0
  0
VERTEX
  5
B51
  8
0
 10
-24.125000000000011
 20
53.875000000000043
 30
0.0
  0
VERTEX
  5
B52
  8
0
 10
-123.875
 20
53.875000000000043
 30
0.0
  0
SEQEND
  5
B53
  8
0
  0
LINE
  5
84F
  8
0
 10
-124.0
 20
4.0000000000000391
 30
0.0
 11
-24.000000000000021
 21
54.000000000000043
 31
0.0
1001
ACDBBLOCKREPETAG
1070
     1
1071
        1
1005
84F
  0
LINE
  5
850
  8
0
 10
-124.0
 20
54.000000000000043
 30
0.0
 11
-24.000000000000021
 21
4.0000000000000391
 31
0.0
1001
ACDBBLOCKREPETAG
1070
     1
1071
        2
1005
850
  0
LINE
  5
851
  8
0
  6
CONTINUOUS
 10
11.99999999999998
 20
-12.94076836320748
 30
0.0
 11
6.9407683632074271
 21
-18.000000000000028
 31
0.0
1001
ACAD
1010
0.0
1020
0.0
1030
0.0
  0
LINE
  5
852
  8
0
  6
CONTINUOUS
 10
11.99999999999998
 20
-3.9605122421383232
 30
0.0
 11
0.0000000000000808
 21
-15.96051224213822
 31
0.0
1001
ACAD
1010
0.0
1020
0.0
1030
0.0
  0
LINE
  5
853
  8
0
  6
CONTINUOUS
 10
11.999999999999989
 20
5.0197438789308304
 30
0.0
 11
0.0000000000000808
 21
-6.980256121069071
 31
0.0
1001
ACAD
1010
0.0
1020
0.0
1030
0.0
  0
LINE
  5
854
  8
0
  6
CONTINUOUS
 10
11.999999999999989
 20
13.99999999999998
 30
0.0
 11
0.0000000000000795
 21
2.0000000000000782
 31
0.0
1001
ACAD
1010
0.0
1020
0.0
1030
0.0
  0
LINE
  5
855
  8
0
  6
CONTINUOUS
 10
11.999999999999989
 20
22.980256121069139
 30
0.0
 11
0.0000000000000782
 21
10.98025612106923
 31
0.0
1001
ACAD
1010
0.0
1020
0.0
1030
0.0
  0
LINE
  5
856
  8
0
  6
CONTINUOUS
 10
11.999999999999989
 20
31.960512242138289
 30
0.0
 11
0.0000000000000782
 21
19.960512242138378
 31
0.0
1001
ACAD
1010
0.0
1020
0.0
1030
0.0
  0
LINE
  5
857
  8
0
  6
CONTINUOUS
 10
11.999999999999989
 20
40.94076836320744
 30
0.0
 11
0.0000000000000622
 21
28.940768363207521
 31
0.0
1001
ACAD
1010
0.0
1020
0.0
1030
0.0
  0
LINE
  5
858
  8
0
  6
CONTINUOUS
 10
11.999999999999989
 20
49.9210244842766
 30
0.0
 11
0.0000000000000604
 21
37.921024484276671
 31
0.0
1001
ACAD
1010
0.0
1020
0.0
1030
0.0
  0
LINE
  5
859
  8
0
  6
CONTINUOUS
 10
11.999999999999989
 20
58.901280605345747
 30
0.0
 11
0.0000000000000604
 21
46.901280605345818
 31
0.0
1001
ACAD
1010
0.0
1020
0.0
1030
0.0
  0
LINE
  5
85A
  8
0
  6
CONTINUOUS
 10
12.0
 20
67.881536726414907
 30
0.0
 11
0.0000000000000604
 21
55.881536726414978
 31
0.0
1001
ACAD
1010
0.0
1020
0.0
1030
0.0
  0
LINE
  5
85B
  8
0
  6
CONTINUOUS
 10
12.000000000000011
 20
76.861792847484068
 30
0.0
 11
0.0000000000000497
 21
64.861792847484111
 31
0.0
1001
ACAD
1010
0.0
1020
0.0
1030
0.0
  0
LINE
  5
85C
  8
0
  6
CONTINUOUS
 10
12.000000000000011
 20
85.842048968553229
 30
0.0
 11
0.0000000000000426
 21
73.842048968553257
 31
0.0
1001
ACAD
1010
0.0
1020
0.0
1030
0.0
  0
LINE
  5
85D
  8
0
  6
CONTINUOUS
 10
12.00000000000002
 20
94.822305089622375
 30
0.0
 11
0.0000000000000426
 21
82.822305089622404
 31
0.0
1001
ACAD
1010
0.0
1020
0.0
1030
0.0
  0
LINE
  5
85E
  8
0
  6
CONTINUOUS
 10
12.000000000000011
 20
103.80256121069149
 30
0.0
 11
0.0000000000000426
 21
91.802561210691564
 31
0.0
1001
ACAD
1010
0.0
1020
0.0
1030
0.0
  0
LINE
  5
85F
  8
0
  6
CONTINUOUS
 10
12.000000000000011
 20
112.7828173317606
 30
0.0
 11
0.0000000000000426
 21
100.7828173317607
 31
0.0
1001
ACAD
1010
0.0
1020
0.0
1030
0.0
  0
LINE
  5
860
  8
0
  6
CONTINUOUS
 10
12.00000000000003
 20
121.7630734528298
 30
0.0
 11
0.0000000000000355
 21
109.7630734528298
 31
0.0
1001
ACAD
1010
0.0
1020
0.0
1030
0.0
  0
LINE
  5
861
  8
0
  6
CONTINUOUS
 10
12.00000000000002
 20
130.74332957389899
 30
0.0
 11
0.0000000000000284
 21
118.743329573899
 31
0.0
1001
ACAD
1010
0.0
1020
0.0
1030
0.0
  0
LINE
  5
862
  8
0
  6
CONTINUOUS
 10
12.00000000000003
 20
139.72358569496811
 30
0.0
 11
0.0000000000000426
 21
127.72358569496819
 31
0.0
1001
ACAD
1010
0.0
1020
0.0
1030
0.0
  0
LINE
  5
863
  8
0
  6
CONTINUOUS
 10
12.000000000000011
 20
148.70384181603731
 30
0.0
 11
0.0000000000000284
 21
136.70384181603731
 31
0.0
1001
ACAD
1010
0.0
1020
0.0
1030
0.0
  0
LINE
  5
864
  8
0
  6
CONTINUOUS
 10
12.00000000000003
 20
157.6840979371064
 30
0.0
 11
0.0000000000000284
 21
145.6840979371064
 31
0.0
1001
ACAD
1010
0.0
1020
0.0
1030
0.0
  0
LINE
  5
865
  8
0
  6
CONTINUOUS
 10
12.00000000000003
 20
166.6643540581756
 30
0.0
 11
0.0000000000000284
 21
154.6643540581756
 31
0.0
1001
ACAD
1010
0.0
1020
0.0
1030
0.0
  0
LINE
  5
866
  8
0
  6
CONTINUOUS
 10
12.00000000000003
 20
175.64461017924469
 30
0.0
 11
0.0000000000000284
 21
163.64461017924481
 31
0.0
1001
ACAD
1010
0.0
1020
0.0
1030
0.0
  0
LINE
  5
867
  8
0
  6
CONTINUOUS
 10
12.000000000000011
 20
184.6248663003139
 30
0.0
 11
0.0000000000000142
 21
172.6248663003139
 31
0.0
1001
ACAD
1010
0.0
1020
0.0
1030
0.0
  0
LINE
  5
868
  8
0
  6
CONTINUOUS
 10
12.000000000000011
 20
193.60512242138299
 30
0.0
 11
0.0000000000000284
 21
181.6051224213831
 31
0.0
1001
ACAD
1010
0.0
1020
0.0
1030
0.0
  0
LINE
  5
869
  8
0
  6
CONTINUOUS
 10
12.000000000000011
 20
202.58537854245219
 30
0.0
 11
0.0000000000000284
 21
190.58537854245219
 31
0.0
1001
ACAD
1010
0.0
1020
0.0
1030
0.0
  0
LINE
  5
86A
  8
0
  6
CONTINUOUS
 10
12.000000000000011
 20
211.56563466352131
 30
0.0
 11
0.0000000000000568
 21
199.56563466352139
 31
0.0
1001
ACAD
1010
0.0
1020
0.0
1030
0.0
  0
LINE
  5
86B
  8
0
  6
CONTINUOUS
 10
12.000000000000011
 20
220.54589078459051
 30
0.0
 11
0.0000000000000568
 21
208.5458907845906
 31
0.0
1001
ACAD
1010
0.0
1020
0.0
1030
0.0
  0
LINE
  5
86C
  8
0
  6
CONTINUOUS
 10
11.99999999999998
 20
229.5261469056596
 30
0.0
 11
0.0000000000000568
 21
217.52614690565969
 31
0.0
1001
ACAD
1010
0.0
1020
0.0
1030
0.0
  0
LINE
  5
86D
  8
0
  6
CONTINUOUS
 10
11.99999999999997
 20
238.5064030267288
 30
0.0
 11
0.0000000000000568
 21
226.50640302672889
 31
0.0
1001
ACAD
1010
0.0
1020
0.0
1030
0.0
  0
LINE
  5
86E
  8
0
  6
CONTINUOUS
 10
11.99999999999998
 20
247.48665914779789
 30
0.0
 11
0.0000000000000568
 21
235.48665914779801
 31
0.0
1001
ACAD
1010
0.0
1020
0.0
1030
0.0
  0
LINE
  5
86F
  8
0
  6
CONTINUOUS
 10
11.99999999999995
 20
256.46691526886713
 30
0.0
 11
0.0000000000000568
 21
244.46691526886721
 31
0.0
1001
ACAD
1010
0.0
1020
0.0
1030
0.0
  0
LINE
  5
870
  8
0
  6
CONTINUOUS
 10
11.99999999999995
 20
265.44717138993622
 30
0.0
 11
0.0000000000000568
 21
253.4471713899363
 31
0.0
1001
ACAD
1010
0.0
1020
0.0
1030
0.0
  0
LINE
  5
871
  8
0
  6
CONTINUOUS
 10
11.99999999999994
 20
274.42742751100542
 30
0.0
 11
0.0000000000000568
 21
262.42742751100548
 31
0.0
1001
ACAD
1010
0.0
1020
0.0
1030
0.0
  0
LINE
  5
872
  8
0
  6
CONTINUOUS
 10
11.99999999999997
 20
283.40768363207451
 30
0.0
 11
0.0000000000000568
 21
271.40768363207462
 31
0.0
1001
ACAD
1010
0.0
1020
0.0
1030
0.0
  0
LINE
  5
873
  8
0
  6
CONTINUOUS
 10
4.1120602468563163
 20
284.5
 30
0.0
 11
0.0000000000000568
 21
280.38793975314383
 31
0.0
1001
ACAD
1010
0.0
1020
0.0
1030
0.0
  0
LINE
  5
874
  8
0
  6
CONTINUOUS
 10
11.999999999999989
 20
-30.901280605345779
 30
0.0
 11
10.90128060534582
 21
-31.99999999999994
 31
0.0
1001
ACAD
1010
0.0
1020
0.0
1030
0.0
  0
LINE
  5
875
  8
0
  6
CONTINUOUS
 10
11.99999999999998
 20
-21.921024484276629
 30
0.0
 11
1.9210244842766491
 21
-31.999999999999961
 31
0.0
1001
ACAD
1010
0.0
1020
0.0
1030
0.0
  0
LINE
  5
876
  8
0
  6
CONTINUOUS
 10
4.940768363207428
 20
-20.000000000000028
 30
0.0
 11
-7.0592316367924957
 21
-31.99999999999995
 31
0.0
1001
ACAD
1010
0.0
1020
0.0
1030
0.0
  0
LINE
  5
877
  8
0
  6
CONTINUOUS
 10
-4.0394877578617221
 20
-20.000000000000028
 30
0.0
 11
-16.039487757861661
 21
-31.999999999999961
 31
0.0
1001
ACAD
1010
0.0
1020
0.0
1030
0.0
  0
LINE
  5
878
  8
0
  6
CONTINUOUS
 10
-13.019743878930869
 20
-20.000000000000021
 30
0.0
 11
-25.019743878930811
 21
-31.999999999999961
 31
0.0
1001
ACAD
1010
0.0
1020
0.0
1030
0.0
  0
LINE
  5
879
  8
0
  6
CONTINUOUS
 10
-22.000000000000021
 20
-20.000000000000011
 30
0.0
 11
-33.999999999999979
 21
-31.999999999999972
 31
0.0
1001
ACAD
1010
0.0
1020
0.0
1030
0.0
  0
LINE
  5
87A
  8
0
  6
CONTINUOUS
 10
-30.980256121069171
 20
-20.000000000000011
 30
0.0
 11
-42.980256121069118
 21
-31.999999999999961
 31
0.0
1001
ACAD
1010
0.0
1020
0.0
1030
0.0
  0
LINE
  5
87B
  8
0
  6
CONTINUOUS
 10
-39.960512242138321
 20
-20.000000000000011
 30
0.0
 11
-51.960512242138293
 21
-31.999999999999972
 31
0.0
1001
ACAD
1010
0.0
1020
0.0
1030
0.0
  0
LINE
  5
87C
  8
0
  6
CONTINUOUS
 10
-48.940768363207461
 20
-19.999999999999989
 30
0.0
 11
-60.94076836320744
 21
-31.999999999999972
 31
0.0
1001
ACAD
1010
0.0
1020
0.0
1030
0.0
  0
LINE
  5
87D
  8
0
  6
CONTINUOUS
 10
-57.921024484276607
 20
-19.999999999999989
 30
0.0
 11
-69.9210244842766
 21
-31.999999999999972
 31
0.0
1001
ACAD
1010
0.0
1020
0.0
1030
0.0
  0
LINE
  5
87E
  8
0
  6
CONTINUOUS
 10
-66.901280605345761
 20
-19.999999999999979
 30
0.0
 11
-78.901280605345747
 21
-31.999999999999972
 31
0.0
1001
ACAD
1010
0.0
1020
0.0
1030
0.0
  0
LINE
  5
87F
  8
0
  6
CONTINUOUS
 10
-75.881536726414922
 20
-19.999999999999979
 30
0.0
 11
-87.881536726414893
 21
-31.999999999999979
 31
0.0
1001
ACAD
1010
0.0
1020
0.0
1030
0.0
  0
LINE
  5
880
  8
0
  6
CONTINUOUS
 10
-84.861792847484054
 20
-19.999999999999972
 30
0.0
 11
-96.861792847484068
 21
-31.999999999999972
 31
0.0
1001
ACAD
1010
0.0
1020
0.0
1030
0.0
  0
LINE
  5
881
  8
0
  6
CONTINUOUS
 10
-93.842048968553215
 20
-19.999999999999961
 30
0.0
 11
-105.8420489685532
 21
-31.999999999999972
 31
0.0
1001
ACAD
1010
0.0
1020
0.0
1030
0.0
  0
LINE
  5
882
  8
0
  6
CONTINUOUS
 10
-102.8223050896223
 20
-19.999999999999961
 30
0.0
 11
-114.8223050896223
 21
-31.999999999999961
 31
0.0
1001
ACAD
1010
0.0
1020
0.0
1030
0.0
  0
LINE
  5
883
  8
0
  6
CONTINUOUS
 10
-111.80256121069149
 20
-19.999999999999961
 30
0.0
 11
-123.80256121069149
 21
-31.999999999999961
 31
0.0
1001
ACAD
1010
0.0
1020
0.0
1030
0.0
  0
LINE
  5
884
  8
0
  6
CONTINUOUS
 10
-120.7828173317606
 20
-19.99999999999995
 30
0.0
 11
-132.78281733176061
 21
-31.999999999999972
 31
0.0
1001
ACAD
1010
0.0
1020
0.0
1030
0.0
  0
LINE
  5
885
  8
0
  6
CONTINUOUS
 10
-129.76307345282979
 20
-19.999999999999961
 30
0.0
 11
-141.76307345282979
 21
-31.99999999999994
 31
0.0
1001
ACAD
1010
0.0
1020
0.0
1030
0.0
  0
LINE
  5
886
  8
0
  6
CONTINUOUS
 10
-138.74332957389899
 20
-19.999999999999972
 30
0.0
 11
-150.7433295738989
 21
-31.99999999999994
 31
0.0
1001
ACAD
1010
0.0
1020
0.0
1030
0.0
  0
LINE
  5
887
  8
0
  6
CONTINUOUS
 10
-147.72358569496811
 20
-19.999999999999972
 30
0.0
 11
-159.72358569496811
 21
-31.999999999999961
 31
0.0
1001
ACAD
1010
0.0
1020
0.0
1030
0.0
  0
LINE
  5
888
  8
0
  6
CONTINUOUS
 10
-156.70384181603731
 20
-19.999999999999972
 30
0.0
 11
-168.70384181603731
 21
-31.99999999999994
 31
0.0
1001
ACAD
1010
0.0
1020
0.0
1030
0.0
  0
LINE
  5
889
  8
0
  6
CONTINUOUS
 10
-165.6840979371064
 20
-19.999999999999972
 30
0.0
 11
-177.6840979371064
 21
-31.99999999999994
 31
0.0
1001
ACAD
1010
0.0
1020
0.0
1030
0.0
  0
LINE
  5
88A
  8
0
  6
CONTINUOUS
 10
-174.6643540581756
 20
-19.999999999999979
 30
0.0
 11
-186.66435405817549
 21
-31.999999999999929
 31
0.0
1001
ACAD
1010
0.0
1020
0.0
1030
0.0
  0
LINE
  5
88B
  8
0
  6
CONTINUOUS
 10
-183.64461017924469
 20
-19.999999999999972
 30
0.0
 11
-195.64461017924469
 21
-31.999999999999929
 31
0.0
1001
ACAD
1010
0.0
1020
0.0
1030
0.0
  0
LINE
  5
88C
  8
0
  6
CONTINUOUS
 10
-192.6248663003139
 20
-19.999999999999972
 30
0.0
 11
-204.6248663003139
 21
-31.999999999999929
 31
0.0
1001
ACAD
1010
0.0
1020
0.0
1030
0.0
  0
LINE
  5
88D
  8
0
  6
CONTINUOUS
 10
-201.6051224213831
 20
-19.999999999999972
 30
0.0
 11
-213.60512242138299
 21
-31.999999999999929
 31
0.0
1001
ACAD
1010
0.0
1020
0.0
1030
0.0
  0
LINE
  5
88E
  8
0
  6
CONTINUOUS
 10
-210.58537854245219
 20
-19.999999999999972
 30
0.0
 11
-219.5
 21
-28.91462145754776
 31
0.0
1001
ACAD
1010
0.0
1020
0.0
1030
0.0
  0
ENDSEC
  0
EOF
