  0
SECTION
  2
HEADER
  9
$ACADVER
  1
AC1009
  9
$INSBASE
 10
0.0
 20
0.0
 30
0.0
  9
$EXTMIN
 10
-417.63889847259361
 20
-1546.510442078029
 30
-0.0000000000176133
  9
$EXTMAX
 10
669.01799838610623
 20
1102.6629952089841
 30
0.0000000000155978
  9
$LIMMIN
 10
0.0
 20
0.0
  9
$LIMMAX
 10
12.0
 20
9.0
  9
$ORTHOMODE
 70
     0
  9
$REGENMODE
 70
     1
  9
$FILLMODE
 70
     1
  9
$QTEXTMODE
 70
     0
  9
$MIRRTEXT
 70
     0
  9
$DRAGMODE
 70
     2
  9
$LTSCALE
 40
1.0
  9
$OSMODE
 70
     0
  9
$ATTMODE
 70
     1
  9
$TEXTSIZE
 40
35.0
  9
$TRACEWID
 40
0.05
  9
$TEXTSTYLE
  7
ARIAL
  9
$CLAYER
  8
0
  9
$CELTYPE
  6
CONTINUOUS
  9
$CECOLOR
 62
   256
  9
$DIMSCALE
 40
5.0
  9
$DIMASZ
 40
3.0
  9
$DIMEXO
 40
1.5
  9
$DIMDLI
 40
3.75
  9
$DIMRND
 40
0.0
  9
$DIMDLE
 40
0.0
  9
$DIMEXE
 40
1.0
  9
$DIMTP
 40
0.0
  9
$DIMTM
 40
0.000000001
  9
$DIMTXT
 40
2.0
  9
$DIMCEN
 40
0.0
  9
$DIMTSZ
 40
0.0
  9
$DIMTOL
 70
     0
  9
$DIMLIM
 70
     0
  9
$DIMTIH
 70
     0
  9
$DIMTOH
 70
     0
  9
$DIMSE1
 70
     0
  9
$DIMSE2
 70
     0
  9
$DIMTAD
 70
     1
  9
$DIMZIN
 70
     8
  9
$DIMBLK
  1

  9
$DIMASO
 70
     1
  9
$DIMSHO
 70
     1
  9
$DIMPOST
  1

  9
$DIMAPOST
  1

  9
$DIMALT
 70
     0
  9
$DIMALTD
 70
     3
  9
$DIMALTF
 40
0.03937007874016
  9
$DIMLFAC
 40
1.0
  9
$DIMTOFL
 70
     1
  9
$DIMTVP
 40
0.0
  9
$DIMTIX
 70
     0
  9
$DIMSOXD
 70
     0
  9
$DIMSAH
 70
     0
  9
$DIMBLK1
  1

  9
$DIMBLK2
  1

  9
$DIMSTYLE
  2
Y
  9
$DIMCLRD
 70
     0
  9
$DIMCLRE
 70
     0
  9
$DIMCLRT
 70
     0
  9
$DIMTFAC
 40
0.8
  9
$DIMGAP
 40
1.0
  9
$LUNITS
 70
     2
  9
$LUPREC
 70
     1
  9
$SKETCHINC
 40
0.1
  9
$FILLETRAD
 40
0.0
  9
$AUNITS
 70
     1
  9
$AUPREC
 70
     4
  9
$MENU
  1
.
  9
$ELEVATION
 40
0.0
  9
$PELEVATION
 40
0.0
  9
$THICKNESS
 40
0.0
  9
$LIMCHECK
 70
     0
  9
$BLIPMODE
 70
     0
  9
$CHAMFERA
 40
0.0
  9
$CHAMFERB
 40
0.0
  9
$SKPOLY
 70
     0
  9
$TDCREATE
 40
2452152.65359294
  9
$TDUPDATE
 40
2455419.6000856599
  9
$TDINDWG
 40
25.8339214236
  9
$TDUSRTIMER
 40
25.8339214236
  9
$USRTIMER
 70
     1
  9
$ANGBASE
 50
0.0
  9
$ANGDIR
 70
     0
  9
$PDMODE
 70
     0
  9
$PDSIZE
 40
0.0
  9
$PLINEWID
 40
0.0
  9
$COORDS
 70
     1
  9
$SPLFRAME
 70
     0
  9
$SPLINETYPE
 70
     6
  9
$SPLINESEGS
 70
     8
  9
$ATTDIA
 70
     0
  9
$ATTREQ
 70
     0
  9
$HANDLING
 70
     1
  9
$HANDSEED
  5
15A6
  9
$SURFTAB1
 70
     6
  9
$SURFTAB2
 70
     6
  9
$SURFTYPE
 70
     6
  9
$SURFU
 70
     6
  9
$SURFV
 70
     6
  9
$UCSNAME
  2

  9
$UCSORG
 10
0.0
 20
0.0
 30
0.0
  9
$UCSXDIR
 10
1.0
 20
0.0
 30
0.0
  9
$UCSYDIR
 10
0.0
 20
1.0
 30
0.0
  9
$PUCSNAME
  2

  9
$PUCSORG
 10
0.0
 20
0.0
 30
0.0
  9
$PUCSXDIR
 10
1.0
 20
0.0
 30
0.0
  9
$PUCSYDIR
 10
0.0
 20
1.0
 30
0.0
  9
$USERI1
 70
     0
  9
$USERI2
 70
     0
  9
$USERI3
 70
     0
  9
$USERI4
 70
     0
  9
$USERI5
 70
     0
  9
$USERR1
 40
0.0
  9
$USERR2
 40
0.0
  9
$USERR3
 40
0.0
  9
$USERR4
 40
0.0
  9
$USERR5
 40
0.0
  9
$WORLDVIEW
 70
     1
  9
$SHADEDGE
 70
     3
  9
$SHADEDIF
 70
    70
  9
$TILEMODE
 70
     1
  9
$MAXACTVP
 70
    48
  9
$PLIMCHECK
 70
     0
  9
$PEXTMIN
 10
0.0
 20
0.0
 30
0.0
  9
$PEXTMAX
 10
208.41041893864801
 20
295.40953368001158
 30
0.0
  9
$PLIMMIN
 10
-0.793749988079071
 20
-0.793749988079071
  9
$PLIMMAX
 10
209.2062500119209
 20
296.20625001192087
  9
$UNITMODE
 70
     0
  9
$VISRETAIN
 70
     1
  9
$PLINEGEN
 70
     1
  9
$PSLTSCALE
 70
     1
  0
ENDSEC
  0
SECTION
  2
TABLES
  0
TABLE
  2
VPORT
 70
     1
  0
VPORT
  2
*ACTIVE
 70
     0
 10
0.0
 20
0.0
 11
1.0
 21
1.0
 12
125.6895499567563
 22
-221.92372343452229
 13
0.0
 23
0.0
 14
1.0
 24
1.0
 15
50.0
 25
50.0
 16
0.0
 26
0.0
 36
1.0
 17
0.0
 27
0.0
 37
0.0
 40
2671.4353989448882
 41
1.978962131837307
 42
50.0
 43
0.0
 44
0.0
 50
0.0
 51
0.0
 71
     0
 72
 20000
 73
     1
 74
     3
 75
     0
 76
     0
 77
     0
 78
     0
  0
ENDTAB
  0
TABLE
  2
LTYPE
 70
     2
  0
LTYPE
  2
CONTINUOUS
 70
     0
  3
Solid line
 72
    65
 73
     0
 40
0.0
  0
LTYPE
  2
DASHED
 70
     0
  3
Dashed __ __ __ __ __ __ __ __ __ __ __ __ __ _
 72
    65
 73
     2
 40
19.050000000000001
 49
12.699999999999999
 49
-6.3499999999999988
  0
ENDTAB
  0
TABLE
  2
LAYER
 70
     1
  0
LAYER
  2
0
 70
     0
 62
     7
  6
CONTINUOUS
  0
ENDTAB
  0
TABLE
  2
STYLE
 70
     4
  0
STYLE
  2
STANDARD
 70
     0
 40
0.0
 41
1.0
 50
0.0
 71
     0
 42
1.5
  3
romans.shx
  4

  0
STYLE
  2
ARIAL
 70
     0
 40
0.0
 41
1.0
 50
0.0
 71
     0
 42
35.0
  3
txt
  4

  0
ENDTAB
  0
TABLE
  2
VIEW
 70
     2
  0
VIEW
  2
09
 70
     0
 40
2970.0
 10
19050.0
 20
1485.0
 41
2100.0
 11
0.0
 21
0.0
 31
1.0
 12
0.0
 22
0.0
 32
0.0
 42
50.0
 43
0.0
 44
0.0
 50
0.0
 71
     0
  0
VIEW
  2
COMM-04
 70
     1
 40
477.26027331217421
 10
194.21746115522001
 20
180.60494410563541
 41
755.81685306636155
 11
0.0
 21
0.0
 31
1.0
 12
0.0
 22
0.0
 32
0.0
 42
50.0
 43
0.0
 44
0.0
 50
0.0
 71
     0
  0
ENDTAB
  0
TABLE
  2
UCS
 70
     0
  0
ENDTAB
  0
TABLE
  2
APPID
 70
     6
  0
APPID
  2
ACAD
 70
     0
  0
APPID
  2
ACAD_PSEXT
 70
     0
  0
APPID
  2
ACAD_MLEADERVER
 70
     0
  0
APPID
  2
ADESKUNDERLAYLAYEROVERRIDEDATA
 70
     0
  0
APPID
  2
ACAD_EXEMPT_FROM_CAD_STANDARDS
 70
     0
  0
APPID
  2
ACADANNOPO
 70
     0
  0
ENDTAB
  0
TABLE
  2
DIMSTYLE
 70
     2
  0
DIMSTYLE
  2
Y
 70
     0
  3

  4

  5

  6

  7

 40
5.0
 41
3.0
 42
1.5
 43
3.75
 44
1.0
 45
0.0
 46
0.0
 47
0.0
 48
0.000000001
140
2.0
141
0.0
142
0.0
143
0.03937007874016
144
1.0
145
0.0
146
0.8
147
1.0
 71
     0
 72
     0
 73
     0
 74
     0
 75
     0
 76
     0
 77
     1
 78
     8
170
     0
171
     3
172
     1
173
     0
174
     0
175
     0
176
     0
177
     0
178
     0
  0
ENDTAB
  0
ENDSEC
  0
SECTION
  2
BLOCKS
  0
BLOCK
  8
0
  2
$MODEL_SPACE
 70
     0
 10
0.0
 20
0.0
 30
0.0
  3
$MODEL_SPACE
  1

  0
ENDBLK
  5
17
  8
0
  0
BLOCK
 67
     1
  8
0
  2
$PAPER_SPACE
 70
     0
 10
0.0
 20
0.0
 30
0.0
  3
$PAPER_SPACE
  1

  0
ENDBLK
  5
20
 67
     1
  8
0
  0
ENDSEC
  0
SECTION
  2
ENTITIES
  0
LINE
  5
330
  8
0
  6
DASHED
 10
-37.26644404015579
 20
816.31844634474112
 30
0.0000000000110142
 11
-37.266444040155783
 21
897.96810443751315
 31
0.0000000000118832
  0
LINE
  5
3E4
  8
0
  6
DASHED
 10
246.42479657188409
 20
980.59755842740424
 30
0.0000000000104455
 11
246.4247965718842
 21
1061.757318571619
 31
0.0000000000113375
  0
LINE
  5
3EC
  8
0
  6
DASHED
 10
-37.690708108867689
 20
327.64524265950121
 30
0.000000000005739
 11
-108.4013862275216
 21
286.82041361311411
 31
0.0000000000058679
  0
LINE
  5
3ED
  8
0
  6
DASHED
 10
69.223837206538732
 20
306.74293018775143
 30
0.0000000000045949
 11
33.444234078499697
 21
327.40029368522272
 31
0.0000000000051233
  0
LINE
  5
3EE
  8
0
  6
DASHED
 10
281.35587156250051
 20
429.21741732691339
 30
0.0000000000042384
 11
210.6451934438451
 21
470.04224637330009
 31
0.0000000000052827
  0
POLYLINE
  5
3F1
  8
0
  6
DASHED
 66
     1
 10
0.0
 20
0.0
 30
0.0
 70
   129
  0
VERTEX
  5
84E
  8
0
  6
DASHED
 10
-107.97712215880971
 20
-276.20820341811208
 30
0.0
  0
VERTEX
  5
84F
  8
0
  6
DASHED
 10
-108.82565029623341
 20
-928.42567226317396
 30
0.0
  0
VERTEX
  5
850
  8
0
  6
DASHED
 10
316.71121062182772
 20
-684.2115449076872
 30
0.0
  0
VERTEX
  5
851
  8
0
  6
DASHED
 10
316.28694655311398
 20
-31.259229139787749
 30
0.0
  0
SEQEND
  5
852
  8
0
  6
DASHED
  0
POLYLINE
  5
53F
  8
0
  6
DASHED
 66
     1
 10
0.0
 20
0.0
 30
0.0
 70
   128
  0
VERTEX
  5
853
  8
0
  6
DASHED
 10
668.98483574333977
 20
168.87911802140749
 30
0.0
  0
VERTEX
  5
854
  8
0
  6
DASHED
 10
668.45030561900512
 20
168.13406489131111
 30
0.0
  0
VERTEX
  5
855
  8
0
  6
DASHED
 10
661.12053546766185
 20
163.90222012133489
 30
0.0
 42
-0.2679491924311268
  0
VERTEX
  5
856
  8
0
  6
DASHED
 10
659.55532527518415
 20
163.90222012133489
 30
0.0
  0
VERTEX
  5
857
  8
0
  6
DASHED
 10
632.10714992445389
 20
176.73503890599699
 30
0.0
 42
0.2381465543704586
  0
VERTEX
  5
858
  8
0
  6
DASHED
 10
631.37211497972237
 20
176.71279847922511
 30
0.0
  0
VERTEX
  5
859
  8
0
  6
DASHED
 10
251.19776734489091
 20
-42.780203328995242
 30
0.0
  0
SEQEND
  5
85A
  8
0
  6
DASHED
  0
POLYLINE
  5
547
  8
0
  6
DASHED
 66
     1
 10
0.0
 20
0.0
 30
0.0
 70
   128
  0
VERTEX
  5
85B
  8
0
  6
DASHED
 10
-39.988805147723973
 20
-289.2791614749604
 30
0.0
  0
VERTEX
  5
85C
  8
0
  6
DASHED
 10
-39.988805147723951
 20
-210.89626713044271
 30
0.0
  0
SEQEND
  5
85D
  8
0
  6
DASHED
  0
POLYLINE
  5
548
  8
0
  6
DASHED
 66
     1
 10
0.0
 20
0.0
 30
0.0
 70
   128
  0
VERTEX
  5
85E
  8
0
  6
DASHED
 10
251.19776734489119
 20
-121.1625154619357
 30
0.0
  0
VERTEX
  5
85F
  8
0
  6
DASHED
 10
251.19776734489119
 20
-42.780203328995043
 30
0.0
  0
SEQEND
  5
860
  8
0
  6
DASHED
  0
POLYLINE
  5
549
  8
0
  6
DASHED
 66
     1
 10
0.0
 20
0.0
 30
0.0
 70
   128
  0
VERTEX
  5
861
  8
0
  6
DASHED
 10
-39.988805147723838
 20
-210.8962671304426
 30
0.0
  0
VERTEX
  5
862
  8
0
  6
DASHED
 10
-416.89863410847153
 20
-428.50450473063188
 30
0.0
  0
SEQEND
  5
863
  8
0
  6
DASHED
  0
LINE
  5
6FD
  8
0
  6
CONTINUOUS
 10
-107.97712215880939
 20
857.63317333968155
 30
0.0000000000155358
 11
316.28694655311182
 21
1102.5821476180081
 31
0.0000000000131867
210
0.000000000000008
220
0.8164965809277113
230
0.5773502691896467
  0
LINE
  5
6FE
  8
0
  6
CONTINUOUS
 10
316.7112106218238
 20
1102.3371986437301
 30
0.0000000000131779
 11
316.28694655311182
 21
1102.5821476180081
 31
0.0000000000131867
210
0.000000000000008
220
0.8164965809277113
230
0.5773502691896467
  0
LINE
  5
6FF
  8
0
  6
CONTINUOUS
 10
-107.97712215880939
 20
775.98351524690975
 30
0.0000000000146024
 11
-107.97712215880939
 21
857.63317333968155
 31
0.0000000000155358
210
0.000000000000008
220
0.8164965809277113
230
0.5773502691896467
  0
LINE
  5
700
  8
0
  6
CONTINUOUS
 10
-107.97712215880939
 20
857.63317333968155
 30
0.0000000000155358
 11
-107.5528580900974
 21
857.38822436540306
 31
0.0000000000155838
210
0.000000000000008
220
0.8164965809277113
230
0.5773502691896467
  0
LINE
  5
701
  8
0
  6
CONTINUOUS
 10
-37.266444040155889
 20
816.80834429329741
 30
0.0000000000141872
 11
33.44423407849952
 21
775.98351524691145
 31
0.0000000000127535
210
0.000000000000008
220
0.8164965809277113
230
0.5773502691896467
  0
LINE
  5
702
  8
0
  6
CONTINUOUS
 10
316.71121062182368
 20
1020.687540550958
 30
0.0000000000121878
 11
316.7112106218238
 21
1102.3371986437301
 31
0.0000000000131779
210
0.000000000000008
220
0.8164965809277113
230
0.5773502691896467
  0
LINE
  5
703
  8
0
  6
CONTINUOUS
 10
-37.266444040155889
 20
816.80834429329741
 30
0.0000000000141872
 11
246.42479657188241
 21
980.59755842740526
 31
0.0000000000127204
210
0.000000000000008
220
0.8164965809277113
230
0.5773502691896467
  0
LINE
  5
704
  8
0
  6
CONTINUOUS
 10
-37.266444040155861
 20
816.31844634474066
 30
0.0000000000142094
 11
-37.266444040155889
 21
816.80834429329741
 31
0.0000000000141872
210
0.000000000000008
220
0.8164965809277113
230
0.5773502691896467
  0
LINE
  5
705
  8
0
  6
CONTINUOUS
 10
-107.5528580900974
 20
857.38822436540306
 30
0.0000000000155838
 11
-107.5528580900975
 21
775.73856627263137
 31
0.0000000000145368
210
0.000000000000008
220
0.8164965809277113
230
0.5773502691896467
  0
LINE
  5
706
  8
0
  6
CONTINUOUS
 10
-107.5528580900974
 20
857.38822436540306
 30
0.0000000000155838
 11
316.7112106218238
 21
1102.3371986437301
 31
0.0000000000131779
210
0.000000000000008
220
0.8164965809277113
230
0.5773502691896467
  0
LINE
  5
707
  8
0
  6
CONTINUOUS
 10
33.444234078500152
 20
775.983515246911
 30
0.0000000000126966
 11
33.444234078500088
 21
734.66878825196852
 31
0.0000000000121668
210
0.000000000000008
220
0.8164965809277113
230
0.5773502691896467
  0
LINE
  5
708
  8
0
  6
CONTINUOUS
 10
33.44423407849952
 20
775.98351524691145
 30
0.0000000000127535
 11
317.13547469053771
 21
939.77272938101908
 31
0.0000000000111446
210
0.000000000000008
220
0.8164965809277113
230
0.5773502691896467
  0
LINE
  5
709
  8
0
  6
CONTINUOUS
 10
317.13547469058341
 20
898.45800238605
 30
0.0000000000106148
 11
317.13547469053771
 21
939.77272938101908
 31
0.0000000000111446
210
0.000000000000008
220
0.8164965809277113
230
0.5773502691896467
  0
LINE
  5
70A
  8
0
  6
CONTINUOUS
 10
317.13547469053827
 20
939.77272938101885
 30
0.0000000000112014
 11
246.42479657188241
 21
980.59755842740526
 31
0.0000000000127204
210
0.000000000000008
220
0.8164965809277113
230
0.5773502691896467
  0
LINE
  5
70B
  8
0
  6
CONTINUOUS
 10
317.13547469053827
 20
898.45800238607626
 30
0.0000000000106716
 11
316.7112106218263
 21
898.21305341179777
 31
0.0000000000106173
210
0.000000000000008
220
0.8164965809277113
230
0.5773502691896467
  0
LINE
  5
70C
  8
0
  6
CONTINUOUS
 10
316.7112106218263
 20
939.03788245818373
 30
0.0000000000111408
 11
316.7112106218263
 21
898.21305341179777
 31
0.0000000000106173
210
0.000000000000008
220
0.8164965809277113
230
0.5773502691896467
  0
LINE
  5
70D
  8
0
  6
CONTINUOUS
 10
316.7112106218263
 20
898.21305341179777
 30
0.0000000000106173
 11
281.35587156249977
 21
918.62546793499018
 31
0.0000000000114052
210
0.000000000000008
220
0.8164965809277113
230
0.5773502691896467
  0
LINE
  5
70E
  8
0
  6
CONTINUOUS
 10
33.868498147212023
 20
775.73856627263274
 30
0.0000000000127163
 11
316.7112106218263
 21
939.03788245818384
 31
0.0000000000111976
210
0.000000000000008
220
0.8164965809277113
230
0.5773502691896467
  0
LINE
  5
70F
  8
0
  6
CONTINUOUS
 10
316.71121062182408
 20
1020.687540550958
 30
0.0000000000123015
 11
246.84906064059439
 21
980.35260945312666
 31
0.000000000012598
210
0.000000000000008
220
0.8164965809277113
230
0.5773502691896467
  0
LINE
  5
710
  8
0
  6
CONTINUOUS
 10
-107.5528580900975
 20
775.73856627263137
 30
0.0000000000145368
 11
-107.97712215880939
 21
775.98351524690975
 31
0.0000000000146024
210
0.000000000000008
220
0.8164965809277113
230
0.5773502691896467
  0
LINE
  5
711
  8
0
  6
CONTINUOUS
 10
-37.266444040155861
 20
816.31844634474066
 30
0.0000000000142094
 11
-107.5528580900975
 21
775.73856627263137
 31
0.0000000000145368
210
0.000000000000008
220
0.8164965809277113
230
0.5773502691896467
  0
LINE
  5
712
  8
0
  6
CONTINUOUS
 10
33.444234078500088
 20
734.66878825196852
 30
0.0000000000121668
 11
33.868498147212009
 21
734.91373722624667
 31
0.0000000000121928
210
0.000000000000008
220
0.8164965809277113
230
0.5773502691896467
  0
LINE
  5
713
  8
0
  6
CONTINUOUS
 10
-37.26644404015591
 20
775.49361729835482
 30
0.0000000000136859
 11
33.444234078500088
 21
734.66878825196852
 31
0.0000000000121668
210
0.000000000000008
220
0.8164965809277113
230
0.5773502691896467
  0
LINE
  5
714
  8
0
  6
CONTINUOUS
 10
-37.266444040155861
 20
816.31844634474066
 30
0.0000000000142094
 11
-37.26644404015591
 21
775.49361729835482
 31
0.0000000000136859
210
0.000000000000008
220
0.8164965809277113
230
0.5773502691896467
  0
LINE
  5
715
  8
0
  6
CONTINUOUS
 10
33.868498147212051
 20
775.73856627263274
 30
0.0000000000127447
 11
33.868498147212009
 21
734.91373722624667
 31
0.0000000000121928
210
0.000000000000008
220
0.8164965809277113
230
0.5773502691896467
  0
LINE
  5
716
  8
0
  6
CONTINUOUS
 10
69.223837206538875
 20
306.74293018775211
 30
0.0000000000063822
 11
68.799573137826044
 21
306.98787916203088
 31
0.0000000000063927
210
0.000000000000008
220
0.8164965809277113
230
0.5773502691896467
  0
LINE
  5
717
  8
0
  6
CONTINUOUS
 10
33.868498147212179
 20
286.33051566455839
 30
0.0000000000065791
 11
33.868498147212399
 21
734.91373722624655
 31
0.0000000000121928
210
0.000000000000008
220
0.8164965809277113
230
0.5773502691896467
  0
LINE
  5
718
  8
0
  6
CONTINUOUS
 10
33.868498147212087
 20
286.33051566455822
 30
0.0000000000065791
 11
69.22383720653896
 21
306.74293018775211
 31
0.0000000000063857
210
0.000000000000008
220
0.8164965809277113
230
0.5773502691896467
  0
LINE
  5
719
  8
0
  6
CONTINUOUS
 10
69.223837206538875
 20
306.25303223919548
 30
0.0000000000063794
 11
69.223837206538889
 21
306.74293018775211
 31
0.0000000000063822
210
0.000000000000008
220
0.8164965809277113
230
0.5773502691896467
  0
LINE
  5
71A
  8
0
  6
CONTINUOUS
 10
33.444234078500159
 20
285.59566874172322
 30
0.0000000000065718
 11
69.223837206538946
 21
306.25303223919548
 31
0.0000000000063777
210
0.000000000000008
220
0.8164965809277113
230
0.5773502691896467
  0
LINE
  5
71B
  8
0
  6
CONTINUOUS
 10
-107.9771221588091
 20
204.9258065460638
 30
0.0000000000074147
 11
-107.5528580900971
 21
204.68085757178551
 31
0.0000000000074131
210
0.000000000000008
220
0.8164965809277113
230
0.5773502691896467
  0
LINE
  5
71C
  8
0
  6
CONTINUOUS
 10
-107.9771221588091
 20
204.9258065460638
 30
0.0000000000074147
 11
-107.97712215880929
 21
775.98351524690963
 31
0.0000000000146024
210
0.000000000000008
220
0.8164965809277113
230
0.5773502691896467
  0
LINE
  5
71D
  8
0
  6
CONTINUOUS
 10
-36.842179971443642
 20
326.17554881383143
 30
0.0000000000080325
 11
-36.842179971443599
 21
245.50568661817289
 31
0.000000000007005
210
0.000000000000008
220
0.8164965809277113
230
0.5773502691896467
  0
LINE
  5
71E
  8
0
  6
CONTINUOUS
 10
-107.5528580900971
 20
204.68085757178551
 30
0.000000000007406
 11
-36.842179971443571
 21
245.5056866181732
 31
0.0000000000070192
210
0.000000000000008
220
0.8164965809277113
230
0.5773502691896467
  0
LINE
  5
71F
  8
0
  6
CONTINUOUS
 10
-107.5528580900971
 20
204.68085757178551
 30
0.000000000007406
 11
-107.5528580900973
 21
775.73856627263126
 31
0.0000000000145937
210
0.000000000000008
220
0.8164965809277113
230
0.5773502691896467
  0
LINE
  5
720
  8
0
  6
CONTINUOUS
 10
33.444234078499761
 20
285.59566874172373
 30
0.0000000000065824
 11
33.444234078499989
 21
734.66878825196841
 31
0.0000000000121953
210
0.000000000000008
220
0.8164965809277113
230
0.5773502691896467
  0
LINE
  5
721
  8
0
  6
CONTINUOUS
 10
-37.266444040155548
 20
326.42049778810969
 30
0.000000000008041
 11
33.444234078499868
 21
285.59566874172373
 31
0.0000000000065789
210
0.000000000000008
220
0.8164965809277113
230
0.5773502691896467
  0
LINE
  5
722
  8
0
  6
CONTINUOUS
 10
-37.266444040155662
 20
326.4204977881098
 30
0.0000000000080411
 11
-37.26644404015542
 21
775.49361729835482
 31
0.0000000000136575
210
0.000000000000008
220
0.8164965809277113
230
0.5773502691896467
  0
LINE
  5
723
  8
0
  6
CONTINUOUS
 10
280.50734342507491
 20
429.21741732691561
 30
0.0000000000052402
 11
281.3558715624996
 21
428.72751937835858
 31
0.0000000000051872
210
0.000000000000008
220
0.8164965809277113
230
0.5773502691896467
  0
LINE
  5
724
  8
0
  6
CONTINUOUS
 10
246.00053250317029
 20
490.45466089649551
 30
0.0000000000064409
 11
245.57626843445891
 21
490.20971192221742
 31
0.0000000000064434
210
0.000000000000008
220
0.8164965809277113
230
0.5773502691896467
  0
LINE
  5
725
  8
0
  6
CONTINUOUS
 10
281.3558715624996
 20
429.21741732691521
 30
0.0000000000052005
 11
280.93160749378683
 21
429.46236630119398
 31
0.0000000000052306
210
0.000000000000008
220
0.8164965809277113
230
0.5773502691896467
  0
LINE
  5
726
  8
0
  6
CONTINUOUS
 10
316.71121062182601
 20
449.62983185010893
 30
0.0000000000050143
 11
246.00053250317001
 21
490.45466089649523
 31
0.0000000000064694
210
0.000000000000008
220
0.8164965809277113
230
0.5773502691896467
  0
LINE
  5
727
  8
0
  6
CONTINUOUS
 10
246.00053250316989
 20
408.80500280372371
 30
0.0000000000054508
 11
245.576268434458
 21
409.04995177800203
 31
0.0000000000054595
210
0.000000000000008
220
0.8164965809277113
230
0.5773502691896467
  0
LINE
  5
728
  8
0
  6
CONTINUOUS
 10
245.57626843445809
 20
490.20971192221742
 30
0.0000000000065145
 11
245.57626843445831
 21
897.96810443751599
 31
0.0000000000116153
210
0.000000000000008
220
0.8164965809277113
230
0.5773502691896467
  0
LINE
  5
729
  8
0
  6
CONTINUOUS
 10
317.13547469053827
 20
449.38488287583078
 30
0.0000000000049629
 11
281.35587156249937
 21
428.72751937835852
 31
0.0000000000052085
210
0.000000000000008
220
0.8164965809277113
230
0.5773502691896467
  0
LINE
  5
72A
  8
0
  6
CONTINUOUS
 10
281.3558715624996
 20
428.72751937835858
 30
0.0000000000051872
 11
281.3558715624996
 21
429.21741732691521
 31
0.0000000000051934
210
0.000000000000008
220
0.8164965809277113
230
0.5773502691896467
  0
LINE
  5
72B
  8
0
  6
CONTINUOUS
 10
316.7112106218263
 20
449.62983185010899
 30
0.0000000000050214
 11
281.35587156249937
 21
429.21741732691521
 31
0.0000000000051792
210
0.000000000000008
220
0.8164965809277113
230
0.5773502691896467
  0
LINE
  5
72C
  8
0
  6
CONTINUOUS
 10
316.71121062182613
 20
449.62983185010899
 30
0.0000000000049858
 11
316.7112106218263
 21
898.21305341179777
 31
0.0000000000105604
210
0.000000000000008
220
0.8164965809277113
230
0.5773502691896467
  0
LINE
  5
72D
  8
0
  6
CONTINUOUS
 10
280.93160749378399
 20
428.97246835263883
 30
0.0000000000052528
 11
246.00053250316989
 21
408.80500280372371
 31
0.000000000005465
210
0.000000000000008
220
0.8164965809277113
230
0.5773502691896467
  0
LINE
  5
72E
  8
0
  6
CONTINUOUS
 10
246.00053250316989
 20
409.29490075227739
 30
0.0000000000054571
 11
246.00053250316989
 21
408.80500280372343
 31
0.000000000005465
210
0.000000000000008
220
0.8164965809277113
230
0.5773502691896467
  0
LINE
  5
72F
  8
0
  6
CONTINUOUS
 10
316.7112106218238
 20
940.0176783552987
 30
0.0000000000111533
 11
316.71121062182391
 21
1020.687540550958
 31
0.0000000000121878
210
0.000000000000008
220
0.8164965809277113
230
0.5773502691896467
  0
LINE
  5
730
  8
0
  6
CONTINUOUS
 10
317.13547469053742
 20
449.3848828758309
 30
0.0000000000050197
 11
317.13547469053759
 21
898.45800238607592
 31
0.0000000000106148
210
0.000000000000008
220
0.8164965809277113
230
0.5773502691896467
  0
LINE
  5
731
  8
0
  6
CONTINUOUS
 10
-108.8256502962335
 20
205.41570449462051
 30
0.0000000000074394
 11
-108.4013862275216
 21
205.1707555203422
 31
0.0000000000074377
210
0.000000000000008
220
0.8164965809277113
230
0.5773502691896467
  0
LINE
  5
732
  8
0
  6
CONTINUOUS
 10
-108.8256502962335
 20
287.06536258739243
 30
0.0000000000084686
 11
-108.8256502962335
 21
205.41570449462051
 31
0.0000000000074394
210
0.000000000000008
220
0.8164965809277113
230
0.5773502691896467
  0
LINE
  5
733
  8
0
  6
CONTINUOUS
 10
-108.4013862275215
 20
286.820413613114
 30
0.0000000000084598
 11
-108.8256502962335
 21
287.06536258739243
 31
0.0000000000084615
210
0.000000000000008
220
0.8164965809277113
230
0.5773502691896467
  0
LINE
  5
734
  8
0
  6
CONTINUOUS
 10
-108.8256502962335
 20
287.06536258739243
 30
0.0000000000084686
 11
-107.9771221588091
 21
287.55526053594929
 31
0.0000000000084672
210
0.000000000000008
220
0.8164965809277113
230
0.5773502691896467
  0
LINE
  5
735
  8
0
  6
CONTINUOUS
 10
33.868498147212122
 20
369.44986760300441
 30
0.0000000000076734
 11
245.57626843445809
 21
491.6794057678876
 31
0.0000000000065049
210
0.000000000000008
220
0.8164965809277113
230
0.5773502691896467
  0
LINE
  5
736
  8
0
  6
CONTINUOUS
 10
33.868498147212087
 20
287.31031156167222
 30
0.0000000000065988
 11
315.43841841569042
 21
449.87478082438798
 31
0.0000000000050272
210
0.000000000000008
220
0.8164965809277113
230
0.5773502691896467
  0
LINE
  5
737
  8
0
  6
CONTINUOUS
 10
33.868498147212087
 20
286.82041361311622
 30
0.0000000000065854
 11
315.4384184156898
 21
449.38488287583158
 31
0.0000000000050067
210
0.000000000000008
220
0.8164965809277113
230
0.5773502691896467
  0
LINE
  5
738
  8
0
  6
CONTINUOUS
 10
244.72774029703439
 20
490.69960987077428
 30
0.0000000000064894
 11
245.57626843445809
 21
491.18950781933091
 31
0.0000000000065128
210
0.000000000000008
220
0.8164965809277113
230
0.5773502691896467
  0
LINE
  5
739
  8
0
  6
CONTINUOUS
 10
-108.4013862275216
 20
205.1707555203422
 30
0.0000000000074377
 11
-107.9771221588091
 21
205.4157044946208
 31
0.0000000000074281
210
0.000000000000008
220
0.8164965809277113
230
0.5773502691896467
  0
LINE
  5
73A
  8
0
  6
CONTINUOUS
 10
-36.84217997144362
 20
246.48548251528689
 30
0.0000000000070246
 11
32.171441872360873
 21
286.33051566456049
 31
0.0000000000066372
210
0.000000000000008
220
0.8164965809277113
230
0.5773502691896467
  0
LINE
  5
73B
  8
0
  6
CONTINUOUS
 10
-108.4013862275216
 20
205.1707555203422
 30
0.0000000000074377
 11
-108.4013862275215
 21
286.820413613114
 31
0.0000000000084421
210
0.000000000000008
220
0.8164965809277113
230
0.5773502691896467
  0
LINE
  5
73C
  8
0
  6
CONTINUOUS
 10
-108.4013862275215
 20
286.820413613114
 30
0.0000000000084421
 11
-107.97712215880919
 21
287.06536258739271
 31
0.0000000000084467
210
0.000000000000008
220
0.8164965809277113
230
0.5773502691896467
  0
LINE
  5
73D
  8
0
  6
CONTINUOUS
 10
315.4384184156898
 20
449.38488287583112
 30
0.0000000000050138
 11
315.43841841569042
 21
449.87478082438798
 31
0.0000000000050272
210
0.000000000000008
220
0.8164965809277113
230
0.5773502691896467
  0
LINE
  5
73E
  8
0
  6
CONTINUOUS
 10
315.43841841569042
 20
449.87478082438798
 30
0.0000000000050343
 11
244.72774029703439
 21
490.69960987077428
 31
0.0000000000064752
210
0.000000000000008
220
0.8164965809277113
230
0.5773502691896467
  0
LINE
  5
73F
  8
0
  6
CONTINUOUS
 10
-37.266444040156443
 20
-317.03303246449582
 30
-0.0000000000000963
 11
33.444234078499008
 21
-357.85786151088189
 31
-0.0000000000015016
210
0.000000000000008
220
0.8164965809277113
230
0.5773502691896467
  0
LINE
  5
740
  8
0
  6
CONTINUOUS
 10
-37.266444040156443
 20
-317.03303246449582
 30
-0.0000000000000963
 11
246.42479657188181
 21
-153.243818330388
 31
-0.0000000000016768
210
0.000000000000008
220
0.8164965809277113
230
0.5773502691896467
  0
LINE
  5
741
  8
0
  6
CONTINUOUS
 10
-37.266444040156387
 20
-317.52293041305251
 30
0.0000000000000111
 11
-37.266444040156443
 21
-317.03303246449582
 31
-0.0000000000000963
210
0.000000000000008
220
0.8164965809277113
230
0.5773502691896467
  0
LINE
  5
742
  8
0
  6
CONTINUOUS
 10
33.44423407849952
 20
-357.85786151088217
 30
-0.0000000000014448
 11
33.44423407849952
 21
-399.17258850582488
 31
-0.0000000000019746
210
0.000000000000008
220
0.8164965809277113
230
0.5773502691896467
  0
LINE
  5
743
  8
0
  6
CONTINUOUS
 10
33.444234078499008
 20
-357.85786151088189
 30
-0.0000000000015016
 11
317.13547469053719
 21
-194.06864737677409
 31
-0.0000000000029685
210
0.000000000000008
220
0.8164965809277113
230
0.5773502691896467
  0
LINE
  5
744
  8
0
  6
CONTINUOUS
 10
317.1354746905829
 20
-235.38337437174309
 30
-0.0000000000035835
 11
317.13547469053719
 21
-194.06864737677409
 31
-0.0000000000029685
210
0.000000000000008
220
0.8164965809277113
230
0.5773502691896467
  0
LINE
  5
745
  8
0
  6
CONTINUOUS
 10
317.13547469053788
 20
-194.06864737677449
 30
-0.0000000000030253
 11
246.42479657188181
 21
-153.243818330388
 31
-0.0000000000016768
210
0.000000000000008
220
0.8164965809277113
230
0.5773502691896467
  0
LINE
  5
746
  8
0
  6
CONTINUOUS
 10
317.13547469053771
 20
-235.38337437171711
 30
-0.0000000000035835
 11
316.71121062182578
 21
-235.6283233459954
 31
-0.000000000003581
210
0.000000000000008
220
0.8164965809277113
230
0.5773502691896467
  0
LINE
  5
747
  8
0
  6
CONTINUOUS
 10
316.71121062182578
 20
-194.8034942996095
 30
-0.0000000000031144
 11
316.71121062182578
 21
-235.6283233459954
 31
-0.000000000003581
210
0.000000000000008
220
0.8164965809277113
230
0.5773502691896467
  0
LINE
  5
748
  8
0
  6
CONTINUOUS
 10
316.71121062182578
 20
-235.6283233459954
 30
-0.000000000003581
 11
281.3558715624992
 21
-215.21590882280319
 31
-0.0000000000028783
210
0.000000000000008
220
0.8164965809277113
230
0.5773502691896467
  0
LINE
  5
749
  8
0
  6
CONTINUOUS
 10
33.86849814721144
 20
-358.10281048516049
 30
-0.0000000000015673
 11
316.71121062182578
 21
-194.80349429960941
 31
-0.0000000000030575
210
0.000000000000008
220
0.8164965809277113
230
0.5773502691896467
  0
LINE
  5
74A
  8
0
  6
CONTINUOUS
 10
250.80885861523799
 20
-151.20257687806901
 30
-0.0000000000016235
 11
246.84906064059379
 21
-153.48876730466651
 31
-0.0000000000016571
210
0.000000000000008
220
0.8164965809277113
230
0.5773502691896467
  0
LINE
  5
74B
  8
0
  6
CONTINUOUS
 10
-37.266444040156387
 20
-317.52293041305251
 30
0.0000000000000111
 11
-39.988805147724072
 21
-319.0946863313381
 31
0.0000000000000271
210
0.000000000000008
220
0.8164965809277113
230
0.5773502691896467
  0
LINE
  5
74C
  8
0
  6
CONTINUOUS
 10
33.44423407849952
 20
-399.17258850582488
 30
-0.0000000000019746
 11
33.86849814721144
 21
-398.9276395315465
 31
-0.0000000000020339
210
0.000000000000008
220
0.8164965809277113
230
0.5773502691896467
  0
LINE
  5
74D
  8
0
  6
CONTINUOUS
 10
-37.266444040156451
 20
-358.34775945943841
 30
-0.0000000000005692
 11
33.44423407849952
 21
-399.17258850582488
 31
-0.0000000000019746
210
0.000000000000008
220
0.8164965809277113
230
0.5773502691896467
  0
LINE
  5
74E
  8
0
  6
CONTINUOUS
 10
-37.266444040156387
 20
-317.52293041305251
 30
0.0000000000000111
 11
-37.266444040156451
 21
-358.34775945943841
 31
-0.0000000000005692
210
0.000000000000008
220
0.8164965809277113
230
0.5773502691896467
  0
LINE
  5
74F
  8
0
  6
CONTINUOUS
 10
33.86849814721144
 20
-358.10281048516049
 30
-0.0000000000015673
 11
33.86849814721144
 21
-398.9276395315465
 31
-0.0000000000020339
210
0.000000000000008
220
0.8164965809277113
230
0.5773502691896467
  0
LINE
  5
750
  8
0
  6
CONTINUOUS
 10
69.223837206538278
 20
-827.09844657004101
 30
-0.0000000000078232
 11
68.799573137825504
 21
-826.85349759576218
 31
-0.0000000000078144
210
0.000000000000008
220
0.8164965809277113
230
0.5773502691896467
  0
LINE
  5
751
  8
0
  6
CONTINUOUS
 10
33.868498147211703
 20
-847.51086109323478
 30
-0.0000000000075019
 11
33.868498147211866
 21
-398.9276395315465
 31
-0.0000000000019771
210
0.000000000000008
220
0.8164965809277113
230
0.5773502691896467
  0
LINE
  5
752
  8
0
  6
CONTINUOUS
 10
33.868498147211518
 20
-847.51086109323501
 30
-0.0000000000076156
 11
69.223837206538334
 21
-827.09844657004101
 31
-0.0000000000078232
210
0.000000000000008
220
0.8164965809277113
230
0.5773502691896467
  0
LINE
  5
753
  8
0
  6
CONTINUOUS
 10
69.223837206538334
 20
-827.58834451859775
 30
-0.0000000000078295
 11
69.223837206538278
 21
-827.09844657004101
 31
-0.0000000000078232
210
0.000000000000008
220
0.8164965809277113
230
0.5773502691896467
  0
LINE
  5
754
  8
0
  6
CONTINUOUS
 10
33.444234078499612
 20
-848.2457080160699
 30
-0.0000000000077331
 11
69.223837206538334
 21
-827.58834451859775
 31
-0.0000000000078295
210
0.000000000000008
220
0.8164965809277113
230
0.5773502691896467
  0
LINE
  5
755
  8
0
  6
CONTINUOUS
 10
-36.842179971444253
 20
-807.66582794396174
 30
-0.000000000006166
 11
-36.842179971444203
 21
-812.23820879715686
 31
-0.0000000000063383
210
0.000000000000008
220
0.8164965809277113
230
0.5773502691896467
  0
LINE
  5
756
  8
0
  6
CONTINUOUS
 10
33.444234078499207
 20
-848.24570801606944
 30
-0.0000000000077331
 11
33.444234078499427
 21
-399.17258850582488
 31
-0.0000000000019746
210
0.000000000000008
220
0.8164965809277113
230
0.5773502691896467
  0
LINE
  5
757
  8
0
  6
CONTINUOUS
 10
-37.266444040156109
 20
-807.42087896968337
 30
-0.0000000000062709
 11
33.444234078499377
 21
-848.24570801606956
 31
-0.0000000000076194
210
0.000000000000008
220
0.8164965809277113
230
0.5773502691896467
  0
LINE
  5
758
  8
0
  6
CONTINUOUS
 10
-37.26644404015623
 20
-807.42087896968337
 30
-0.0000000000062709
 11
-37.266444040156003
 21
-358.34775945943852
 31
-0.0000000000005692
210
0.000000000000008
220
0.8164965809277113
230
0.5773502691896467
  0
LINE
  5
759
  8
0
  6
CONTINUOUS
 10
280.5073434250744
 20
-704.62395943087745
 30
-0.0000000000090007
 11
281.35587156249898
 21
-705.11385737943442
 31
-0.0000000000089614
210
0.000000000000008
220
0.8164965809277113
230
0.5773502691896467
  0
LINE
  5
75A
  8
0
  6
CONTINUOUS
 10
246.00053250316981
 20
-643.38671586129772
 30
-0.0000000000077005
 11
245.57626843445831
 21
-643.63166483557575
 31
-0.000000000007698
210
0.000000000000008
220
0.8164965809277113
230
0.5773502691896467
  0
LINE
  5
75B
  8
0
  6
CONTINUOUS
 10
281.35587156249892
 20
-704.62395943087779
 30
-0.0000000000090119
 11
280.9316074937862
 21
-704.37901045659908
 31
-0.0000000000088895
210
0.000000000000008
220
0.8164965809277113
230
0.5773502691896467
  0
LINE
  5
75C
  8
0
  6
CONTINUOUS
 10
316.71121062182539
 20
-684.21154490768436
 30
-0.000000000009049
 11
246.0005325031695
 21
-643.38671586129794
 31
-0.0000000000077005
210
0.000000000000008
220
0.8164965809277113
230
0.5773502691896467
  0
LINE
  5
75D
  8
0
  6
CONTINUOUS
 10
245.57626843445749
 20
-643.63166483557586
 30
-0.0000000000076412
 11
245.57626843445769
 21
-235.8732723202771
 31
-0.0000000000025261
210
0.000000000000008
220
0.8164965809277113
230
0.5773502691896467
  0
LINE
  5
75E
  8
0
  6
CONTINUOUS
 10
317.13547469053748
 20
-684.45649388196227
 30
-0.0000000000091146
 11
281.35587156249892
 21
-705.11385737943476
 31
-0.0000000000090751
210
0.000000000000008
220
0.8164965809277113
230
0.5773502691896467
  0
LINE
  5
75F
  8
0
  6
CONTINUOUS
 10
281.35587156249892
 20
-705.11385737943465
 30
-0.0000000000090182
 11
281.35587156249892
 21
-704.62395943087779
 31
-0.0000000000090119
210
0.000000000000008
220
0.8164965809277113
230
0.5773502691896467
  0
LINE
  5
760
  8
0
  6
CONTINUOUS
 10
316.71121062182561
 20
-684.21154490768413
 30
-0.0000000000092195
 11
281.35587156249892
 21
-704.62395943087779
 31
-0.0000000000090688
210
0.000000000000008
220
0.8164965809277113
230
0.5773502691896467
  0
LINE
  5
761
  8
0
  6
CONTINUOUS
 10
316.7112106218255
 20
-684.21154490768413
 30
-0.000000000009049
 11
316.71121062182573
 21
-235.6283233459956
 31
-0.000000000003581
210
0.000000000000008
220
0.8164965809277113
230
0.5773502691896467
  0
LINE
  5
762
  8
0
  6
CONTINUOUS
 10
317.13547469053668
 20
-684.45649388196205
 30
-0.0000000000093988
 11
317.13547469053702
 21
-235.3833743717172
 31
-0.0000000000035835
210
0.000000000000008
220
0.8164965809277113
230
0.5773502691896467
  0
LINE
  5
763
  8
0
  6
CONTINUOUS
 10
33.868498147211596
 20
-764.39150915478876
 30
-0.0000000000065498
 11
245.5762684344574
 21
-642.1619709899054
 31
-0.0000000000076792
210
0.000000000000008
220
0.8164965809277113
230
0.5773502691896467
  0
LINE
  5
764
  8
0
  6
CONTINUOUS
 10
33.868498147211582
 20
-846.53106519612095
 30
-0.0000000000077167
 11
315.4384184156898
 21
-683.96659593340519
 31
-0.0000000000091995
210
0.000000000000008
220
0.8164965809277113
230
0.5773502691896467
  0
LINE
  5
765
  8
0
  6
CONTINUOUS
 10
33.868498147211518
 20
-847.0209631446769
 30
-0.000000000007723
 11
315.43841841568923
 21
-684.45649388196148
 31
-0.0000000000092626
210
0.000000000000008
220
0.8164965809277113
230
0.5773502691896467
  0
LINE
  5
766
  8
0
  6
CONTINUOUS
 10
244.72774029703379
 20
-643.14176688701878
 30
-0.0000000000077941
 11
245.5762684344574
 21
-642.65186893846214
 31
-0.0000000000077991
210
0.000000000000008
220
0.8164965809277113
230
0.5773502691896467
  0
LINE
  5
767
  8
0
  6
CONTINUOUS
 10
315.43841841568923
 20
-684.45649388196216
 30
-0.0000000000091489
 11
315.4384184156898
 21
-683.96659593340519
 31
-0.0000000000091995
210
0.000000000000008
220
0.8164965809277113
230
0.5773502691896467
  0
LINE
  5
768
  8
0
  6
CONTINUOUS
 10
315.4384184156898
 20
-683.96659593340519
 30
-0.0000000000091995
 11
244.72774029703379
 21
-643.14176688701878
 31
-0.0000000000077941
210
0.000000000000008
220
0.8164965809277113
230
0.5773502691896467
  0
POLYLINE
  5
769
  8
0
  6
CONTINUOUS
 10
631.400043143267
 20
-925.9414738630154
 30
-0.000000000017122
 66
     1
 70
     8
  0
VERTEX
  8
0
  5
872
 10
631.400
 20
-925.941
 30
-1.71220e-011
  70
    32
  0
VERTEX
  8
0
  5
873
 10
631.395
 20
-925.939
 30
-1.71219e-011
  70
    32
  0
VERTEX
  8
0
  5
874
 10
631.390
 20
-925.937
 30
-1.71218e-011
  70
    32
  0
VERTEX
  8
0
  5
875
 10
631.385
 20
-925.935
 30
-1.71217e-011
  70
    32
  0
VERTEX
  8
0
  5
876
 10
631.380
 20
-925.933
 30
-1.71216e-011
  70
    32
  0
VERTEX
  8
0
  5
877
 10
631.375
 20
-925.930
 30
-1.71215e-011
  70
    32
  0
VERTEX
  8
0
  5
878
 10
631.370
 20
-925.928
 30
-1.71214e-011
  70
    32
  0
VERTEX
  8
0
  5
879
 10
631.365
 20
-925.926
 30
-1.71213e-011
  70
    32
  0
VERTEX
  8
0
  5
87A
 10
631.359
 20
-925.924
 30
-1.71212e-011
  70
    32
  0
VERTEX
  8
0
  5
87B
 10
631.354
 20
-925.922
 30
-1.71211e-011
  70
    32
  0
VERTEX
  8
0
  5
87C
 10
631.349
 20
-925.920
 30
-1.71210e-011
  70
    32
  0
VERTEX
  8
0
  5
87D
 10
631.344
 20
-925.918
 30
-1.71209e-011
  70
    32
  0
VERTEX
  8
0
  5
87E
 10
631.338
 20
-925.916
 30
-1.71208e-011
  70
    32
  0
VERTEX
  8
0
  5
87F
 10
631.333
 20
-925.915
 30
-1.71207e-011
  70
    32
  0
VERTEX
  8
0
  5
880
 10
631.327
 20
-925.913
 30
-1.71207e-011
  70
    32
  0
VERTEX
  8
0
  5
881
 10
631.322
 20
-925.911
 30
-1.71206e-011
  70
    32
  0
VERTEX
  8
0
  5
882
 10
631.316
 20
-925.909
 30
-1.71205e-011
  70
    32
  0
VERTEX
  8
0
  5
883
 10
631.311
 20
-925.907
 30
-1.71204e-011
  70
    32
  0
VERTEX
  8
0
  5
884
 10
631.305
 20
-925.906
 30
-1.71203e-011
  70
    32
  0
VERTEX
  8
0
  5
885
 10
631.300
 20
-925.904
 30
-1.71202e-011
  70
    32
  0
VERTEX
  8
0
  5
886
 10
631.294
 20
-925.903
 30
-1.71201e-011
  70
    32
  0
VERTEX
  8
0
  5
887
 10
631.288
 20
-925.901
 30
-1.71200e-011
  70
    32
  0
VERTEX
  8
0
  5
888
 10
631.283
 20
-925.899
 30
-1.71199e-011
  70
    32
  0
VERTEX
  8
0
  5
889
 10
631.277
 20
-925.898
 30
-1.71198e-011
  70
    32
  0
VERTEX
  8
0
  5
88A
 10
631.271
 20
-925.896
 30
-1.71197e-011
  70
    32
  0
VERTEX
  8
0
  5
88B
 10
631.265
 20
-925.895
 30
-1.71196e-011
  70
    32
  0
VERTEX
  8
0
  5
88C
 10
631.259
 20
-925.894
 30
-1.71195e-011
  70
    32
  0
VERTEX
  8
0
  5
88D
 10
631.254
 20
-925.892
 30
-1.71194e-011
  70
    32
  0
VERTEX
  8
0
  5
88E
 10
631.248
 20
-925.891
 30
-1.71193e-011
  70
    32
  0
VERTEX
  8
0
  5
88F
 10
631.242
 20
-925.890
 30
-1.71192e-011
  70
    32
  0
VERTEX
  8
0
  5
890
 10
631.236
 20
-925.889
 30
-1.71191e-011
  70
    32
  0
VERTEX
  8
0
  5
891
 10
631.230
 20
-925.887
 30
-1.71191e-011
  70
    32
  0
VERTEX
  8
0
  5
892
 10
631.224
 20
-925.886
 30
-1.71190e-011
  70
    32
  0
VERTEX
  8
0
  5
893
 10
631.218
 20
-925.885
 30
-1.71189e-011
  70
    32
  0
VERTEX
  8
0
  5
894
 10
631.212
 20
-925.884
 30
-1.71188e-011
  70
    32
  0
VERTEX
  8
0
  5
895
 10
631.206
 20
-925.883
 30
-1.71187e-011
  70
    32
  0
VERTEX
  8
0
  5
896
 10
631.200
 20
-925.882
 30
-1.71186e-011
  70
    32
  0
VERTEX
  8
0
  5
897
 10
631.194
 20
-925.881
 30
-1.71185e-011
  70
    32
  0
VERTEX
  8
0
  5
898
 10
631.188
 20
-925.880
 30
-1.71184e-011
  70
    32
  0
VERTEX
  8
0
  5
899
 10
631.181
 20
-925.879
 30
-1.71183e-011
  70
    32
  0
VERTEX
  8
0
  5
89A
 10
631.175
 20
-925.879
 30
-1.71182e-011
  70
    32
  0
VERTEX
  8
0
  5
89B
 10
631.169
 20
-925.878
 30
-1.71181e-011
  70
    32
  0
VERTEX
  8
0
  5
89C
 10
631.163
 20
-925.877
 30
-1.71180e-011
  70
    32
  0
VERTEX
  8
0
  5
89D
 10
631.157
 20
-925.876
 30
-1.71180e-011
  70
    32
  0
VERTEX
  8
0
  5
89E
 10
631.151
 20
-925.876
 30
-1.71179e-011
  70
    32
  0
VERTEX
  8
0
  5
89F
 10
631.144
 20
-925.875
 30
-1.71178e-011
  70
    32
  0
VERTEX
  8
0
  5
8A0
 10
631.138
 20
-925.874
 30
-1.71177e-011
  70
    32
  0
VERTEX
  8
0
  5
8A1
 10
631.132
 20
-925.874
 30
-1.71176e-011
  70
    32
  0
VERTEX
  8
0
  5
8A2
 10
631.126
 20
-925.873
 30
-1.71175e-011
  70
    32
  0
VERTEX
  8
0
  5
8A3
 10
631.119
 20
-925.873
 30
-1.71174e-011
  70
    32
  0
VERTEX
  8
0
  5
8A4
 10
631.113
 20
-925.873
 30
-1.71173e-011
  70
    32
  0
VERTEX
  8
0
  5
8A5
 10
631.107
 20
-925.872
 30
-1.71172e-011
  70
    32
  0
VERTEX
  8
0
  5
8A6
 10
631.101
 20
-925.872
 30
-1.71172e-011
  70
    32
  0
VERTEX
  8
0
  5
8A7
 10
631.094
 20
-925.872
 30
-1.71171e-011
  70
    32
  0
VERTEX
  8
0
  5
8A8
 10
631.088
 20
-925.871
 30
-1.71170e-011
  70
    32
  0
VERTEX
  8
0
  5
8A9
 10
631.082
 20
-925.871
 30
-1.71169e-011
  70
    32
  0
VERTEX
  8
0
  5
8AA
 10
631.076
 20
-925.871
 30
-1.71168e-011
  70
    32
  0
VERTEX
  8
0
  5
8AB
 10
631.069
 20
-925.871
 30
-1.71167e-011
  70
    32
  0
VERTEX
  8
0
  5
8AC
 10
631.063
 20
-925.871
 30
-1.71167e-011
  70
    32
  0
VERTEX
  8
0
  5
8AD
 10
631.057
 20
-925.871
 30
-1.71166e-011
  70
    32
  0
VERTEX
  8
0
  5
8AE
 10
631.050
 20
-925.871
 30
-1.71165e-011
  70
    32
  0
VERTEX
  8
0
  5
8AF
 10
631.044
 20
-925.871
 30
-1.71164e-011
  70
    32
  0
VERTEX
  8
0
  5
8B0
 10
631.038
 20
-925.871
 30
-1.71163e-011
  70
    32
  0
VERTEX
  8
0
  5
8B1
 10
631.031
 20
-925.871
 30
-1.71162e-011
  70
    32
  0
VERTEX
  8
0
  5
8B2
 10
631.025
 20
-925.871
 30
-1.71162e-011
  70
    32
  0
VERTEX
  8
0
  5
8B3
 10
631.019
 20
-925.871
 30
-1.71161e-011
  70
    32
  0
VERTEX
  8
0
  5
8B4
 10
631.013
 20
-925.872
 30
-1.71160e-011
  70
    32
  0
VERTEX
  8
0
  5
8B5
 10
631.006
 20
-925.872
 30
-1.71159e-011
  70
    32
  0
VERTEX
  8
0
  5
8B6
 10
631.000
 20
-925.872
 30
-1.71158e-011
  70
    32
  0
VERTEX
  8
0
  5
8B7
 10
630.994
 20
-925.873
 30
-1.71158e-011
  70
    32
  0
VERTEX
  8
0
  5
8B8
 10
630.987
 20
-925.873
 30
-1.71157e-011
  70
    32
  0
VERTEX
  8
0
  5
8B9
 10
630.981
 20
-925.873
 30
-1.71156e-011
  70
    32
  0
VERTEX
  8
0
  5
8BA
 10
630.975
 20
-925.874
 30
-1.71155e-011
  70
    32
  0
VERTEX
  8
0
  5
8BB
 10
630.969
 20
-925.875
 30
-1.71155e-011
  70
    32
  0
VERTEX
  8
0
  5
8BC
 10
630.963
 20
-925.875
 30
-1.71154e-011
  70
    32
  0
VERTEX
  8
0
  5
8BD
 10
630.956
 20
-925.876
 30
-1.71153e-011
  70
    32
  0
VERTEX
  8
0
  5
8BE
 10
630.950
 20
-925.876
 30
-1.71153e-011
  70
    32
  0
VERTEX
  8
0
  5
8BF
 10
630.944
 20
-925.877
 30
-1.71152e-011
  70
    32
  0
VERTEX
  8
0
  5
8C0
 10
630.938
 20
-925.878
 30
-1.71151e-011
  70
    32
  0
VERTEX
  8
0
  5
8C1
 10
630.932
 20
-925.879
 30
-1.71150e-011
  70
    32
  0
VERTEX
  8
0
  5
8C2
 10
630.926
 20
-925.879
 30
-1.71150e-011
  70
    32
  0
VERTEX
  8
0
  5
8C3
 10
630.919
 20
-925.880
 30
-1.71149e-011
  70
    32
  0
VERTEX
  8
0
  5
8C4
 10
630.913
 20
-925.881
 30
-1.71148e-011
  70
    32
  0
VERTEX
  8
0
  5
8C5
 10
630.907
 20
-925.882
 30
-1.71148e-011
  70
    32
  0
VERTEX
  8
0
  5
8C6
 10
630.901
 20
-925.883
 30
-1.71147e-011
  70
    32
  0
VERTEX
  8
0
  5
8C7
 10
630.895
 20
-925.884
 30
-1.71146e-011
  70
    32
  0
VERTEX
  8
0
  5
8C8
 10
630.889
 20
-925.885
 30
-1.71146e-011
  70
    32
  0
VERTEX
  8
0
  5
8C9
 10
630.883
 20
-925.886
 30
-1.71145e-011
  70
    32
  0
VERTEX
  8
0
  5
8CA
 10
630.877
 20
-925.888
 30
-1.71144e-011
  70
    32
  0
VERTEX
  8
0
  5
8CB
 10
630.871
 20
-925.889
 30
-1.71144e-011
  70
    32
  0
VERTEX
  8
0
  5
8CC
 10
630.865
 20
-925.890
 30
-1.71143e-011
  70
    32
  0
VERTEX
  8
0
  5
8CD
 10
630.859
 20
-925.891
 30
-1.71143e-011
  70
    32
  0
VERTEX
  8
0
  5
8CE
 10
630.853
 20
-925.893
 30
-1.71142e-011
  70
    32
  0
VERTEX
  8
0
  5
8CF
 10
630.848
 20
-925.894
 30
-1.71141e-011
  70
    32
  0
VERTEX
  8
0
  5
8D0
 10
630.842
 20
-925.895
 30
-1.71141e-011
  70
    32
  0
VERTEX
  8
0
  5
8D1
 10
630.836
 20
-925.897
 30
-1.71140e-011
  70
    32
  0
VERTEX
  8
0
  5
8D2
 10
630.830
 20
-925.898
 30
-1.71140e-011
  70
    32
  0
VERTEX
  8
0
  5
8D3
 10
630.824
 20
-925.900
 30
-1.71139e-011
  70
    32
  0
VERTEX
  8
0
  5
8D4
 10
630.819
 20
-925.901
 30
-1.71138e-011
  70
    32
  0
VERTEX
  8
0
  5
8D5
 10
630.813
 20
-925.903
 30
-1.71138e-011
  70
    32
  0
VERTEX
  8
0
  5
8D6
 10
630.807
 20
-925.904
 30
-1.71137e-011
  70
    32
  0
VERTEX
  8
0
  5
8D7
 10
630.802
 20
-925.906
 30
-1.71137e-011
  70
    32
  0
VERTEX
  8
0
  5
8D8
 10
630.796
 20
-925.908
 30
-1.71136e-011
  70
    32
  0
VERTEX
  8
0
  5
8D9
 10
630.791
 20
-925.909
 30
-1.71136e-011
  70
    32
  0
VERTEX
  8
0
  5
8DA
 10
630.785
 20
-925.911
 30
-1.71135e-011
  70
    32
  0
VERTEX
  8
0
  5
8DB
 10
630.780
 20
-925.913
 30
-1.71135e-011
  70
    32
  0
VERTEX
  8
0
  5
8DC
 10
630.774
 20
-925.915
 30
-1.71134e-011
  70
    32
  0
VERTEX
  8
0
  5
8DD
 10
630.769
 20
-925.917
 30
-1.71134e-011
  70
    32
  0
VERTEX
  8
0
  5
8DE
 10
630.763
 20
-925.919
 30
-1.71133e-011
  70
    32
  0
VERTEX
  8
0
  5
8DF
 10
630.758
 20
-925.921
 30
-1.71133e-011
  70
    32
  0
VERTEX
  8
0
  5
8E0
 10
630.753
 20
-925.923
 30
-1.71133e-011
  70
    32
  0
VERTEX
  8
0
  5
8E1
 10
630.748
 20
-925.925
 30
-1.71132e-011
  70
    32
  0
VERTEX
  8
0
  5
8E2
 10
630.742
 20
-925.927
 30
-1.71132e-011
  70
    32
  0
VERTEX
  8
0
  5
8E3
 10
630.737
 20
-925.929
 30
-1.71131e-011
  70
    32
  0
VERTEX
  8
0
  5
8E4
 10
630.732
 20
-925.931
 30
-1.71131e-011
  70
    32
  0
VERTEX
  8
0
  5
8E5
 10
630.727
 20
-925.933
 30
-1.71131e-011
  70
    32
  0
VERTEX
  8
0
  5
8E6
 10
630.722
 20
-925.935
 30
-1.71130e-011
  70
    32
  0
VERTEX
  8
0
  5
8E7
 10
630.717
 20
-925.937
 30
-1.71130e-011
  70
    32
  0
VERTEX
  8
0
  5
8E8
 10
630.712
 20
-925.940
 30
-1.71129e-011
  70
    32
  0
VERTEX
  8
0
  5
8E9
 10
630.707
 20
-925.942
 30
-1.71129e-011
  70
    32
  0
VERTEX
  8
0
  5
8EA
 10
630.702
 20
-925.944
 30
-1.71129e-011
  70
    32
  0
VERTEX
  8
0
  5
8EB
 10
630.697
 20
-925.946
 30
-1.71128e-011
  70
    32
  0
VERTEX
  8
0
  5
8EC
 10
630.693
 20
-925.949
 30
-1.71128e-011
  70
    32
  0
VERTEX
  8
0
  5
8ED
 10
630.688
 20
-925.951
 30
-1.71128e-011
  70
    32
  0
VERTEX
  8
0
  5
8EE
 10
630.683
 20
-925.954
 30
-1.71127e-011
  70
    32
  0
VERTEX
  8
0
  5
8EF
 10
630.679
 20
-925.956
 30
-1.71127e-011
  70
    32
  0
VERTEX
  8
0
  5
8F0
 10
630.674
 20
-925.959
 30
-1.71127e-011
  70
    32
  0
VERTEX
  8
0
  5
8F1
 10
630.669
 20
-925.961
 30
-1.71127e-011
  70
    32
  0
VERTEX
  8
0
  5
8F2
 10
630.665
 20
-925.964
 30
-1.71126e-011
  70
    32
  0
SEQEND
  8
0
  5
8F3
  0
LINE
  5
76A
  8
0
  6
CONTINUOUS
 10
658.94335879701475
 20
-938.81877350121863
 30
-0.000000000016516
 11
631.40004314326688
 21
-925.94147386301552
 31
-0.0000000000163263
210
0.000000000000008
220
0.8164965809277113
230
0.5773502691896467
  0
LINE
  5
76B
  8
0
  6
CONTINUOUS
 10
631.40004314326688
 20
-925.94147386301552
 30
-0.0000000000163263
 11
631.40004314326734
 21
98.346288047163256
 31
-0.0000000000034049
210
0.000000000000008
220
0.8164965809277113
230
0.5773502691896467
  0
POLYLINE
  5
76C
  8
0
  6
CONTINUOUS
 10
658.94335879701464
 20
-938.81877350121852
 30
-0.0000000000173119
 66
     1
 70
     8
  0
VERTEX
  8
0
  5
8F4
 10
658.943
 20
-938.819
 30
-1.73119e-011
  70
    32
  0
VERTEX
  8
0
  5
8F5
 10
658.953
 20
-938.823
 30
-1.73120e-011
  70
    32
  0
VERTEX
  8
0
  5
8F6
 10
658.963
 20
-938.828
 30
-1.73122e-011
  70
    32
  0
VERTEX
  8
0
  5
8F7
 10
658.973
 20
-938.832
 30
-1.73124e-011
  70
    32
  0
VERTEX
  8
0
  5
8F8
 10
658.983
 20
-938.837
 30
-1.73126e-011
  70
    32
  0
VERTEX
  8
0
  5
8F9
 10
658.993
 20
-938.841
 30
-1.73128e-011
  70
    32
  0
VERTEX
  8
0
  5
8FA
 10
659.004
 20
-938.845
 30
-1.73130e-011
  70
    32
  0
VERTEX
  8
0
  5
8FB
 10
659.014
 20
-938.849
 30
-1.73132e-011
  70
    32
  0
VERTEX
  8
0
  5
8FC
 10
659.024
 20
-938.853
 30
-1.73134e-011
  70
    32
  0
VERTEX
  8
0
  5
8FD
 10
659.035
 20
-938.857
 30
-1.73135e-011
  70
    32
  0
VERTEX
  8
0
  5
8FE
 10
659.046
 20
-938.861
 30
-1.73137e-011
  70
    32
  0
VERTEX
  8
0
  5
8FF
 10
659.056
 20
-938.865
 30
-1.73139e-011
  70
    32
  0
VERTEX
  8
0
  5
900
 10
659.067
 20
-938.869
 30
-1.73141e-011
  70
    32
  0
VERTEX
  8
0
  5
901
 10
659.078
 20
-938.873
 30
-1.73143e-011
  70
    32
  0
VERTEX
  8
0
  5
902
 10
659.089
 20
-938.876
 30
-1.73145e-011
  70
    32
  0
VERTEX
  8
0
  5
903
 10
659.100
 20
-938.880
 30
-1.73147e-011
  70
    32
  0
VERTEX
  8
0
  5
904
 10
659.111
 20
-938.883
 30
-1.73149e-011
  70
    32
  0
VERTEX
  8
0
  5
905
 10
659.122
 20
-938.887
 30
-1.73151e-011
  70
    32
  0
VERTEX
  8
0
  5
906
 10
659.133
 20
-938.890
 30
-1.73153e-011
  70
    32
  0
VERTEX
  8
0
  5
907
 10
659.144
 20
-938.893
 30
-1.73154e-011
  70
    32
  0
VERTEX
  8
0
  5
908
 10
659.156
 20
-938.897
 30
-1.73156e-011
  70
    32
  0
VERTEX
  8
0
  5
909
 10
659.167
 20
-938.900
 30
-1.73158e-011
  70
    32
  0
VERTEX
  8
0
  5
90A
 10
659.178
 20
-938.903
 30
-1.73160e-011
  70
    32
  0
VERTEX
  8
0
  5
90B
 10
659.190
 20
-938.906
 30
-1.73162e-011
  70
    32
  0
VERTEX
  8
0
  5
90C
 10
659.201
 20
-938.909
 30
-1.73164e-011
  70
    32
  0
VERTEX
  8
0
  5
90D
 10
659.213
 20
-938.912
 30
-1.73166e-011
  70
    32
  0
VERTEX
  8
0
  5
90E
 10
659.225
 20
-938.914
 30
-1.73168e-011
  70
    32
  0
VERTEX
  8
0
  5
90F
 10
659.236
 20
-938.917
 30
-1.73169e-011
  70
    32
  0
VERTEX
  8
0
  5
910
 10
659.248
 20
-938.920
 30
-1.73171e-011
  70
    32
  0
VERTEX
  8
0
  5
911
 10
659.260
 20
-938.922
 30
-1.73173e-011
  70
    32
  0
VERTEX
  8
0
  5
912
 10
659.272
 20
-938.925
 30
-1.73175e-011
  70
    32
  0
VERTEX
  8
0
  5
913
 10
659.284
 20
-938.927
 30
-1.73177e-011
  70
    32
  0
VERTEX
  8
0
  5
914
 10
659.296
 20
-938.929
 30
-1.73179e-011
  70
    32
  0
VERTEX
  8
0
  5
915
 10
659.308
 20
-938.931
 30
-1.73181e-011
  70
    32
  0
VERTEX
  8
0
  5
916
 10
659.320
 20
-938.934
 30
-1.73183e-011
  70
    32
  0
VERTEX
  8
0
  5
917
 10
659.332
 20
-938.936
 30
-1.73184e-011
  70
    32
  0
VERTEX
  8
0
  5
918
 10
659.344
 20
-938.938
 30
-1.73186e-011
  70
    32
  0
VERTEX
  8
0
  5
919
 10
659.356
 20
-938.939
 30
-1.73188e-011
  70
    32
  0
VERTEX
  8
0
  5
91A
 10
659.368
 20
-938.941
 30
-1.73190e-011
  70
    32
  0
VERTEX
  8
0
  5
91B
 10
659.381
 20
-938.943
 30
-1.73192e-011
  70
    32
  0
VERTEX
  8
0
  5
91C
 10
659.393
 20
-938.945
 30
-1.73194e-011
  70
    32
  0
VERTEX
  8
0
  5
91D
 10
659.405
 20
-938.946
 30
-1.73195e-011
  70
    32
  0
VERTEX
  8
0
  5
91E
 10
659.417
 20
-938.948
 30
-1.73197e-011
  70
    32
  0
VERTEX
  8
0
  5
91F
 10
659.430
 20
-938.949
 30
-1.73199e-011
  70
    32
  0
VERTEX
  8
0
  5
920
 10
659.442
 20
-938.950
 30
-1.73201e-011
  70
    32
  0
VERTEX
  8
0
  5
921
 10
659.455
 20
-938.952
 30
-1.73202e-011
  70
    32
  0
VERTEX
  8
0
  5
922
 10
659.467
 20
-938.953
 30
-1.73204e-011
  70
    32
  0
VERTEX
  8
0
  5
923
 10
659.480
 20
-938.954
 30
-1.73206e-011
  70
    32
  0
VERTEX
  8
0
  5
924
 10
659.492
 20
-938.955
 30
-1.73208e-011
  70
    32
  0
VERTEX
  8
0
  5
925
 10
659.505
 20
-938.956
 30
-1.73210e-011
  70
    32
  0
VERTEX
  8
0
  5
926
 10
659.517
 20
-938.957
 30
-1.73211e-011
  70
    32
  0
VERTEX
  8
0
  5
927
 10
659.530
 20
-938.957
 30
-1.73213e-011
  70
    32
  0
VERTEX
  8
0
  5
928
 10
659.542
 20
-938.958
 30
-1.73215e-011
  70
    32
  0
VERTEX
  8
0
  5
929
 10
659.555
 20
-938.959
 30
-1.73216e-011
  70
    32
  0
VERTEX
  8
0
  5
92A
 10
659.567
 20
-938.959
 30
-1.73218e-011
  70
    32
  0
VERTEX
  8
0
  5
92B
 10
659.580
 20
-938.959
 30
-1.73220e-011
  70
    32
  0
VERTEX
  8
0
  5
92C
 10
659.592
 20
-938.960
 30
-1.73222e-011
  70
    32
  0
VERTEX
  8
0
  5
92D
 10
659.605
 20
-938.960
 30
-1.73223e-011
  70
    32
  0
VERTEX
  8
0
  5
92E
 10
659.618
 20
-938.960
 30
-1.73225e-011
  70
    32
  0
VERTEX
  8
0
  5
92F
 10
659.630
 20
-938.960
 30
-1.73227e-011
  70
    32
  0
VERTEX
  8
0
  5
930
 10
659.643
 20
-938.960
 30
-1.73228e-011
  70
    32
  0
VERTEX
  8
0
  5
931
 10
659.655
 20
-938.960
 30
-1.73230e-011
  70
    32
  0
VERTEX
  8
0
  5
932
 10
659.668
 20
-938.960
 30
-1.73231e-011
  70
    32
  0
VERTEX
  8
0
  5
933
 10
659.681
 20
-938.960
 30
-1.73233e-011
  70
    32
  0
VERTEX
  8
0
  5
934
 10
659.693
 20
-938.959
 30
-1.73235e-011
  70
    32
  0
VERTEX
  8
0
  5
935
 10
659.706
 20
-938.959
 30
-1.73236e-011
  70
    32
  0
VERTEX
  8
0
  5
936
 10
659.718
 20
-938.959
 30
-1.73238e-011
  70
    32
  0
VERTEX
  8
0
  5
937
 10
659.731
 20
-938.958
 30
-1.73239e-011
  70
    32
  0
VERTEX
  8
0
  5
938
 10
659.743
 20
-938.957
 30
-1.73241e-011
  70
    32
  0
VERTEX
  8
0
  5
939
 10
659.756
 20
-938.956
 30
-1.73243e-011
  70
    32
  0
VERTEX
  8
0
  5
93A
 10
659.768
 20
-938.956
 30
-1.73244e-011
  70
    32
  0
VERTEX
  8
0
  5
93B
 10
659.781
 20
-938.955
 30
-1.73246e-011
  70
    32
  0
VERTEX
  8
0
  5
93C
 10
659.793
 20
-938.954
 30
-1.73247e-011
  70
    32
  0
VERTEX
  8
0
  5
93D
 10
659.806
 20
-938.953
 30
-1.73249e-011
  70
    32
  0
VERTEX
  8
0
  5
93E
 10
659.818
 20
-938.951
 30
-1.73250e-011
  70
    32
  0
VERTEX
  8
0
  5
93F
 10
659.831
 20
-938.950
 30
-1.73252e-011
  70
    32
  0
VERTEX
  8
0
  5
940
 10
659.843
 20
-938.949
 30
-1.73253e-011
  70
    32
  0
VERTEX
  8
0
  5
941
 10
659.856
 20
-938.947
 30
-1.73254e-011
  70
    32
  0
VERTEX
  8
0
  5
942
 10
659.868
 20
-938.946
 30
-1.73256e-011
  70
    32
  0
VERTEX
  8
0
  5
943
 10
659.880
 20
-938.944
 30
-1.73257e-011
  70
    32
  0
VERTEX
  8
0
  5
944
 10
659.892
 20
-938.943
 30
-1.73259e-011
  70
    32
  0
VERTEX
  8
0
  5
945
 10
659.905
 20
-938.941
 30
-1.73260e-011
  70
    32
  0
VERTEX
  8
0
  5
946
 10
659.917
 20
-938.939
 30
-1.73261e-011
  70
    32
  0
VERTEX
  8
0
  5
947
 10
659.929
 20
-938.937
 30
-1.73263e-011
  70
    32
  0
VERTEX
  8
0
  5
948
 10
659.941
 20
-938.935
 30
-1.73264e-011
  70
    32
  0
VERTEX
  8
0
  5
949
 10
659.953
 20
-938.933
 30
-1.73265e-011
  70
    32
  0
VERTEX
  8
0
  5
94A
 10
659.965
 20
-938.931
 30
-1.73267e-011
  70
    32
  0
VERTEX
  8
0
  5
94B
 10
659.977
 20
-938.929
 30
-1.73268e-011
  70
    32
  0
VERTEX
  8
0
  5
94C
 10
659.989
 20
-938.927
 30
-1.73269e-011
  70
    32
  0
VERTEX
  8
0
  5
94D
 10
660.001
 20
-938.924
 30
-1.73271e-011
  70
    32
  0
VERTEX
  8
0
  5
94E
 10
660.013
 20
-938.922
 30
-1.73272e-011
  70
    32
  0
VERTEX
  8
0
  5
94F
 10
660.025
 20
-938.919
 30
-1.73273e-011
  70
    32
  0
VERTEX
  8
0
  5
950
 10
660.037
 20
-938.917
 30
-1.73274e-011
  70
    32
  0
VERTEX
  8
0
  5
951
 10
660.048
 20
-938.914
 30
-1.73275e-011
  70
    32
  0
VERTEX
  8
0
  5
952
 10
660.060
 20
-938.911
 30
-1.73277e-011
  70
    32
  0
VERTEX
  8
0
  5
953
 10
660.071
 20
-938.908
 30
-1.73278e-011
  70
    32
  0
VERTEX
  8
0
  5
954
 10
660.083
 20
-938.905
 30
-1.73279e-011
  70
    32
  0
VERTEX
  8
0
  5
955
 10
660.095
 20
-938.902
 30
-1.73280e-011
  70
    32
  0
VERTEX
  8
0
  5
956
 10
660.106
 20
-938.899
 30
-1.73281e-011
  70
    32
  0
VERTEX
  8
0
  5
957
 10
660.117
 20
-938.896
 30
-1.73282e-011
  70
    32
  0
VERTEX
  8
0
  5
958
 10
660.129
 20
-938.893
 30
-1.73283e-011
  70
    32
  0
VERTEX
  8
0
  5
959
 10
660.140
 20
-938.890
 30
-1.73284e-011
  70
    32
  0
VERTEX
  8
0
  5
95A
 10
660.151
 20
-938.886
 30
-1.73285e-011
  70
    32
  0
VERTEX
  8
0
  5
95B
 10
660.162
 20
-938.883
 30
-1.73286e-011
  70
    32
  0
VERTEX
  8
0
  5
95C
 10
660.173
 20
-938.879
 30
-1.73287e-011
  70
    32
  0
VERTEX
  8
0
  5
95D
 10
660.184
 20
-938.876
 30
-1.73288e-011
  70
    32
  0
VERTEX
  8
0
  5
95E
 10
660.195
 20
-938.872
 30
-1.73289e-011
  70
    32
  0
VERTEX
  8
0
  5
95F
 10
660.206
 20
-938.868
 30
-1.73290e-011
  70
    32
  0
VERTEX
  8
0
  5
960
 10
660.216
 20
-938.865
 30
-1.73291e-011
  70
    32
  0
VERTEX
  8
0
  5
961
 10
660.227
 20
-938.861
 30
-1.73292e-011
  70
    32
  0
VERTEX
  8
0
  5
962
 10
660.238
 20
-938.857
 30
-1.73293e-011
  70
    32
  0
VERTEX
  8
0
  5
963
 10
660.248
 20
-938.853
 30
-1.73294e-011
  70
    32
  0
VERTEX
  8
0
  5
964
 10
660.259
 20
-938.849
 30
-1.73295e-011
  70
    32
  0
VERTEX
  8
0
  5
965
 10
660.269
 20
-938.844
 30
-1.73295e-011
  70
    32
  0
VERTEX
  8
0
  5
966
 10
660.279
 20
-938.840
 30
-1.73296e-011
  70
    32
  0
VERTEX
  8
0
  5
967
 10
660.289
 20
-938.836
 30
-1.73297e-011
  70
    32
  0
VERTEX
  8
0
  5
968
 10
660.300
 20
-938.832
 30
-1.73298e-011
  70
    32
  0
VERTEX
  8
0
  5
969
 10
660.310
 20
-938.827
 30
-1.73298e-011
  70
    32
  0
VERTEX
  8
0
  5
96A
 10
660.319
 20
-938.823
 30
-1.73299e-011
  70
    32
  0
VERTEX
  8
0
  5
96B
 10
660.329
 20
-938.818
 30
-1.73300e-011
  70
    32
  0
VERTEX
  8
0
  5
96C
 10
660.339
 20
-938.813
 30
-1.73301e-011
  70
    32
  0
VERTEX
  8
0
  5
96D
 10
660.349
 20
-938.809
 30
-1.73301e-011
  70
    32
  0
VERTEX
  8
0
  5
96E
 10
660.358
 20
-938.804
 30
-1.73302e-011
  70
    32
  0
VERTEX
  8
0
  5
96F
 10
660.368
 20
-938.799
 30
-1.73303e-011
  70
    32
  0
VERTEX
  8
0
  5
970
 10
660.377
 20
-938.794
 30
-1.73303e-011
  70
    32
  0
VERTEX
  8
0
  5
971
 10
660.386
 20
-938.789
 30
-1.73304e-011
  70
    32
  0
VERTEX
  8
0
  5
972
 10
660.395
 20
-938.784
 30
-1.73304e-011
  70
    32
  0
VERTEX
  8
0
  5
973
 10
660.404
 20
-938.779
 30
-1.73305e-011
  70
    32
  0
VERTEX
  8
0
  5
974
 10
660.413
 20
-938.774
 30
-1.73305e-011
  70
    32
  0
SEQEND
  8
0
  5
975
  0
LINE
  5
76D
  8
0
  6
CONTINUOUS
 10
658.94335879701475
 20
-938.81877350121863
 30
-0.000000000016516
 11
658.94335879701521
 21
85.806780219800913
 31
-0.0000000000038603
210
0.000000000000008
220
0.8164965809277113
230
0.5773502691896467
  0
LINE
  5
76E
  8
0
  6
CONTINUOUS
 10
667.74319883781823
 20
-934.54244787770153
 30
-0.0000000000166916
 11
660.41342868647428
 21
-938.7742926476775
 31
-0.000000000016876
210
0.000000000000008
220
0.8164965809277113
230
0.5773502691896467
  0
LINE
  5
76F
  8
0
  6
CONTINUOUS
 10
660.41342868647428
 20
-938.7742926476775
 30
-0.000000000016876
 11
660.41342868647496
 21
85.33596946759431
 31
-0.0000000000039001
210
0.000000000000008
220
0.8164965809277113
230
0.5773502691896467
  0
POLYLINE
  5
770
  8
0
  6
CONTINUOUS
 10
667.74319883781777
 20
-934.54244787770176
 30
-0.000000000017601
 66
     1
 70
     8
  0
VERTEX
  8
0
  5
976
 10
667.743
 20
-934.542
 30
-1.76010e-011
  70
    32
  0
VERTEX
  8
0
  5
977
 10
667.751
 20
-934.538
 30
-1.76010e-011
  70
    32
  0
VERTEX
  8
0
  5
978
 10
667.759
 20
-934.533
 30
-1.76011e-011
  70
    32
  0
VERTEX
  8
0
  5
979
 10
667.767
 20
-934.529
 30
-1.76011e-011
  70
    32
  0
VERTEX
  8
0
  5
97A
 10
667.774
 20
-934.524
 30
-1.76012e-011
  70
    32
  0
VERTEX
  8
0
  5
97B
 10
667.782
 20
-934.519
 30
-1.76012e-011
  70
    32
  0
VERTEX
  8
0
  5
97C
 10
667.790
 20
-934.515
 30
-1.76013e-011
  70
    32
  0
VERTEX
  8
0
  5
97D
 10
667.797
 20
-934.510
 30
-1.76013e-011
  70
    32
  0
VERTEX
  8
0
  5
97E
 10
667.805
 20
-934.505
 30
-1.76013e-011
  70
    32
  0
VERTEX
  8
0
  5
97F
 10
667.812
 20
-934.500
 30
-1.76014e-011
  70
    32
  0
VERTEX
  8
0
  5
980
 10
667.820
 20
-934.495
 30
-1.76014e-011
  70
    32
  0
VERTEX
  8
0
  5
981
 10
667.827
 20
-934.491
 30
-1.76015e-011
  70
    32
  0
VERTEX
  8
0
  5
982
 10
667.835
 20
-934.486
 30
-1.76015e-011
  70
    32
  0
VERTEX
  8
0
  5
983
 10
667.842
 20
-934.481
 30
-1.76015e-011
  70
    32
  0
VERTEX
  8
0
  5
984
 10
667.849
 20
-934.476
 30
-1.76016e-011
  70
    32
  0
VERTEX
  8
0
  5
985
 10
667.856
 20
-934.471
 30
-1.76016e-011
  70
    32
  0
VERTEX
  8
0
  5
986
 10
667.863
 20
-934.466
 30
-1.76016e-011
  70
    32
  0
VERTEX
  8
0
  5
987
 10
667.871
 20
-934.461
 30
-1.76016e-011
  70
    32
  0
VERTEX
  8
0
  5
988
 10
667.878
 20
-934.456
 30
-1.76017e-011
  70
    32
  0
VERTEX
  8
0
  5
989
 10
667.885
 20
-934.451
 30
-1.76017e-011
  70
    32
  0
VERTEX
  8
0
  5
98A
 10
667.891
 20
-934.446
 30
-1.76017e-011
  70
    32
  0
VERTEX
  8
0
  5
98B
 10
667.898
 20
-934.441
 30
-1.76018e-011
  70
    32
  0
VERTEX
  8
0
  5
98C
 10
667.905
 20
-934.435
 30
-1.76018e-011
  70
    32
  0
VERTEX
  8
0
  5
98D
 10
667.912
 20
-934.430
 30
-1.76018e-011
  70
    32
  0
VERTEX
  8
0
  5
98E
 10
667.919
 20
-934.425
 30
-1.76018e-011
  70
    32
  0
VERTEX
  8
0
  5
98F
 10
667.925
 20
-934.420
 30
-1.76019e-011
  70
    32
  0
VERTEX
  8
0
  5
990
 10
667.932
 20
-934.415
 30
-1.76019e-011
  70
    32
  0
VERTEX
  8
0
  5
991
 10
667.938
 20
-934.409
 30
-1.76019e-011
  70
    32
  0
VERTEX
  8
0
  5
992
 10
667.945
 20
-934.404
 30
-1.76019e-011
  70
    32
  0
VERTEX
  8
0
  5
993
 10
667.951
 20
-934.399
 30
-1.76019e-011
  70
    32
  0
VERTEX
  8
0
  5
994
 10
667.958
 20
-934.393
 30
-1.76019e-011
  70
    32
  0
VERTEX
  8
0
  5
995
 10
667.964
 20
-934.388
 30
-1.76020e-011
  70
    32
  0
VERTEX
  8
0
  5
996
 10
667.970
 20
-934.383
 30
-1.76020e-011
  70
    32
  0
VERTEX
  8
0
  5
997
 10
667.976
 20
-934.377
 30
-1.76020e-011
  70
    32
  0
VERTEX
  8
0
  5
998
 10
667.982
 20
-934.372
 30
-1.76020e-011
  70
    32
  0
VERTEX
  8
0
  5
999
 10
667.989
 20
-934.367
 30
-1.76020e-011
  70
    32
  0
VERTEX
  8
0
  5
99A
 10
667.995
 20
-934.361
 30
-1.76020e-011
  70
    32
  0
VERTEX
  8
0
  5
99B
 10
668.001
 20
-934.356
 30
-1.76020e-011
  70
    32
  0
VERTEX
  8
0
  5
99C
 10
668.006
 20
-934.350
 30
-1.76020e-011
  70
    32
  0
VERTEX
  8
0
  5
99D
 10
668.012
 20
-934.345
 30
-1.76020e-011
  70
    32
  0
VERTEX
  8
0
  5
99E
 10
668.018
 20
-934.339
 30
-1.76021e-011
  70
    32
  0
VERTEX
  8
0
  5
99F
 10
668.024
 20
-934.334
 30
-1.76021e-011
  70
    32
  0
VERTEX
  8
0
  5
9A0
 10
668.029
 20
-934.328
 30
-1.76021e-011
  70
    32
  0
VERTEX
  8
0
  5
9A1
 10
668.035
 20
-934.322
 30
-1.76021e-011
  70
    32
  0
VERTEX
  8
0
  5
9A2
 10
668.041
 20
-934.317
 30
-1.76021e-011
  70
    32
  0
VERTEX
  8
0
  5
9A3
 10
668.046
 20
-934.311
 30
-1.76021e-011
  70
    32
  0
VERTEX
  8
0
  5
9A4
 10
668.052
 20
-934.305
 30
-1.76021e-011
  70
    32
  0
VERTEX
  8
0
  5
9A5
 10
668.057
 20
-934.300
 30
-1.76021e-011
  70
    32
  0
VERTEX
  8
0
  5
9A6
 10
668.062
 20
-934.294
 30
-1.76021e-011
  70
    32
  0
VERTEX
  8
0
  5
9A7
 10
668.067
 20
-934.288
 30
-1.76021e-011
  70
    32
  0
VERTEX
  8
0
  5
9A8
 10
668.073
 20
-934.283
 30
-1.76021e-011
  70
    32
  0
VERTEX
  8
0
  5
9A9
 10
668.078
 20
-934.277
 30
-1.76020e-011
  70
    32
  0
VERTEX
  8
0
  5
9AA
 10
668.083
 20
-934.271
 30
-1.76020e-011
  70
    32
  0
VERTEX
  8
0
  5
9AB
 10
668.088
 20
-934.265
 30
-1.76020e-011
  70
    32
  0
VERTEX
  8
0
  5
9AC
 10
668.093
 20
-934.260
 30
-1.76020e-011
  70
    32
  0
VERTEX
  8
0
  5
9AD
 10
668.098
 20
-934.254
 30
-1.76020e-011
  70
    32
  0
VERTEX
  8
0
  5
9AE
 10
668.103
 20
-934.248
 30
-1.76020e-011
  70
    32
  0
VERTEX
  8
0
  5
9AF
 10
668.107
 20
-934.242
 30
-1.76020e-011
  70
    32
  0
VERTEX
  8
0
  5
9B0
 10
668.112
 20
-934.236
 30
-1.76020e-011
  70
    32
  0
VERTEX
  8
0
  5
9B1
 10
668.117
 20
-934.230
 30
-1.76020e-011
  70
    32
  0
VERTEX
  8
0
  5
9B2
 10
668.121
 20
-934.224
 30
-1.76020e-011
  70
    32
  0
VERTEX
  8
0
  5
9B3
 10
668.126
 20
-934.218
 30
-1.76019e-011
  70
    32
  0
VERTEX
  8
0
  5
9B4
 10
668.130
 20
-934.213
 30
-1.76019e-011
  70
    32
  0
VERTEX
  8
0
  5
9B5
 10
668.134
 20
-934.207
 30
-1.76019e-011
  70
    32
  0
VERTEX
  8
0
  5
9B6
 10
668.139
 20
-934.201
 30
-1.76019e-011
  70
    32
  0
VERTEX
  8
0
  5
9B7
 10
668.143
 20
-934.195
 30
-1.76019e-011
  70
    32
  0
VERTEX
  8
0
  5
9B8
 10
668.147
 20
-934.189
 30
-1.76018e-011
  70
    32
  0
VERTEX
  8
0
  5
9B9
 10
668.151
 20
-934.183
 30
-1.76018e-011
  70
    32
  0
VERTEX
  8
0
  5
9BA
 10
668.155
 20
-934.177
 30
-1.76018e-011
  70
    32
  0
VERTEX
  8
0
  5
9BB
 10
668.159
 20
-934.171
 30
-1.76018e-011
  70
    32
  0
VERTEX
  8
0
  5
9BC
 10
668.163
 20
-934.165
 30
-1.76018e-011
  70
    32
  0
VERTEX
  8
0
  5
9BD
 10
668.167
 20
-934.158
 30
-1.76017e-011
  70
    32
  0
VERTEX
  8
0
  5
9BE
 10
668.171
 20
-934.152
 30
-1.76017e-011
  70
    32
  0
VERTEX
  8
0
  5
9BF
 10
668.175
 20
-934.146
 30
-1.76017e-011
  70
    32
  0
VERTEX
  8
0
  5
9C0
 10
668.178
 20
-934.140
 30
-1.76016e-011
  70
    32
  0
VERTEX
  8
0
  5
9C1
 10
668.182
 20
-934.134
 30
-1.76016e-011
  70
    32
  0
VERTEX
  8
0
  5
9C2
 10
668.186
 20
-934.128
 30
-1.76016e-011
  70
    32
  0
VERTEX
  8
0
  5
9C3
 10
668.189
 20
-934.122
 30
-1.76015e-011
  70
    32
  0
VERTEX
  8
0
  5
9C4
 10
668.193
 20
-934.116
 30
-1.76015e-011
  70
    32
  0
VERTEX
  8
0
  5
9C5
 10
668.196
 20
-934.109
 30
-1.76015e-011
  70
    32
  0
VERTEX
  8
0
  5
9C6
 10
668.199
 20
-934.103
 30
-1.76014e-011
  70
    32
  0
VERTEX
  8
0
  5
9C7
 10
668.202
 20
-934.097
 30
-1.76014e-011
  70
    32
  0
VERTEX
  8
0
  5
9C8
 10
668.206
 20
-934.091
 30
-1.76014e-011
  70
    32
  0
VERTEX
  8
0
  5
9C9
 10
668.209
 20
-934.085
 30
-1.76013e-011
  70
    32
  0
VERTEX
  8
0
  5
9CA
 10
668.212
 20
-934.078
 30
-1.76013e-011
  70
    32
  0
VERTEX
  8
0
  5
9CB
 10
668.215
 20
-934.072
 30
-1.76013e-011
  70
    32
  0
VERTEX
  8
0
  5
9CC
 10
668.217
 20
-934.066
 30
-1.76012e-011
  70
    32
  0
VERTEX
  8
0
  5
9CD
 10
668.220
 20
-934.060
 30
-1.76012e-011
  70
    32
  0
VERTEX
  8
0
  5
9CE
 10
668.223
 20
-934.053
 30
-1.76011e-011
  70
    32
  0
VERTEX
  8
0
  5
9CF
 10
668.226
 20
-934.047
 30
-1.76011e-011
  70
    32
  0
VERTEX
  8
0
  5
9D0
 10
668.228
 20
-934.041
 30
-1.76010e-011
  70
    32
  0
VERTEX
  8
0
  5
9D1
 10
668.231
 20
-934.035
 30
-1.76010e-011
  70
    32
  0
VERTEX
  8
0
  5
9D2
 10
668.233
 20
-934.028
 30
-1.76009e-011
  70
    32
  0
VERTEX
  8
0
  5
9D3
 10
668.236
 20
-934.022
 30
-1.76009e-011
  70
    32
  0
VERTEX
  8
0
  5
9D4
 10
668.238
 20
-934.016
 30
-1.76008e-011
  70
    32
  0
VERTEX
  8
0
  5
9D5
 10
668.240
 20
-934.009
 30
-1.76008e-011
  70
    32
  0
VERTEX
  8
0
  5
9D6
 10
668.243
 20
-934.003
 30
-1.76007e-011
  70
    32
  0
VERTEX
  8
0
  5
9D7
 10
668.245
 20
-933.997
 30
-1.76007e-011
  70
    32
  0
VERTEX
  8
0
  5
9D8
 10
668.247
 20
-933.990
 30
-1.76006e-011
  70
    32
  0
VERTEX
  8
0
  5
9D9
 10
668.249
 20
-933.984
 30
-1.76006e-011
  70
    32
  0
VERTEX
  8
0
  5
9DA
 10
668.251
 20
-933.978
 30
-1.76005e-011
  70
    32
  0
VERTEX
  8
0
  5
9DB
 10
668.253
 20
-933.971
 30
-1.76005e-011
  70
    32
  0
VERTEX
  8
0
  5
9DC
 10
668.255
 20
-933.965
 30
-1.76004e-011
  70
    32
  0
VERTEX
  8
0
  5
9DD
 10
668.256
 20
-933.958
 30
-1.76004e-011
  70
    32
  0
VERTEX
  8
0
  5
9DE
 10
668.258
 20
-933.952
 30
-1.76003e-011
  70
    32
  0
VERTEX
  8
0
  5
9DF
 10
668.260
 20
-933.946
 30
-1.76002e-011
  70
    32
  0
VERTEX
  8
0
  5
9E0
 10
668.261
 20
-933.939
 30
-1.76002e-011
  70
    32
  0
VERTEX
  8
0
  5
9E1
 10
668.263
 20
-933.933
 30
-1.76001e-011
  70
    32
  0
VERTEX
  8
0
  5
9E2
 10
668.264
 20
-933.926
 30
-1.76001e-011
  70
    32
  0
VERTEX
  8
0
  5
9E3
 10
668.265
 20
-933.920
 30
-1.76000e-011
  70
    32
  0
VERTEX
  8
0
  5
9E4
 10
668.267
 20
-933.914
 30
-1.75999e-011
  70
    32
  0
VERTEX
  8
0
  5
9E5
 10
668.268
 20
-933.907
 30
-1.75999e-011
  70
    32
  0
VERTEX
  8
0
  5
9E6
 10
668.269
 20
-933.901
 30
-1.75998e-011
  70
    32
  0
VERTEX
  8
0
  5
9E7
 10
668.270
 20
-933.894
 30
-1.75997e-011
  70
    32
  0
VERTEX
  8
0
  5
9E8
 10
668.271
 20
-933.888
 30
-1.75997e-011
  70
    32
  0
VERTEX
  8
0
  5
9E9
 10
668.272
 20
-933.881
 30
-1.75996e-011
  70
    32
  0
VERTEX
  8
0
  5
9EA
 10
668.273
 20
-933.875
 30
-1.75995e-011
  70
    32
  0
VERTEX
  8
0
  5
9EB
 10
668.274
 20
-933.868
 30
-1.75994e-011
  70
    32
  0
VERTEX
  8
0
  5
9EC
 10
668.274
 20
-933.862
 30
-1.75994e-011
  70
    32
  0
VERTEX
  8
0
  5
9ED
 10
668.275
 20
-933.856
 30
-1.75993e-011
  70
    32
  0
VERTEX
  8
0
  5
9EE
 10
668.276
 20
-933.849
 30
-1.75992e-011
  70
    32
  0
VERTEX
  8
0
  5
9EF
 10
668.276
 20
-933.843
 30
-1.75992e-011
  70
    32
  0
VERTEX
  8
0
  5
9F0
 10
668.276
 20
-933.836
 30
-1.75991e-011
  70
    32
  0
VERTEX
  8
0
  5
9F1
 10
668.277
 20
-933.830
 30
-1.75990e-011
  70
    32
  0
VERTEX
  8
0
  5
9F2
 10
668.277
 20
-933.823
 30
-1.75989e-011
  70
    32
  0
VERTEX
  8
0
  5
9F3
 10
668.277
 20
-933.817
 30
-1.75988e-011
  70
    32
  0
VERTEX
  8
0
  5
9F4
 10
668.278
 20
-933.810
 30
-1.75988e-011
  70
    32
  0
VERTEX
  8
0
  5
9F5
 10
668.278
 20
-933.804
 30
-1.75987e-011
  70
    32
  0
VERTEX
  8
0
  5
9F6
 10
668.278
 20
-933.797
 30
-1.75986e-011
  70
    32
  0
SEQEND
  8
0
  5
9F7
  0
LINE
  5
771
  8
0
  6
CONTINUOUS
 10
667.74319883781823
 20
-934.54244787770153
 30
-0.0000000000166916
 11
667.74319883781857
 21
89.344264605657287
 31
-0.000000000003946
210
0.000000000000008
220
0.8164965809277113
230
0.5773502691896467
  0
POLYLINE
  5
772
  8
0
  6
CONTINUOUS
 10
-417.60574088965859
 20
-1530.9971012828989
 30
-0.0000000000107279
 66
     1
 70
     8
  0
VERTEX
  8
0
  5
9F8
 10
-417.606
 20
-1531.00
 30
-1.07279e-011
  70
    32
  0
VERTEX
  8
0
  5
9F9
 10
-417.606
 20
-1531.00
 30
-1.07279e-011
  70
    32
  0
VERTEX
  8
0
  5
9FA
 10
-417.606
 20
-1531.00
 30
-1.07280e-011
  70
    32
  0
VERTEX
  8
0
  5
9FB
 10
-417.606
 20
-1531.01
 30
-1.07280e-011
  70
    32
  0
VERTEX
  8
0
  5
9FC
 10
-417.605
 20
-1531.01
 30
-1.07281e-011
  70
    32
  0
VERTEX
  8
0
  5
9FD
 10
-417.605
 20
-1531.01
 30
-1.07281e-011
  70
    32
  0
VERTEX
  8
0
  5
9FE
 10
-417.605
 20
-1531.02
 30
-1.07282e-011
  70
    32
  0
VERTEX
  8
0
  5
9FF
 10
-417.605
 20
-1531.02
 30
-1.07282e-011
  70
    32
  0
VERTEX
  8
0
  5
A00
 10
-417.605
 20
-1531.02
 30
-1.07283e-011
  70
    32
  0
VERTEX
  8
0
  5
A01
 10
-417.604
 20
-1531.03
 30
-1.07283e-011
  70
    32
  0
VERTEX
  8
0
  5
A02
 10
-417.604
 20
-1531.03
 30
-1.07284e-011
  70
    32
  0
VERTEX
  8
0
  5
A03
 10
-417.604
 20
-1531.03
 30
-1.07284e-011
  70
    32
  0
VERTEX
  8
0
  5
A04
 10
-417.604
 20
-1531.04
 30
-1.07284e-011
  70
    32
  0
VERTEX
  8
0
  5
A05
 10
-417.603
 20
-1531.04
 30
-1.07285e-011
  70
    32
  0
VERTEX
  8
0
  5
A06
 10
-417.603
 20
-1531.04
 30
-1.07285e-011
  70
    32
  0
VERTEX
  8
0
  5
A07
 10
-417.602
 20
-1531.05
 30
-1.07286e-011
  70
    32
  0
VERTEX
  8
0
  5
A08
 10
-417.602
 20
-1531.05
 30
-1.07286e-011
  70
    32
  0
VERTEX
  8
0
  5
A09
 10
-417.601
 20
-1531.05
 30
-1.07287e-011
  70
    32
  0
VERTEX
  8
0
  5
A0A
 10
-417.601
 20
-1531.06
 30
-1.07287e-011
  70
    32
  0
VERTEX
  8
0
  5
A0B
 10
-417.600
 20
-1531.06
 30
-1.07288e-011
  70
    32
  0
VERTEX
  8
0
  5
A0C
 10
-417.600
 20
-1531.06
 30
-1.07288e-011
  70
    32
  0
VERTEX
  8
0
  5
A0D
 10
-417.599
 20
-1531.07
 30
-1.07289e-011
  70
    32
  0
VERTEX
  8
0
  5
A0E
 10
-417.598
 20
-1531.07
 30
-1.07289e-011
  70
    32
  0
VERTEX
  8
0
  5
A0F
 10
-417.598
 20
-1531.07
 30
-1.07290e-011
  70
    32
  0
VERTEX
  8
0
  5
A10
 10
-417.597
 20
-1531.08
 30
-1.07291e-011
  70
    32
  0
VERTEX
  8
0
  5
A11
 10
-417.596
 20
-1531.08
 30
-1.07291e-011
  70
    32
  0
VERTEX
  8
0
  5
A12
 10
-417.595
 20
-1531.08
 30
-1.07292e-011
  70
    32
  0
VERTEX
  8
0
  5
A13
 10
-417.594
 20
-1531.09
 30
-1.07292e-011
  70
    32
  0
VERTEX
  8
0
  5
A14
 10
-417.594
 20
-1531.09
 30
-1.07293e-011
  70
    32
  0
VERTEX
  8
0
  5
A15
 10
-417.593
 20
-1531.09
 30
-1.07293e-011
  70
    32
  0
VERTEX
  8
0
  5
A16
 10
-417.592
 20
-1531.10
 30
-1.07294e-011
  70
    32
  0
VERTEX
  8
0
  5
A17
 10
-417.591
 20
-1531.10
 30
-1.07294e-011
  70
    32
  0
VERTEX
  8
0
  5
A18
 10
-417.590
 20
-1531.10
 30
-1.07295e-011
  70
    32
  0
VERTEX
  8
0
  5
A19
 10
-417.589
 20
-1531.11
 30
-1.07295e-011
  70
    32
  0
VERTEX
  8
0
  5
A1A
 10
-417.588
 20
-1531.11
 30
-1.07296e-011
  70
    32
  0
VERTEX
  8
0
  5
A1B
 10
-417.587
 20
-1531.11
 30
-1.07297e-011
  70
    32
  0
VERTEX
  8
0
  5
A1C
 10
-417.586
 20
-1531.12
 30
-1.07297e-011
  70
    32
  0
VERTEX
  8
0
  5
A1D
 10
-417.585
 20
-1531.12
 30
-1.07298e-011
  70
    32
  0
VERTEX
  8
0
  5
A1E
 10
-417.583
 20
-1531.12
 30
-1.07298e-011
  70
    32
  0
VERTEX
  8
0
  5
A1F
 10
-417.582
 20
-1531.13
 30
-1.07299e-011
  70
    32
  0
VERTEX
  8
0
  5
A20
 10
-417.581
 20
-1531.13
 30
-1.07299e-011
  70
    32
  0
VERTEX
  8
0
  5
A21
 10
-417.580
 20
-1531.13
 30
-1.07300e-011
  70
    32
  0
VERTEX
  8
0
  5
A22
 10
-417.578
 20
-1531.14
 30
-1.07301e-011
  70
    32
  0
VERTEX
  8
0
  5
A23
 10
-417.577
 20
-1531.14
 30
-1.07301e-011
  70
    32
  0
VERTEX
  8
0
  5
A24
 10
-417.576
 20
-1531.14
 30
-1.07302e-011
  70
    32
  0
VERTEX
  8
0
  5
A25
 10
-417.574
 20
-1531.15
 30
-1.07302e-011
  70
    32
  0
VERTEX
  8
0
  5
A26
 10
-417.573
 20
-1531.15
 30
-1.07303e-011
  70
    32
  0
VERTEX
  8
0
  5
A27
 10
-417.572
 20
-1531.15
 30
-1.07304e-011
  70
    32
  0
VERTEX
  8
0
  5
A28
 10
-417.570
 20
-1531.16
 30
-1.07304e-011
  70
    32
  0
VERTEX
  8
0
  5
A29
 10
-417.569
 20
-1531.16
 30
-1.07305e-011
  70
    32
  0
VERTEX
  8
0
  5
A2A
 10
-417.567
 20
-1531.16
 30
-1.07305e-011
  70
    32
  0
VERTEX
  8
0
  5
A2B
 10
-417.566
 20
-1531.17
 30
-1.07306e-011
  70
    32
  0
VERTEX
  8
0
  5
A2C
 10
-417.564
 20
-1531.17
 30
-1.07307e-011
  70
    32
  0
VERTEX
  8
0
  5
A2D
 10
-417.562
 20
-1531.17
 30
-1.07307e-011
  70
    32
  0
VERTEX
  8
0
  5
A2E
 10
-417.561
 20
-1531.18
 30
-1.07308e-011
  70
    32
  0
VERTEX
  8
0
  5
A2F
 10
-417.559
 20
-1531.18
 30
-1.07309e-011
  70
    32
  0
VERTEX
  8
0
  5
A30
 10
-417.557
 20
-1531.18
 30
-1.07309e-011
  70
    32
  0
VERTEX
  8
0
  5
A31
 10
-417.556
 20
-1531.19
 30
-1.07310e-011
  70
    32
  0
VERTEX
  8
0
  5
A32
 10
-417.554
 20
-1531.19
 30
-1.07310e-011
  70
    32
  0
VERTEX
  8
0
  5
A33
 10
-417.552
 20
-1531.19
 30
-1.07311e-011
  70
    32
  0
VERTEX
  8
0
  5
A34
 10
-417.550
 20
-1531.20
 30
-1.07312e-011
  70
    32
  0
VERTEX
  8
0
  5
A35
 10
-417.548
 20
-1531.20
 30
-1.07312e-011
  70
    32
  0
VERTEX
  8
0
  5
A36
 10
-417.546
 20
-1531.20
 30
-1.07313e-011
  70
    32
  0
VERTEX
  8
0
  5
A37
 10
-417.545
 20
-1531.21
 30
-1.07314e-011
  70
    32
  0
VERTEX
  8
0
  5
A38
 10
-417.543
 20
-1531.21
 30
-1.07314e-011
  70
    32
  0
VERTEX
  8
0
  5
A39
 10
-417.541
 20
-1531.21
 30
-1.07315e-011
  70
    32
  0
VERTEX
  8
0
  5
A3A
 10
-417.539
 20
-1531.22
 30
-1.07316e-011
  70
    32
  0
VERTEX
  8
0
  5
A3B
 10
-417.537
 20
-1531.22
 30
-1.07316e-011
  70
    32
  0
VERTEX
  8
0
  5
A3C
 10
-417.535
 20
-1531.22
 30
-1.07317e-011
  70
    32
  0
VERTEX
  8
0
  5
A3D
 10
-417.533
 20
-1531.22
 30
-1.07318e-011
  70
    32
  0
VERTEX
  8
0
  5
A3E
 10
-417.530
 20
-1531.23
 30
-1.07318e-011
  70
    32
  0
VERTEX
  8
0
  5
A3F
 10
-417.528
 20
-1531.23
 30
-1.07319e-011
  70
    32
  0
VERTEX
  8
0
  5
A40
 10
-417.526
 20
-1531.23
 30
-1.07320e-011
  70
    32
  0
VERTEX
  8
0
  5
A41
 10
-417.524
 20
-1531.24
 30
-1.07320e-011
  70
    32
  0
VERTEX
  8
0
  5
A42
 10
-417.522
 20
-1531.24
 30
-1.07321e-011
  70
    32
  0
VERTEX
  8
0
  5
A43
 10
-417.519
 20
-1531.24
 30
-1.07322e-011
  70
    32
  0
VERTEX
  8
0
  5
A44
 10
-417.517
 20
-1531.25
 30
-1.07323e-011
  70
    32
  0
VERTEX
  8
0
  5
A45
 10
-417.515
 20
-1531.25
 30
-1.07323e-011
  70
    32
  0
VERTEX
  8
0
  5
A46
 10
-417.512
 20
-1531.25
 30
-1.07324e-011
  70
    32
  0
VERTEX
  8
0
  5
A47
 10
-417.510
 20
-1531.26
 30
-1.07325e-011
  70
    32
  0
VERTEX
  8
0
  5
A48
 10
-417.508
 20
-1531.26
 30
-1.07325e-011
  70
    32
  0
VERTEX
  8
0
  5
A49
 10
-417.505
 20
-1531.26
 30
-1.07326e-011
  70
    32
  0
VERTEX
  8
0
  5
A4A
 10
-417.503
 20
-1531.27
 30
-1.07327e-011
  70
    32
  0
VERTEX
  8
0
  5
A4B
 10
-417.500
 20
-1531.27
 30
-1.07328e-011
  70
    32
  0
VERTEX
  8
0
  5
A4C
 10
-417.498
 20
-1531.27
 30
-1.07328e-011
  70
    32
  0
VERTEX
  8
0
  5
A4D
 10
-417.495
 20
-1531.27
 30
-1.07329e-011
  70
    32
  0
VERTEX
  8
0
  5
A4E
 10
-417.493
 20
-1531.28
 30
-1.07330e-011
  70
    32
  0
VERTEX
  8
0
  5
A4F
 10
-417.490
 20
-1531.28
 30
-1.07330e-011
  70
    32
  0
VERTEX
  8
0
  5
A50
 10
-417.487
 20
-1531.28
 30
-1.07331e-011
  70
    32
  0
VERTEX
  8
0
  5
A51
 10
-417.485
 20
-1531.29
 30
-1.07332e-011
  70
    32
  0
VERTEX
  8
0
  5
A52
 10
-417.482
 20
-1531.29
 30
-1.07333e-011
  70
    32
  0
VERTEX
  8
0
  5
A53
 10
-417.479
 20
-1531.29
 30
-1.07333e-011
  70
    32
  0
VERTEX
  8
0
  5
A54
 10
-417.477
 20
-1531.30
 30
-1.07334e-011
  70
    32
  0
VERTEX
  8
0
  5
A55
 10
-417.474
 20
-1531.30
 30
-1.07335e-011
  70
    32
  0
VERTEX
  8
0
  5
A56
 10
-417.471
 20
-1531.30
 30
-1.07336e-011
  70
    32
  0
VERTEX
  8
0
  5
A57
 10
-417.468
 20
-1531.30
 30
-1.07336e-011
  70
    32
  0
VERTEX
  8
0
  5
A58
 10
-417.465
 20
-1531.31
 30
-1.07337e-011
  70
    32
  0
VERTEX
  8
0
  5
A59
 10
-417.463
 20
-1531.31
 30
-1.07338e-011
  70
    32
  0
VERTEX
  8
0
  5
A5A
 10
-417.460
 20
-1531.31
 30
-1.07339e-011
  70
    32
  0
VERTEX
  8
0
  5
A5B
 10
-417.457
 20
-1531.32
 30
-1.07339e-011
  70
    32
  0
VERTEX
  8
0
  5
A5C
 10
-417.454
 20
-1531.32
 30
-1.07340e-011
  70
    32
  0
VERTEX
  8
0
  5
A5D
 10
-417.451
 20
-1531.32
 30
-1.07341e-011
  70
    32
  0
VERTEX
  8
0
  5
A5E
 10
-417.448
 20
-1531.32
 30
-1.07342e-011
  70
    32
  0
VERTEX
  8
0
  5
A5F
 10
-417.445
 20
-1531.33
 30
-1.07342e-011
  70
    32
  0
VERTEX
  8
0
  5
A60
 10
-417.442
 20
-1531.33
 30
-1.07343e-011
  70
    32
  0
VERTEX
  8
0
  5
A61
 10
-417.439
 20
-1531.33
 30
-1.07344e-011
  70
    32
  0
VERTEX
  8
0
  5
A62
 10
-417.436
 20
-1531.34
 30
-1.07345e-011
  70
    32
  0
VERTEX
  8
0
  5
A63
 10
-417.432
 20
-1531.34
 30
-1.07345e-011
  70
    32
  0
VERTEX
  8
0
  5
A64
 10
-417.429
 20
-1531.34
 30
-1.07346e-011
  70
    32
  0
VERTEX
  8
0
  5
A65
 10
-417.426
 20
-1531.34
 30
-1.07347e-011
  70
    32
  0
VERTEX
  8
0
  5
A66
 10
-417.423
 20
-1531.35
 30
-1.07348e-011
  70
    32
  0
VERTEX
  8
0
  5
A67
 10
-417.420
 20
-1531.35
 30
-1.07349e-011
  70
    32
  0
VERTEX
  8
0
  5
A68
 10
-417.416
 20
-1531.35
 30
-1.07349e-011
  70
    32
  0
VERTEX
  8
0
  5
A69
 10
-417.413
 20
-1531.36
 30
-1.07350e-011
  70
    32
  0
VERTEX
  8
0
  5
A6A
 10
-417.410
 20
-1531.36
 30
-1.07351e-011
  70
    32
  0
VERTEX
  8
0
  5
A6B
 10
-417.406
 20
-1531.36
 30
-1.07352e-011
  70
    32
  0
VERTEX
  8
0
  5
A6C
 10
-417.403
 20
-1531.36
 30
-1.07353e-011
  70
    32
  0
VERTEX
  8
0
  5
A6D
 10
-417.400
 20
-1531.37
 30
-1.07353e-011
  70
    32
  0
VERTEX
  8
0
  5
A6E
 10
-417.396
 20
-1531.37
 30
-1.07354e-011
  70
    32
  0
VERTEX
  8
0
  5
A6F
 10
-417.393
 20
-1531.37
 30
-1.07355e-011
  70
    32
  0
VERTEX
  8
0
  5
A70
 10
-417.389
 20
-1531.38
 30
-1.07356e-011
  70
    32
  0
VERTEX
  8
0
  5
A71
 10
-417.386
 20
-1531.38
 30
-1.07357e-011
  70
    32
  0
VERTEX
  8
0
  5
A72
 10
-417.382
 20
-1531.38
 30
-1.07357e-011
  70
    32
  0
VERTEX
  8
0
  5
A73
 10
-417.379
 20
-1531.38
 30
-1.07358e-011
  70
    32
  0
VERTEX
  8
0
  5
A74
 10
-417.375
 20
-1531.39
 30
-1.07359e-011
  70
    32
  0
VERTEX
  8
0
  5
A75
 10
-417.372
 20
-1531.39
 30
-1.07360e-011
  70
    32
  0
VERTEX
  8
0
  5
A76
 10
-417.368
 20
-1531.39
 30
-1.07361e-011
  70
    32
  0
VERTEX
  8
0
  5
A77
 10
-417.364
 20
-1531.39
 30
-1.07361e-011
  70
    32
  0
VERTEX
  8
0
  5
A78
 10
-417.361
 20
-1531.40
 30
-1.07362e-011
  70
    32
  0
SEQEND
  8
0
  5
A79
  0
LINE
  5
773
  8
0
  6
CONTINUOUS
 10
-396.60519231794098
 20
-1546.1947202162719
 30
-0.0000000000108603
 11
-417.36060144726088
 21
-1531.396773409796
 31
-0.0000000000105087
210
0.000000000000008
220
0.8164965809277113
230
0.5773502691896467
  0
LINE
  5
774
  8
0
  6
CONTINUOUS
 10
-417.36060144726088
 20
-1531.396773409796
 30
-0.0000000000105087
 11
-417.36060144726042
 21
-429.12638915737602
 31
0.0000000000034553
210
0.000000000000008
220
0.8164965809277113
230
0.5773502691896467
  0
POLYLINE
  5
775
  8
0
  6
CONTINUOUS
 10
-396.60519231794086
 20
-1546.1947202162726
 30
-0.0000000000113151
 66
     1
 70
     8
  0
VERTEX
  8
0
  5
A7A
 10
-396.605
 20
-1546.19
 30
-1.13151e-011
  70
    32
  0
VERTEX
  8
0
  5
A7B
 10
-396.596
 20
-1546.20
 30
-1.13153e-011
  70
    32
  0
VERTEX
  8
0
  5
A7C
 10
-396.587
 20
-1546.21
 30
-1.13155e-011
  70
    32
  0
VERTEX
  8
0
  5
A7D
 10
-396.577
 20
-1546.21
 30
-1.13157e-011
  70
    32
  0
VERTEX
  8
0
  5
A7E
 10
-396.568
 20
-1546.22
 30
-1.13159e-011
  70
    32
  0
VERTEX
  8
0
  5
A7F
 10
-396.558
 20
-1546.23
 30
-1.13161e-011
  70
    32
  0
VERTEX
  8
0
  5
A80
 10
-396.548
 20
-1546.23
 30
-1.13163e-011
  70
    32
  0
VERTEX
  8
0
  5
A81
 10
-396.538
 20
-1546.24
 30
-1.13165e-011
  70
    32
  0
VERTEX
  8
0
  5
A82
 10
-396.528
 20
-1546.24
 30
-1.13168e-011
  70
    32
  0
VERTEX
  8
0
  5
A83
 10
-396.518
 20
-1546.25
 30
-1.13170e-011
  70
    32
  0
VERTEX
  8
0
  5
A84
 10
-396.508
 20
-1546.26
 30
-1.13172e-011
  70
    32
  0
VERTEX
  8
0
  5
A85
 10
-396.497
 20
-1546.26
 30
-1.13174e-011
  70
    32
  0
VERTEX
  8
0
  5
A86
 10
-396.486
 20
-1546.27
 30
-1.13176e-011
  70
    32
  0
VERTEX
  8
0
  5
A87
 10
-396.476
 20
-1546.27
 30
-1.13178e-011
  70
    32
  0
VERTEX
  8
0
  5
A88
 10
-396.465
 20
-1546.28
 30
-1.13180e-011
  70
    32
  0
VERTEX
  8
0
  5
A89
 10
-396.454
 20
-1546.28
 30
-1.13182e-011
  70
    32
  0
VERTEX
  8
0
  5
A8A
 10
-396.443
 20
-1546.29
 30
-1.13184e-011
  70
    32
  0
VERTEX
  8
0
  5
A8B
 10
-396.431
 20
-1546.29
 30
-1.13187e-011
  70
    32
  0
VERTEX
  8
0
  5
A8C
 10
-396.420
 20
-1546.30
 30
-1.13189e-011
  70
    32
  0
VERTEX
  8
0
  5
A8D
 10
-396.408
 20
-1546.30
 30
-1.13191e-011
  70
    32
  0
VERTEX
  8
0
  5
A8E
 10
-396.397
 20
-1546.31
 30
-1.13193e-011
  70
    32
  0
VERTEX
  8
0
  5
A8F
 10
-396.385
 20
-1546.31
 30
-1.13195e-011
  70
    32
  0
VERTEX
  8
0
  5
A90
 10
-396.373
 20
-1546.32
 30
-1.13197e-011
  70
    32
  0
VERTEX
  8
0
  5
A91
 10
-396.361
 20
-1546.32
 30
-1.13200e-011
  70
    32
  0
VERTEX
  8
0
  5
A92
 10
-396.349
 20
-1546.33
 30
-1.13202e-011
  70
    32
  0
VERTEX
  8
0
  5
A93
 10
-396.337
 20
-1546.33
 30
-1.13204e-011
  70
    32
  0
VERTEX
  8
0
  5
A94
 10
-396.325
 20
-1546.34
 30
-1.13206e-011
  70
    32
  0
VERTEX
  8
0
  5
A95
 10
-396.313
 20
-1546.34
 30
-1.13208e-011
  70
    32
  0
VERTEX
  8
0
  5
A96
 10
-396.300
 20
-1546.35
 30
-1.13210e-011
  70
    32
  0
VERTEX
  8
0
  5
A97
 10
-396.288
 20
-1546.35
 30
-1.13213e-011
  70
    32
  0
VERTEX
  8
0
  5
A98
 10
-396.275
 20
-1546.35
 30
-1.13215e-011
  70
    32
  0
VERTEX
  8
0
  5
A99
 10
-396.263
 20
-1546.36
 30
-1.13217e-011
  70
    32
  0
VERTEX
  8
0
  5
A9A
 10
-396.250
 20
-1546.36
 30
-1.13219e-011
  70
    32
  0
VERTEX
  8
0
  5
A9B
 10
-396.237
 20
-1546.36
 30
-1.13221e-011
  70
    32
  0
VERTEX
  8
0
  5
A9C
 10
-396.224
 20
-1546.37
 30
-1.13223e-011
  70
    32
  0
VERTEX
  8
0
  5
A9D
 10
-396.211
 20
-1546.37
 30
-1.13226e-011
  70
    32
  0
VERTEX
  8
0
  5
A9E
 10
-396.198
 20
-1546.38
 30
-1.13228e-011
  70
    32
  0
VERTEX
  8
0
  5
A9F
 10
-396.185
 20
-1546.38
 30
-1.13230e-011
  70
    32
  0
VERTEX
  8
0
  5
AA0
 10
-396.171
 20
-1546.38
 30
-1.13232e-011
  70
    32
  0
VERTEX
  8
0
  5
AA1
 10
-396.158
 20
-1546.38
 30
-1.13234e-011
  70
    32
  0
VERTEX
  8
0
  5
AA2
 10
-396.145
 20
-1546.39
 30
-1.13236e-011
  70
    32
  0
VERTEX
  8
0
  5
AA3
 10
-396.131
 20
-1546.39
 30
-1.13238e-011
  70
    32
  0
VERTEX
  8
0
  5
AA4
 10
-396.118
 20
-1546.39
 30
-1.13241e-011
  70
    32
  0
VERTEX
  8
0
  5
AA5
 10
-396.104
 20
-1546.40
 30
-1.13243e-011
  70
    32
  0
VERTEX
  8
0
  5
AA6
 10
-396.090
 20
-1546.40
 30
-1.13245e-011
  70
    32
  0
VERTEX
  8
0
  5
AA7
 10
-396.077
 20
-1546.40
 30
-1.13247e-011
  70
    32
  0
VERTEX
  8
0
  5
AA8
 10
-396.063
 20
-1546.40
 30
-1.13249e-011
  70
    32
  0
VERTEX
  8
0
  5
AA9
 10
-396.049
 20
-1546.41
 30
-1.13251e-011
  70
    32
  0
VERTEX
  8
0
  5
AAA
 10
-396.035
 20
-1546.41
 30
-1.13253e-011
  70
    32
  0
VERTEX
  8
0
  5
AAB
 10
-396.021
 20
-1546.41
 30
-1.13255e-011
  70
    32
  0
VERTEX
  8
0
  5
AAC
 10
-396.007
 20
-1546.41
 30
-1.13258e-011
  70
    32
  0
VERTEX
  8
0
  5
AAD
 10
-395.993
 20
-1546.41
 30
-1.13260e-011
  70
    32
  0
VERTEX
  8
0
  5
AAE
 10
-395.979
 20
-1546.42
 30
-1.13262e-011
  70
    32
  0
VERTEX
  8
0
  5
AAF
 10
-395.965
 20
-1546.42
 30
-1.13264e-011
  70
    32
  0
VERTEX
  8
0
  5
AB0
 10
-395.951
 20
-1546.42
 30
-1.13266e-011
  70
    32
  0
VERTEX
  8
0
  5
AB1
 10
-395.937
 20
-1546.42
 30
-1.13268e-011
  70
    32
  0
VERTEX
  8
0
  5
AB2
 10
-395.922
 20
-1546.42
 30
-1.13270e-011
  70
    32
  0
VERTEX
  8
0
  5
AB3
 10
-395.908
 20
-1546.42
 30
-1.13272e-011
  70
    32
  0
VERTEX
  8
0
  5
AB4
 10
-395.894
 20
-1546.42
 30
-1.13274e-011
  70
    32
  0
VERTEX
  8
0
  5
AB5
 10
-395.880
 20
-1546.43
 30
-1.13276e-011
  70
    32
  0
VERTEX
  8
0
  5
AB6
 10
-395.865
 20
-1546.43
 30
-1.13278e-011
  70
    32
  0
VERTEX
  8
0
  5
AB7
 10
-395.851
 20
-1546.43
 30
-1.13280e-011
  70
    32
  0
VERTEX
  8
0
  5
AB8
 10
-395.837
 20
-1546.43
 30
-1.13282e-011
  70
    32
  0
VERTEX
  8
0
  5
AB9
 10
-395.822
 20
-1546.43
 30
-1.13284e-011
  70
    32
  0
VERTEX
  8
0
  5
ABA
 10
-395.808
 20
-1546.43
 30
-1.13286e-011
  70
    32
  0
VERTEX
  8
0
  5
ABB
 10
-395.794
 20
-1546.43
 30
-1.13288e-011
  70
    32
  0
VERTEX
  8
0
  5
ABC
 10
-395.779
 20
-1546.43
 30
-1.13290e-011
  70
    32
  0
VERTEX
  8
0
  5
ABD
 10
-395.765
 20
-1546.43
 30
-1.13292e-011
  70
    32
  0
VERTEX
  8
0
  5
ABE
 10
-395.750
 20
-1546.43
 30
-1.13294e-011
  70
    32
  0
VERTEX
  8
0
  5
ABF
 10
-395.736
 20
-1546.43
 30
-1.13296e-011
  70
    32
  0
VERTEX
  8
0
  5
AC0
 10
-395.722
 20
-1546.43
 30
-1.13297e-011
  70
    32
  0
VERTEX
  8
0
  5
AC1
 10
-395.707
 20
-1546.43
 30
-1.13299e-011
  70
    32
  0
VERTEX
  8
0
  5
AC2
 10
-395.693
 20
-1546.43
 30
-1.13301e-011
  70
    32
  0
VERTEX
  8
0
  5
AC3
 10
-395.678
 20
-1546.43
 30
-1.13303e-011
  70
    32
  0
VERTEX
  8
0
  5
AC4
 10
-395.664
 20
-1546.43
 30
-1.13305e-011
  70
    32
  0
VERTEX
  8
0
  5
AC5
 10
-395.650
 20
-1546.43
 30
-1.13307e-011
  70
    32
  0
VERTEX
  8
0
  5
AC6
 10
-395.635
 20
-1546.43
 30
-1.13308e-011
  70
    32
  0
VERTEX
  8
0
  5
AC7
 10
-395.621
 20
-1546.43
 30
-1.13310e-011
  70
    32
  0
VERTEX
  8
0
  5
AC8
 10
-395.607
 20
-1546.42
 30
-1.13312e-011
  70
    32
  0
VERTEX
  8
0
  5
AC9
 10
-395.592
 20
-1546.42
 30
-1.13314e-011
  70
    32
  0
VERTEX
  8
0
  5
ACA
 10
-395.578
 20
-1546.42
 30
-1.13315e-011
  70
    32
  0
VERTEX
  8
0
  5
ACB
 10
-395.564
 20
-1546.42
 30
-1.13317e-011
  70
    32
  0
VERTEX
  8
0
  5
ACC
 10
-395.550
 20
-1546.42
 30
-1.13319e-011
  70
    32
  0
VERTEX
  8
0
  5
ACD
 10
-395.536
 20
-1546.42
 30
-1.13320e-011
  70
    32
  0
VERTEX
  8
0
  5
ACE
 10
-395.522
 20
-1546.42
 30
-1.13322e-011
  70
    32
  0
VERTEX
  8
0
  5
ACF
 10
-395.508
 20
-1546.41
 30
-1.13324e-011
  70
    32
  0
VERTEX
  8
0
  5
AD0
 10
-395.494
 20
-1546.41
 30
-1.13325e-011
  70
    32
  0
VERTEX
  8
0
  5
AD1
 10
-395.480
 20
-1546.41
 30
-1.13327e-011
  70
    32
  0
VERTEX
  8
0
  5
AD2
 10
-395.466
 20
-1546.41
 30
-1.13328e-011
  70
    32
  0
VERTEX
  8
0
  5
AD3
 10
-395.452
 20
-1546.41
 30
-1.13330e-011
  70
    32
  0
VERTEX
  8
0
  5
AD4
 10
-395.438
 20
-1546.40
 30
-1.13332e-011
  70
    32
  0
VERTEX
  8
0
  5
AD5
 10
-395.424
 20
-1546.40
 30
-1.13333e-011
  70
    32
  0
VERTEX
  8
0
  5
AD6
 10
-395.410
 20
-1546.40
 30
-1.13335e-011
  70
    32
  0
VERTEX
  8
0
  5
AD7
 10
-395.397
 20
-1546.40
 30
-1.13336e-011
  70
    32
  0
VERTEX
  8
0
  5
AD8
 10
-395.383
 20
-1546.39
 30
-1.13337e-011
  70
    32
  0
VERTEX
  8
0
  5
AD9
 10
-395.370
 20
-1546.39
 30
-1.13339e-011
  70
    32
  0
VERTEX
  8
0
  5
ADA
 10
-395.356
 20
-1546.39
 30
-1.13340e-011
  70
    32
  0
VERTEX
  8
0
  5
ADB
 10
-395.343
 20
-1546.38
 30
-1.13342e-011
  70
    32
  0
VERTEX
  8
0
  5
ADC
 10
-395.329
 20
-1546.38
 30
-1.13343e-011
  70
    32
  0
VERTEX
  8
0
  5
ADD
 10
-395.316
 20
-1546.38
 30
-1.13344e-011
  70
    32
  0
VERTEX
  8
0
  5
ADE
 10
-395.303
 20
-1546.38
 30
-1.13346e-011
  70
    32
  0
VERTEX
  8
0
  5
ADF
 10
-395.290
 20
-1546.37
 30
-1.13347e-011
  70
    32
  0
VERTEX
  8
0
  5
AE0
 10
-395.277
 20
-1546.37
 30
-1.13348e-011
  70
    32
  0
VERTEX
  8
0
  5
AE1
 10
-395.264
 20
-1546.36
 30
-1.13349e-011
  70
    32
  0
VERTEX
  8
0
  5
AE2
 10
-395.251
 20
-1546.36
 30
-1.13351e-011
  70
    32
  0
VERTEX
  8
0
  5
AE3
 10
-395.238
 20
-1546.36
 30
-1.13352e-011
  70
    32
  0
VERTEX
  8
0
  5
AE4
 10
-395.225
 20
-1546.35
 30
-1.13353e-011
  70
    32
  0
VERTEX
  8
0
  5
AE5
 10
-395.213
 20
-1546.35
 30
-1.13354e-011
  70
    32
  0
VERTEX
  8
0
  5
AE6
 10
-395.200
 20
-1546.35
 30
-1.13355e-011
  70
    32
  0
VERTEX
  8
0
  5
AE7
 10
-395.188
 20
-1546.34
 30
-1.13356e-011
  70
    32
  0
VERTEX
  8
0
  5
AE8
 10
-395.176
 20
-1546.34
 30
-1.13358e-011
  70
    32
  0
VERTEX
  8
0
  5
AE9
 10
-395.163
 20
-1546.33
 30
-1.13359e-011
  70
    32
  0
VERTEX
  8
0
  5
AEA
 10
-395.151
 20
-1546.33
 30
-1.13360e-011
  70
    32
  0
VERTEX
  8
0
  5
AEB
 10
-395.139
 20
-1546.32
 30
-1.13361e-011
  70
    32
  0
VERTEX
  8
0
  5
AEC
 10
-395.127
 20
-1546.32
 30
-1.13362e-011
  70
    32
  0
VERTEX
  8
0
  5
AED
 10
-395.115
 20
-1546.31
 30
-1.13363e-011
  70
    32
  0
VERTEX
  8
0
  5
AEE
 10
-395.104
 20
-1546.31
 30
-1.13363e-011
  70
    32
  0
VERTEX
  8
0
  5
AEF
 10
-395.092
 20
-1546.30
 30
-1.13364e-011
  70
    32
  0
VERTEX
  8
0
  5
AF0
 10
-395.081
 20
-1546.30
 30
-1.13365e-011
  70
    32
  0
VERTEX
  8
0
  5
AF1
 10
-395.069
 20
-1546.29
 30
-1.13366e-011
  70
    32
  0
VERTEX
  8
0
  5
AF2
 10
-395.058
 20
-1546.29
 30
-1.13367e-011
  70
    32
  0
VERTEX
  8
0
  5
AF3
 10
-395.047
 20
-1546.28
 30
-1.13368e-011
  70
    32
  0
VERTEX
  8
0
  5
AF4
 10
-395.036
 20
-1546.28
 30
-1.13369e-011
  70
    32
  0
VERTEX
  8
0
  5
AF5
 10
-395.025
 20
-1546.27
 30
-1.13369e-011
  70
    32
  0
VERTEX
  8
0
  5
AF6
 10
-395.014
 20
-1546.27
 30
-1.13370e-011
  70
    32
  0
VERTEX
  8
0
  5
AF7
 10
-395.004
 20
-1546.26
 30
-1.13371e-011
  70
    32
  0
VERTEX
  8
0
  5
AF8
 10
-394.993
 20
-1546.26
 30
-1.13371e-011
  70
    32
  0
VERTEX
  8
0
  5
AF9
 10
-394.983
 20
-1546.25
 30
-1.13372e-011
  70
    32
  0
VERTEX
  8
0
  5
AFA
 10
-394.973
 20
-1546.24
 30
-1.13373e-011
  70
    32
  0
SEQEND
  8
0
  5
AFB
  0
LINE
  5
776
  8
0
  6
CONTINUOUS
 10
-396.60519231794098
 20
-1546.1947202162719
 30
-0.0000000000108603
 11
-396.60519231794041
 21
-443.92433596385212
 31
0.0000000000028763
210
0.000000000000008
220
0.8164965809277113
230
0.5773502691896467
  0
LINE
  5
777
  8
0
  6
CONTINUOUS
 10
-390.2502245342165
 20
-1543.517705940822
 30
-0.000000000011024
 11
-394.97251430103358
 21
-1546.2441212088861
 31
-0.00000000001111
210
0.000000000000008
220
0.8164965809277113
230
0.5773502691896467
  0
LINE
  5
778
  8
0
  6
CONTINUOUS
 10
-394.97251430103358
 20
-1546.2441212088861
 30
-0.00000000001111
 11
-394.97251430103307
 21
-522.13385909361364
 31
0.0000000000019086
210
0.000000000000008
220
0.8164965809277113
230
0.5773502691896467
  0
LINE
  5
779
  8
0
  6
CONTINUOUS
 10
-389.86131580456367
 20
-1544.4770894234121
 30
-0.0000000000111552
 11
-390.25022453421639
 21
-1544.252552863657
 31
-0.0000000000109197
210
0.000000000000008
220
0.8164965809277113
230
0.5773502691896467
  0
LINE
  5
77A
  8
0
  6
CONTINUOUS
 10
-390.25022453421639
 20
-1544.252552863657
 30
-0.0000000000109197
 11
-390.25022453421587
 21
-519.63099345746355
 31
0.0000000000019348
210
0.000000000000008
220
0.8164965809277113
230
0.5773502691896467
  0
LINE
  5
77B
  8
0
  6
CONTINUOUS
 10
-388.44710224219091
 20
-1543.660592842484
 30
-0.0000000000108224
 11
-389.86131580456367
 21
-1544.4770894234121
 31
-0.0000000000111552
210
0.000000000000008
220
0.8164965809277113
230
0.5773502691896467
  0
LINE
  5
77C
  8
0
  6
CONTINUOUS
 10
-389.86131580456367
 20
-1544.4770894234121
 30
-0.0000000000111552
 11
-389.86131580456339
 21
-442.206705170992
 31
0.0000000000028657
210
0.000000000000008
220
0.8164965809277113
230
0.5773502691896467
  0
POLYLINE
  5
77D
  8
0
  6
CONTINUOUS
 10
-388.44710224219062
 20
-1543.660592842484
 30
-0.000000000011277
 66
     1
 70
     8
  0
VERTEX
  8
0
  5
AFC
 10
-388.447
 20
-1543.66
 30
-1.12770e-011
  70
    32
  0
VERTEX
  8
0
  5
AFD
 10
-388.443
 20
-1543.66
 30
-1.12770e-011
  70
    32
  0
VERTEX
  8
0
  5
AFE
 10
-388.438
 20
-1543.66
 30
-1.12770e-011
  70
    32
  0
VERTEX
  8
0
  5
AFF
 10
-388.434
 20
-1543.65
 30
-1.12771e-011
  70
    32
  0
VERTEX
  8
0
  5
B00
 10
-388.430
 20
-1543.65
 30
-1.12771e-011
  70
    32
  0
VERTEX
  8
0
  5
B01
 10
-388.426
 20
-1543.65
 30
-1.12771e-011
  70
    32
  0
VERTEX
  8
0
  5
B02
 10
-388.422
 20
-1543.65
 30
-1.12771e-011
  70
    32
  0
VERTEX
  8
0
  5
B03
 10
-388.417
 20
-1543.64
 30
-1.12771e-011
  70
    32
  0
VERTEX
  8
0
  5
B04
 10
-388.413
 20
-1543.64
 30
-1.12772e-011
  70
    32
  0
VERTEX
  8
0
  5
B05
 10
-388.409
 20
-1543.64
 30
-1.12772e-011
  70
    32
  0
VERTEX
  8
0
  5
B06
 10
-388.405
 20
-1543.63
 30
-1.12772e-011
  70
    32
  0
VERTEX
  8
0
  5
B07
 10
-388.401
 20
-1543.63
 30
-1.12772e-011
  70
    32
  0
VERTEX
  8
0
  5
B08
 10
-388.397
 20
-1543.63
 30
-1.12772e-011
  70
    32
  0
VERTEX
  8
0
  5
B09
 10
-388.393
 20
-1543.63
 30
-1.12773e-011
  70
    32
  0
VERTEX
  8
0
  5
B0A
 10
-388.389
 20
-1543.62
 30
-1.12773e-011
  70
    32
  0
VERTEX
  8
0
  5
B0B
 10
-388.385
 20
-1543.62
 30
-1.12773e-011
  70
    32
  0
VERTEX
  8
0
  5
B0C
 10
-388.381
 20
-1543.62
 30
-1.12773e-011
  70
    32
  0
VERTEX
  8
0
  5
B0D
 10
-388.377
 20
-1543.62
 30
-1.12773e-011
  70
    32
  0
VERTEX
  8
0
  5
B0E
 10
-388.373
 20
-1543.61
 30
-1.12773e-011
  70
    32
  0
VERTEX
  8
0
  5
B0F
 10
-388.370
 20
-1543.61
 30
-1.12774e-011
  70
    32
  0
VERTEX
  8
0
  5
B10
 10
-388.366
 20
-1543.61
 30
-1.12774e-011
  70
    32
  0
VERTEX
  8
0
  5
B11
 10
-388.362
 20
-1543.60
 30
-1.12774e-011
  70
    32
  0
VERTEX
  8
0
  5
B12
 10
-388.358
 20
-1543.60
 30
-1.12774e-011
  70
    32
  0
VERTEX
  8
0
  5
B13
 10
-388.355
 20
-1543.60
 30
-1.12774e-011
  70
    32
  0
VERTEX
  8
0
  5
B14
 10
-388.351
 20
-1543.60
 30
-1.12774e-011
  70
    32
  0
VERTEX
  8
0
  5
B15
 10
-388.347
 20
-1543.59
 30
-1.12774e-011
  70
    32
  0
VERTEX
  8
0
  5
B16
 10
-388.344
 20
-1543.59
 30
-1.12774e-011
  70
    32
  0
VERTEX
  8
0
  5
B17
 10
-388.340
 20
-1543.59
 30
-1.12775e-011
  70
    32
  0
VERTEX
  8
0
  5
B18
 10
-388.337
 20
-1543.58
 30
-1.12775e-011
  70
    32
  0
VERTEX
  8
0
  5
B19
 10
-388.333
 20
-1543.58
 30
-1.12775e-011
  70
    32
  0
VERTEX
  8
0
  5
B1A
 10
-388.330
 20
-1543.58
 30
-1.12775e-011
  70
    32
  0
VERTEX
  8
0
  5
B1B
 10
-388.326
 20
-1543.58
 30
-1.12775e-011
  70
    32
  0
VERTEX
  8
0
  5
B1C
 10
-388.323
 20
-1543.57
 30
-1.12775e-011
  70
    32
  0
VERTEX
  8
0
  5
B1D
 10
-388.319
 20
-1543.57
 30
-1.12775e-011
  70
    32
  0
VERTEX
  8
0
  5
B1E
 10
-388.316
 20
-1543.57
 30
-1.12775e-011
  70
    32
  0
VERTEX
  8
0
  5
B1F
 10
-388.313
 20
-1543.56
 30
-1.12775e-011
  70
    32
  0
VERTEX
  8
0
  5
B20
 10
-388.309
 20
-1543.56
 30
-1.12775e-011
  70
    32
  0
VERTEX
  8
0
  5
B21
 10
-388.306
 20
-1543.56
 30
-1.12775e-011
  70
    32
  0
VERTEX
  8
0
  5
B22
 10
-388.303
 20
-1543.56
 30
-1.12775e-011
  70
    32
  0
VERTEX
  8
0
  5
B23
 10
-388.300
 20
-1543.55
 30
-1.12775e-011
  70
    32
  0
VERTEX
  8
0
  5
B24
 10
-388.296
 20
-1543.55
 30
-1.12775e-011
  70
    32
  0
VERTEX
  8
0
  5
B25
 10
-388.293
 20
-1543.55
 30
-1.12775e-011
  70
    32
  0
VERTEX
  8
0
  5
B26
 10
-388.290
 20
-1543.54
 30
-1.12775e-011
  70
    32
  0
VERTEX
  8
0
  5
B27
 10
-388.287
 20
-1543.54
 30
-1.12775e-011
  70
    32
  0
VERTEX
  8
0
  5
B28
 10
-388.284
 20
-1543.54
 30
-1.12775e-011
  70
    32
  0
VERTEX
  8
0
  5
B29
 10
-388.281
 20
-1543.53
 30
-1.12775e-011
  70
    32
  0
VERTEX
  8
0
  5
B2A
 10
-388.278
 20
-1543.53
 30
-1.12775e-011
  70
    32
  0
VERTEX
  8
0
  5
B2B
 10
-388.275
 20
-1543.53
 30
-1.12775e-011
  70
    32
  0
VERTEX
  8
0
  5
B2C
 10
-388.272
 20
-1543.52
 30
-1.12775e-011
  70
    32
  0
VERTEX
  8
0
  5
B2D
 10
-388.269
 20
-1543.52
 30
-1.12775e-011
  70
    32
  0
VERTEX
  8
0
  5
B2E
 10
-388.267
 20
-1543.52
 30
-1.12775e-011
  70
    32
  0
VERTEX
  8
0
  5
B2F
 10
-388.264
 20
-1543.52
 30
-1.12775e-011
  70
    32
  0
VERTEX
  8
0
  5
B30
 10
-388.261
 20
-1543.51
 30
-1.12775e-011
  70
    32
  0
VERTEX
  8
0
  5
B31
 10
-388.258
 20
-1543.51
 30
-1.12775e-011
  70
    32
  0
VERTEX
  8
0
  5
B32
 10
-388.256
 20
-1543.51
 30
-1.12775e-011
  70
    32
  0
VERTEX
  8
0
  5
B33
 10
-388.253
 20
-1543.50
 30
-1.12775e-011
  70
    32
  0
VERTEX
  8
0
  5
B34
 10
-388.250
 20
-1543.50
 30
-1.12775e-011
  70
    32
  0
VERTEX
  8
0
  5
B35
 10
-388.248
 20
-1543.50
 30
-1.12775e-011
  70
    32
  0
VERTEX
  8
0
  5
B36
 10
-388.245
 20
-1543.49
 30
-1.12775e-011
  70
    32
  0
VERTEX
  8
0
  5
B37
 10
-388.243
 20
-1543.49
 30
-1.12775e-011
  70
    32
  0
VERTEX
  8
0
  5
B38
 10
-388.240
 20
-1543.49
 30
-1.12775e-011
  70
    32
  0
VERTEX
  8
0
  5
B39
 10
-388.238
 20
-1543.48
 30
-1.12775e-011
  70
    32
  0
VERTEX
  8
0
  5
B3A
 10
-388.235
 20
-1543.48
 30
-1.12775e-011
  70
    32
  0
VERTEX
  8
0
  5
B3B
 10
-388.233
 20
-1543.48
 30
-1.12774e-011
  70
    32
  0
VERTEX
  8
0
  5
B3C
 10
-388.230
 20
-1543.47
 30
-1.12774e-011
  70
    32
  0
VERTEX
  8
0
  5
B3D
 10
-388.228
 20
-1543.47
 30
-1.12774e-011
  70
    32
  0
VERTEX
  8
0
  5
B3E
 10
-388.226
 20
-1543.47
 30
-1.12774e-011
  70
    32
  0
VERTEX
  8
0
  5
B3F
 10
-388.223
 20
-1543.46
 30
-1.12774e-011
  70
    32
  0
VERTEX
  8
0
  5
B40
 10
-388.221
 20
-1543.46
 30
-1.12774e-011
  70
    32
  0
VERTEX
  8
0
  5
B41
 10
-388.219
 20
-1543.46
 30
-1.12774e-011
  70
    32
  0
VERTEX
  8
0
  5
B42
 10
-388.217
 20
-1543.45
 30
-1.12774e-011
  70
    32
  0
VERTEX
  8
0
  5
B43
 10
-388.215
 20
-1543.45
 30
-1.12773e-011
  70
    32
  0
VERTEX
  8
0
  5
B44
 10
-388.213
 20
-1543.45
 30
-1.12773e-011
  70
    32
  0
VERTEX
  8
0
  5
B45
 10
-388.211
 20
-1543.44
 30
-1.12773e-011
  70
    32
  0
VERTEX
  8
0
  5
B46
 10
-388.209
 20
-1543.44
 30
-1.12773e-011
  70
    32
  0
VERTEX
  8
0
  5
B47
 10
-388.207
 20
-1543.44
 30
-1.12773e-011
  70
    32
  0
VERTEX
  8
0
  5
B48
 10
-388.205
 20
-1543.43
 30
-1.12773e-011
  70
    32
  0
VERTEX
  8
0
  5
B49
 10
-388.203
 20
-1543.43
 30
-1.12772e-011
  70
    32
  0
VERTEX
  8
0
  5
B4A
 10
-388.201
 20
-1543.43
 30
-1.12772e-011
  70
    32
  0
VERTEX
  8
0
  5
B4B
 10
-388.199
 20
-1543.42
 30
-1.12772e-011
  70
    32
  0
VERTEX
  8
0
  5
B4C
 10
-388.197
 20
-1543.42
 30
-1.12772e-011
  70
    32
  0
VERTEX
  8
0
  5
B4D
 10
-388.196
 20
-1543.42
 30
-1.12772e-011
  70
    32
  0
VERTEX
  8
0
  5
B4E
 10
-388.194
 20
-1543.41
 30
-1.12771e-011
  70
    32
  0
VERTEX
  8
0
  5
B4F
 10
-388.192
 20
-1543.41
 30
-1.12771e-011
  70
    32
  0
VERTEX
  8
0
  5
B50
 10
-388.190
 20
-1543.41
 30
-1.12771e-011
  70
    32
  0
VERTEX
  8
0
  5
B51
 10
-388.189
 20
-1543.40
 30
-1.12771e-011
  70
    32
  0
VERTEX
  8
0
  5
B52
 10
-388.187
 20
-1543.40
 30
-1.12771e-011
  70
    32
  0
VERTEX
  8
0
  5
B53
 10
-388.186
 20
-1543.40
 30
-1.12770e-011
  70
    32
  0
VERTEX
  8
0
  5
B54
 10
-388.184
 20
-1543.39
 30
-1.12770e-011
  70
    32
  0
VERTEX
  8
0
  5
B55
 10
-388.183
 20
-1543.39
 30
-1.12770e-011
  70
    32
  0
VERTEX
  8
0
  5
B56
 10
-388.181
 20
-1543.39
 30
-1.12770e-011
  70
    32
  0
VERTEX
  8
0
  5
B57
 10
-388.180
 20
-1543.38
 30
-1.12769e-011
  70
    32
  0
VERTEX
  8
0
  5
B58
 10
-388.179
 20
-1543.38
 30
-1.12769e-011
  70
    32
  0
VERTEX
  8
0
  5
B59
 10
-388.177
 20
-1543.38
 30
-1.12769e-011
  70
    32
  0
VERTEX
  8
0
  5
B5A
 10
-388.176
 20
-1543.37
 30
-1.12768e-011
  70
    32
  0
VERTEX
  8
0
  5
B5B
 10
-388.175
 20
-1543.37
 30
-1.12768e-011
  70
    32
  0
VERTEX
  8
0
  5
B5C
 10
-388.173
 20
-1543.36
 30
-1.12768e-011
  70
    32
  0
VERTEX
  8
0
  5
B5D
 10
-388.172
 20
-1543.36
 30
-1.12768e-011
  70
    32
  0
VERTEX
  8
0
  5
B5E
 10
-388.171
 20
-1543.36
 30
-1.12767e-011
  70
    32
  0
VERTEX
  8
0
  5
B5F
 10
-388.170
 20
-1543.35
 30
-1.12767e-011
  70
    32
  0
VERTEX
  8
0
  5
B60
 10
-388.169
 20
-1543.35
 30
-1.12767e-011
  70
    32
  0
VERTEX
  8
0
  5
B61
 10
-388.168
 20
-1543.35
 30
-1.12766e-011
  70
    32
  0
VERTEX
  8
0
  5
B62
 10
-388.167
 20
-1543.34
 30
-1.12766e-011
  70
    32
  0
VERTEX
  8
0
  5
B63
 10
-388.166
 20
-1543.34
 30
-1.12766e-011
  70
    32
  0
VERTEX
  8
0
  5
B64
 10
-388.165
 20
-1543.34
 30
-1.12765e-011
  70
    32
  0
VERTEX
  8
0
  5
B65
 10
-388.164
 20
-1543.33
 30
-1.12765e-011
  70
    32
  0
VERTEX
  8
0
  5
B66
 10
-388.163
 20
-1543.33
 30
-1.12765e-011
  70
    32
  0
VERTEX
  8
0
  5
B67
 10
-388.162
 20
-1543.33
 30
-1.12764e-011
  70
    32
  0
VERTEX
  8
0
  5
B68
 10
-388.162
 20
-1543.32
 30
-1.12764e-011
  70
    32
  0
VERTEX
  8
0
  5
B69
 10
-388.161
 20
-1543.32
 30
-1.12764e-011
  70
    32
  0
VERTEX
  8
0
  5
B6A
 10
-388.160
 20
-1543.32
 30
-1.12763e-011
  70
    32
  0
VERTEX
  8
0
  5
B6B
 10
-388.160
 20
-1543.31
 30
-1.12763e-011
  70
    32
  0
VERTEX
  8
0
  5
B6C
 10
-388.159
 20
-1543.31
 30
-1.12763e-011
  70
    32
  0
VERTEX
  8
0
  5
B6D
 10
-388.158
 20
-1543.31
 30
-1.12762e-011
  70
    32
  0
VERTEX
  8
0
  5
B6E
 10
-388.158
 20
-1543.30
 30
-1.12762e-011
  70
    32
  0
VERTEX
  8
0
  5
B6F
 10
-388.157
 20
-1543.30
 30
-1.12761e-011
  70
    32
  0
VERTEX
  8
0
  5
B70
 10
-388.157
 20
-1543.29
 30
-1.12761e-011
  70
    32
  0
VERTEX
  8
0
  5
B71
 10
-388.156
 20
-1543.29
 30
-1.12761e-011
  70
    32
  0
VERTEX
  8
0
  5
B72
 10
-388.156
 20
-1543.29
 30
-1.12760e-011
  70
    32
  0
VERTEX
  8
0
  5
B73
 10
-388.156
 20
-1543.28
 30
-1.12760e-011
  70
    32
  0
VERTEX
  8
0
  5
B74
 10
-388.155
 20
-1543.28
 30
-1.12759e-011
  70
    32
  0
VERTEX
  8
0
  5
B75
 10
-388.155
 20
-1543.28
 30
-1.12759e-011
  70
    32
  0
VERTEX
  8
0
  5
B76
 10
-388.155
 20
-1543.27
 30
-1.12759e-011
  70
    32
  0
VERTEX
  8
0
  5
B77
 10
-388.155
 20
-1543.27
 30
-1.12758e-011
  70
    32
  0
VERTEX
  8
0
  5
B78
 10
-388.155
 20
-1543.27
 30
-1.12758e-011
  70
    32
  0
VERTEX
  8
0
  5
B79
 10
-388.154
 20
-1543.26
 30
-1.12757e-011
  70
    32
  0
VERTEX
  8
0
  5
B7A
 10
-388.154
 20
-1543.26
 30
-1.12757e-011
  70
    32
  0
VERTEX
  8
0
  5
B7B
 10
-388.154
 20
-1543.26
 30
-1.12756e-011
  70
    32
  0
VERTEX
  8
0
  5
B7C
 10
-388.154
 20
-1543.25
 30
-1.12756e-011
  70
    32
  0
SEQEND
  8
0
  5
B7D
  0
LINE
  5
77E
  8
0
  6
CONTINUOUS
 10
-388.44710224219091
 20
-1543.660592842484
 30
-0.0000000000108224
 11
-388.44710224219023
 21
-519.77388035912566
 31
0.0000000000019091
210
0.000000000000008
220
0.8164965809277113
230
0.5773502691896467
  0
POLYLINE
  5
77F
  8
0
  6
CONTINUOUS
 10
-416.89863410847153
 20
-428.50450473063199
 30
0.0000000000033434
 66
     1
 70
     8
  0
VERTEX
  8
0
  5
B7E
 10
-416.899
 20
-428.505
 30
3.34344e-012
  70
    32
  0
VERTEX
  8
0
  5
B7F
 10
-416.903
 20
-428.507
 30
3.34346e-012
  70
    32
  0
VERTEX
  8
0
  5
B80
 10
-416.907
 20
-428.510
 30
3.34349e-012
  70
    32
  0
VERTEX
  8
0
  5
B81
 10
-416.912
 20
-428.512
 30
3.34351e-012
  70
    32
  0
VERTEX
  8
0
  5
B82
 10
-416.916
 20
-428.515
 30
3.34353e-012
  70
    32
  0
VERTEX
  8
0
  5
B83
 10
-416.920
 20
-428.518
 30
3.34355e-012
  70
    32
  0
VERTEX
  8
0
  5
B84
 10
-416.924
 20
-428.520
 30
3.34357e-012
  70
    32
  0
VERTEX
  8
0
  5
B85
 10
-416.928
 20
-428.523
 30
3.34359e-012
  70
    32
  0
VERTEX
  8
0
  5
B86
 10
-416.932
 20
-428.526
 30
3.34361e-012
  70
    32
  0
VERTEX
  8
0
  5
B87
 10
-416.936
 20
-428.529
 30
3.34362e-012
  70
    32
  0
VERTEX
  8
0
  5
B88
 10
-416.940
 20
-428.532
 30
3.34364e-012
  70
    32
  0
VERTEX
  8
0
  5
B89
 10
-416.944
 20
-428.535
 30
3.34365e-012
  70
    32
  0
VERTEX
  8
0
  5
B8A
 10
-416.947
 20
-428.537
 30
3.34367e-012
  70
    32
  0
VERTEX
  8
0
  5
B8B
 10
-416.951
 20
-428.540
 30
3.34368e-012
  70
    32
  0
VERTEX
  8
0
  5
B8C
 10
-416.955
 20
-428.543
 30
3.34369e-012
  70
    32
  0
VERTEX
  8
0
  5
B8D
 10
-416.958
 20
-428.546
 30
3.34370e-012
  70
    32
  0
VERTEX
  8
0
  5
B8E
 10
-416.962
 20
-428.549
 30
3.34371e-012
  70
    32
  0
VERTEX
  8
0
  5
B8F
 10
-416.965
 20
-428.552
 30
3.34372e-012
  70
    32
  0
VERTEX
  8
0
  5
B90
 10
-416.969
 20
-428.555
 30
3.34372e-012
  70
    32
  0
VERTEX
  8
0
  5
B91
 10
-416.972
 20
-428.558
 30
3.34373e-012
  70
    32
  0
VERTEX
  8
0
  5
B92
 10
-416.975
 20
-428.561
 30
3.34373e-012
  70
    32
  0
VERTEX
  8
0
  5
B93
 10
-416.979
 20
-428.564
 30
3.34374e-012
  70
    32
  0
VERTEX
  8
0
  5
B94
 10
-416.982
 20
-428.568
 30
3.34374e-012
  70
    32
  0
VERTEX
  8
0
  5
B95
 10
-416.985
 20
-428.571
 30
3.34374e-012
  70
    32
  0
VERTEX
  8
0
  5
B96
 10
-416.988
 20
-428.574
 30
3.34374e-012
  70
    32
  0
VERTEX
  8
0
  5
B97
 10
-416.991
 20
-428.577
 30
3.34374e-012
  70
    32
  0
VERTEX
  8
0
  5
B98
 10
-416.994
 20
-428.580
 30
3.34374e-012
  70
    32
  0
VERTEX
  8
0
  5
B99
 10
-416.997
 20
-428.583
 30
3.34373e-012
  70
    32
  0
VERTEX
  8
0
  5
B9A
 10
-416.999
 20
-428.587
 30
3.34373e-012
  70
    32
  0
VERTEX
  8
0
  5
B9B
 10
-417.002
 20
-428.590
 30
3.34373e-012
  70
    32
  0
VERTEX
  8
0
  5
B9C
 10
-417.005
 20
-428.593
 30
3.34372e-012
  70
    32
  0
VERTEX
  8
0
  5
B9D
 10
-417.007
 20
-428.597
 30
3.34371e-012
  70
    32
  0
VERTEX
  8
0
  5
B9E
 10
-417.010
 20
-428.600
 30
3.34370e-012
  70
    32
  0
VERTEX
  8
0
  5
B9F
 10
-417.012
 20
-428.603
 30
3.34369e-012
  70
    32
  0
VERTEX
  8
0
  5
BA0
 10
-417.015
 20
-428.606
 30
3.34368e-012
  70
    32
  0
VERTEX
  8
0
  5
BA1
 10
-417.017
 20
-428.610
 30
3.34367e-012
  70
    32
  0
VERTEX
  8
0
  5
BA2
 10
-417.019
 20
-428.613
 30
3.34366e-012
  70
    32
  0
VERTEX
  8
0
  5
BA3
 10
-417.022
 20
-428.617
 30
3.34365e-012
  70
    32
  0
VERTEX
  8
0
  5
BA4
 10
-417.024
 20
-428.620
 30
3.34363e-012
  70
    32
  0
VERTEX
  8
0
  5
BA5
 10
-417.026
 20
-428.623
 30
3.34362e-012
  70
    32
  0
VERTEX
  8
0
  5
BA6
 10
-417.028
 20
-428.627
 30
3.34360e-012
  70
    32
  0
VERTEX
  8
0
  5
BA7
 10
-417.030
 20
-428.630
 30
3.34358e-012
  70
    32
  0
VERTEX
  8
0
  5
BA8
 10
-417.032
 20
-428.634
 30
3.34356e-012
  70
    32
  0
VERTEX
  8
0
  5
BA9
 10
-417.033
 20
-428.637
 30
3.34354e-012
  70
    32
  0
VERTEX
  8
0
  5
BAA
 10
-417.035
 20
-428.641
 30
3.34352e-012
  70
    32
  0
VERTEX
  8
0
  5
BAB
 10
-417.037
 20
-428.644
 30
3.34350e-012
  70
    32
  0
VERTEX
  8
0
  5
BAC
 10
-417.038
 20
-428.648
 30
3.34347e-012
  70
    32
  0
VERTEX
  8
0
  5
BAD
 10
-417.040
 20
-428.651
 30
3.34345e-012
  70
    32
  0
VERTEX
  8
0
  5
BAE
 10
-417.041
 20
-428.655
 30
3.34343e-012
  70
    32
  0
VERTEX
  8
0
  5
BAF
 10
-417.043
 20
-428.658
 30
3.34340e-012
  70
    32
  0
VERTEX
  8
0
  5
BB0
 10
-417.044
 20
-428.662
 30
3.34337e-012
  70
    32
  0
VERTEX
  8
0
  5
BB1
 10
-417.045
 20
-428.665
 30
3.34334e-012
  70
    32
  0
VERTEX
  8
0
  5
BB2
 10
-417.046
 20
-428.669
 30
3.34331e-012
  70
    32
  0
VERTEX
  8
0
  5
BB3
 10
-417.048
 20
-428.672
 30
3.34328e-012
  70
    32
  0
VERTEX
  8
0
  5
BB4
 10
-417.049
 20
-428.676
 30
3.34325e-012
  70
    32
  0
VERTEX
  8
0
  5
BB5
 10
-417.050
 20
-428.679
 30
3.34322e-012
  70
    32
  0
VERTEX
  8
0
  5
BB6
 10
-417.050
 20
-428.683
 30
3.34319e-012
  70
    32
  0
VERTEX
  8
0
  5
BB7
 10
-417.051
 20
-428.687
 30
3.34315e-012
  70
    32
  0
VERTEX
  8
0
  5
BB8
 10
-417.052
 20
-428.690
 30
3.34312e-012
  70
    32
  0
VERTEX
  8
0
  5
BB9
 10
-417.053
 20
-428.694
 30
3.34308e-012
  70
    32
  0
VERTEX
  8
0
  5
BBA
 10
-417.053
 20
-428.697
 30
3.34304e-012
  70
    32
  0
VERTEX
  8
0
  5
BBB
 10
-417.054
 20
-428.701
 30
3.34300e-012
  70
    32
  0
VERTEX
  8
0
  5
BBC
 10
-417.054
 20
-428.705
 30
3.34296e-012
  70
    32
  0
VERTEX
  8
0
  5
BBD
 10
-417.055
 20
-428.708
 30
3.34292e-012
  70
    32
  0
VERTEX
  8
0
  5
BBE
 10
-417.055
 20
-428.712
 30
3.34288e-012
  70
    32
  0
VERTEX
  8
0
  5
BBF
 10
-417.055
 20
-428.715
 30
3.34284e-012
  70
    32
  0
VERTEX
  8
0
  5
BC0
 10
-417.056
 20
-428.719
 30
3.34280e-012
  70
    32
  0
VERTEX
  8
0
  5
BC1
 10
-417.056
 20
-428.723
 30
3.34275e-012
  70
    32
  0
VERTEX
  8
0
  5
BC2
 10
-417.056
 20
-428.726
 30
3.34271e-012
  70
    32
  0
VERTEX
  8
0
  5
BC3
 10
-417.056
 20
-428.730
 30
3.34266e-012
  70
    32
  0
VERTEX
  8
0
  5
BC4
 10
-417.056
 20
-428.733
 30
3.34261e-012
  70
    32
  0
VERTEX
  8
0
  5
BC5
 10
-417.055
 20
-428.737
 30
3.34257e-012
  70
    32
  0
VERTEX
  8
0
  5
BC6
 10
-417.055
 20
-428.741
 30
3.34252e-012
  70
    32
  0
VERTEX
  8
0
  5
BC7
 10
-417.055
 20
-428.744
 30
3.34247e-012
  70
    32
  0
VERTEX
  8
0
  5
BC8
 10
-417.055
 20
-428.748
 30
3.34242e-012
  70
    32
  0
VERTEX
  8
0
  5
BC9
 10
-417.054
 20
-428.751
 30
3.34236e-012
  70
    32
  0
VERTEX
  8
0
  5
BCA
 10
-417.054
 20
-428.755
 30
3.34231e-012
  70
    32
  0
VERTEX
  8
0
  5
BCB
 10
-417.053
 20
-428.759
 30
3.34226e-012
  70
    32
  0
VERTEX
  8
0
  5
BCC
 10
-417.052
 20
-428.762
 30
3.34220e-012
  70
    32
  0
VERTEX
  8
0
  5
BCD
 10
-417.052
 20
-428.766
 30
3.34215e-012
  70
    32
  0
VERTEX
  8
0
  5
BCE
 10
-417.051
 20
-428.769
 30
3.34209e-012
  70
    32
  0
VERTEX
  8
0
  5
BCF
 10
-417.050
 20
-428.773
 30
3.34203e-012
  70
    32
  0
VERTEX
  8
0
  5
BD0
 10
-417.049
 20
-428.777
 30
3.34198e-012
  70
    32
  0
VERTEX
  8
0
  5
BD1
 10
-417.048
 20
-428.780
 30
3.34192e-012
  70
    32
  0
VERTEX
  8
0
  5
BD2
 10
-417.047
 20
-428.784
 30
3.34186e-012
  70
    32
  0
VERTEX
  8
0
  5
BD3
 10
-417.046
 20
-428.787
 30
3.34180e-012
  70
    32
  0
VERTEX
  8
0
  5
BD4
 10
-417.044
 20
-428.791
 30
3.34174e-012
  70
    32
  0
VERTEX
  8
0
  5
BD5
 10
-417.043
 20
-428.794
 30
3.34167e-012
  70
    32
  0
VERTEX
  8
0
  5
BD6
 10
-417.042
 20
-428.798
 30
3.34161e-012
  70
    32
  0
VERTEX
  8
0
  5
BD7
 10
-417.040
 20
-428.801
 30
3.34155e-012
  70
    32
  0
VERTEX
  8
0
  5
BD8
 10
-417.039
 20
-428.805
 30
3.34148e-012
  70
    32
  0
VERTEX
  8
0
  5
BD9
 10
-417.037
 20
-428.808
 30
3.34142e-012
  70
    32
  0
VERTEX
  8
0
  5
BDA
 10
-417.036
 20
-428.812
 30
3.34135e-012
  70
    32
  0
VERTEX
  8
0
  5
BDB
 10
-417.034
 20
-428.815
 30
3.34129e-012
  70
    32
  0
VERTEX
  8
0
  5
BDC
 10
-417.032
 20
-428.819
 30
3.34122e-012
  70
    32
  0
VERTEX
  8
0
  5
BDD
 10
-417.030
 20
-428.822
 30
3.34115e-012
  70
    32
  0
VERTEX
  8
0
  5
BDE
 10
-417.028
 20
-428.826
 30
3.34108e-012
  70
    32
  0
VERTEX
  8
0
  5
BDF
 10
-417.026
 20
-428.829
 30
3.34101e-012
  70
    32
  0
VERTEX
  8
0
  5
BE0
 10
-417.024
 20
-428.832
 30
3.34094e-012
  70
    32
  0
VERTEX
  8
0
  5
BE1
 10
-417.022
 20
-428.836
 30
3.34087e-012
  70
    32
  0
VERTEX
  8
0
  5
BE2
 10
-417.020
 20
-428.839
 30
3.34080e-012
  70
    32
  0
VERTEX
  8
0
  5
BE3
 10
-417.018
 20
-428.843
 30
3.34072e-012
  70
    32
  0
VERTEX
  8
0
  5
BE4
 10
-417.015
 20
-428.846
 30
3.34065e-012
  70
    32
  0
VERTEX
  8
0
  5
BE5
 10
-417.013
 20
-428.849
 30
3.34058e-012
  70
    32
  0
VERTEX
  8
0
  5
BE6
 10
-417.011
 20
-428.853
 30
3.34050e-012
  70
    32
  0
VERTEX
  8
0
  5
BE7
 10
-417.008
 20
-428.856
 30
3.34043e-012
  70
    32
  0
VERTEX
  8
0
  5
BE8
 10
-417.006
 20
-428.859
 30
3.34035e-012
  70
    32
  0
VERTEX
  8
0
  5
BE9
 10
-417.003
 20
-428.862
 30
3.34027e-012
  70
    32
  0
VERTEX
  8
0
  5
BEA
 10
-417.000
 20
-428.866
 30
3.34020e-012
  70
    32
  0
VERTEX
  8
0
  5
BEB
 10
-416.997
 20
-428.869
 30
3.34012e-012
  70
    32
  0
VERTEX
  8
0
  5
BEC
 10
-416.995
 20
-428.872
 30
3.34004e-012
  70
    32
  0
VERTEX
  8
0
  5
BED
 10
-416.992
 20
-428.875
 30
3.33996e-012
  70
    32
  0
VERTEX
  8
0
  5
BEE
 10
-416.989
 20
-428.879
 30
3.33988e-012
  70
    32
  0
VERTEX
  8
0
  5
BEF
 10
-416.986
 20
-428.882
 30
3.33980e-012
  70
    32
  0
VERTEX
  8
0
  5
BF0
 10
-416.983
 20
-428.885
 30
3.33972e-012
  70
    32
  0
VERTEX
  8
0
  5
BF1
 10
-416.979
 20
-428.888
 30
3.33964e-012
  70
    32
  0
VERTEX
  8
0
  5
BF2
 10
-416.976
 20
-428.891
 30
3.33956e-012
  70
    32
  0
VERTEX
  8
0
  5
BF3
 10
-416.973
 20
-428.894
 30
3.33948e-012
  70
    32
  0
VERTEX
  8
0
  5
BF4
 10
-416.970
 20
-428.897
 30
3.33939e-012
  70
    32
  0
VERTEX
  8
0
  5
BF5
 10
-416.966
 20
-428.900
 30
3.33931e-012
  70
    32
  0
VERTEX
  8
0
  5
BF6
 10
-416.963
 20
-428.903
 30
3.33922e-012
  70
    32
  0
VERTEX
  8
0
  5
BF7
 10
-416.959
 20
-428.906
 30
3.33914e-012
  70
    32
  0
VERTEX
  8
0
  5
BF8
 10
-416.956
 20
-428.909
 30
3.33905e-012
  70
    32
  0
VERTEX
  8
0
  5
BF9
 10
-416.952
 20
-428.912
 30
3.33897e-012
  70
    32
  0
VERTEX
  8
0
  5
BFA
 10
-416.948
 20
-428.915
 30
3.33888e-012
  70
    32
  0
VERTEX
  8
0
  5
BFB
 10
-416.945
 20
-428.918
 30
3.33880e-012
  70
    32
  0
VERTEX
  8
0
  5
BFC
 10
-416.941
 20
-428.921
 30
3.33871e-012
  70
    32
  0
VERTEX
  8
0
  5
BFD
 10
-416.937
 20
-428.924
 30
3.33862e-012
  70
    32
  0
VERTEX
  8
0
  5
BFE
 10
-416.933
 20
-428.927
 30
3.33854e-012
  70
    32
  0
SEQEND
  8
0
  5
BFF
  0
LINE
  5
780
  8
0
  6
CONTINUOUS
 10
-416.93317116845992
 20
-428.92655309392808
 30
0.0000000000033953
 11
-416.89863410847158
 21
-428.9511769196198
 31
0.0000000000034514
210
0.000000000000008
220
0.8164965809277113
230
0.5773502691896467
  0
LINE
  5
781
  8
0
  6
CONTINUOUS
 10
-389.54311775302921
 20
-442.02299344028319
 30
0.0000000000028638
 11
-389.86131580456339
 21
-442.206705170992
 31
0.0000000000028657
210
0.000000000000008
220
0.8164965809277113
230
0.5773502691896467
  0
LINE
  5
782
  8
0
  6
CONTINUOUS
 10
-389.86131580456339
 20
-442.206705170992
 30
0.0000000000028657
 11
-390.179513856097
 21
-442.0229934402833
 31
0.0000000000028722
210
0.000000000000008
220
0.8164965809277113
230
0.5773502691896467
  0
POLYLINE
  5
783
  8
0
  6
CONTINUOUS
 10
-396.60519231794046
 20
-443.92433596385206
 30
0.0000000000029331
 66
     1
 70
     8
  0
VERTEX
  8
0
  5
C00
 10
-396.605
 20
-443.924
 30
2.93309e-012
  70
    32
  0
VERTEX
  8
0
  5
C01
 10
-396.603
 20
-443.926
 30
2.93304e-012
  70
    32
  0
VERTEX
  8
0
  5
C02
 10
-396.600
 20
-443.928
 30
2.93299e-012
  70
    32
  0
VERTEX
  8
0
  5
C03
 10
-396.598
 20
-443.929
 30
2.93293e-012
  70
    32
  0
VERTEX
  8
0
  5
C04
 10
-396.596
 20
-443.931
 30
2.93288e-012
  70
    32
  0
VERTEX
  8
0
  5
C05
 10
-396.593
 20
-443.933
 30
2.93283e-012
  70
    32
  0
VERTEX
  8
0
  5
C06
 10
-396.591
 20
-443.934
 30
2.93277e-012
  70
    32
  0
VERTEX
  8
0
  5
C07
 10
-396.588
 20
-443.936
 30
2.93272e-012
  70
    32
  0
VERTEX
  8
0
  5
C08
 10
-396.586
 20
-443.938
 30
2.93267e-012
  70
    32
  0
VERTEX
  8
0
  5
C09
 10
-396.583
 20
-443.939
 30
2.93261e-012
  70
    32
  0
VERTEX
  8
0
  5
C0A
 10
-396.581
 20
-443.941
 30
2.93256e-012
  70
    32
  0
VERTEX
  8
0
  5
C0B
 10
-396.578
 20
-443.943
 30
2.93251e-012
  70
    32
  0
VERTEX
  8
0
  5
C0C
 10
-396.576
 20
-443.944
 30
2.93245e-012
  70
    32
  0
VERTEX
  8
0
  5
C0D
 10
-396.573
 20
-443.946
 30
2.93240e-012
  70
    32
  0
VERTEX
  8
0
  5
C0E
 10
-396.571
 20
-443.948
 30
2.93235e-012
  70
    32
  0
VERTEX
  8
0
  5
C0F
 10
-396.568
 20
-443.949
 30
2.93229e-012
  70
    32
  0
VERTEX
  8
0
  5
C10
 10
-396.566
 20
-443.951
 30
2.93224e-012
  70
    32
  0
VERTEX
  8
0
  5
C11
 10
-396.563
 20
-443.952
 30
2.93218e-012
  70
    32
  0
VERTEX
  8
0
  5
C12
 10
-396.561
 20
-443.954
 30
2.93213e-012
  70
    32
  0
VERTEX
  8
0
  5
C13
 10
-396.558
 20
-443.956
 30
2.93208e-012
  70
    32
  0
VERTEX
  8
0
  5
C14
 10
-396.556
 20
-443.957
 30
2.93202e-012
  70
    32
  0
VERTEX
  8
0
  5
C15
 10
-396.553
 20
-443.959
 30
2.93197e-012
  70
    32
  0
VERTEX
  8
0
  5
C16
 10
-396.551
 20
-443.960
 30
2.93191e-012
  70
    32
  0
VERTEX
  8
0
  5
C17
 10
-396.548
 20
-443.962
 30
2.93186e-012
  70
    32
  0
VERTEX
  8
0
  5
C18
 10
-396.545
 20
-443.964
 30
2.93180e-012
  70
    32
  0
VERTEX
  8
0
  5
C19
 10
-396.543
 20
-443.965
 30
2.93175e-012
  70
    32
  0
VERTEX
  8
0
  5
C1A
 10
-396.540
 20
-443.967
 30
2.93170e-012
  70
    32
  0
VERTEX
  8
0
  5
C1B
 10
-396.537
 20
-443.968
 30
2.93164e-012
  70
    32
  0
VERTEX
  8
0
  5
C1C
 10
-396.535
 20
-443.970
 30
2.93159e-012
  70
    32
  0
VERTEX
  8
0
  5
C1D
 10
-396.532
 20
-443.971
 30
2.93153e-012
  70
    32
  0
VERTEX
  8
0
  5
C1E
 10
-396.529
 20
-443.973
 30
2.93148e-012
  70
    32
  0
VERTEX
  8
0
  5
C1F
 10
-396.527
 20
-443.975
 30
2.93142e-012
  70
    32
  0
VERTEX
  8
0
  5
C20
 10
-396.524
 20
-443.976
 30
2.93137e-012
  70
    32
  0
VERTEX
  8
0
  5
C21
 10
-396.521
 20
-443.978
 30
2.93131e-012
  70
    32
  0
VERTEX
  8
0
  5
C22
 10
-396.519
 20
-443.979
 30
2.93126e-012
  70
    32
  0
VERTEX
  8
0
  5
C23
 10
-396.516
 20
-443.981
 30
2.93120e-012
  70
    32
  0
VERTEX
  8
0
  5
C24
 10
-396.513
 20
-443.982
 30
2.93115e-012
  70
    32
  0
VERTEX
  8
0
  5
C25
 10
-396.511
 20
-443.984
 30
2.93109e-012
  70
    32
  0
VERTEX
  8
0
  5
C26
 10
-396.508
 20
-443.985
 30
2.93104e-012
  70
    32
  0
VERTEX
  8
0
  5
C27
 10
-396.505
 20
-443.987
 30
2.93098e-012
  70
    32
  0
VERTEX
  8
0
  5
C28
 10
-396.502
 20
-443.988
 30
2.93093e-012
  70
    32
  0
VERTEX
  8
0
  5
C29
 10
-396.500
 20
-443.990
 30
2.93087e-012
  70
    32
  0
VERTEX
  8
0
  5
C2A
 10
-396.497
 20
-443.991
 30
2.93082e-012
  70
    32
  0
VERTEX
  8
0
  5
C2B
 10
-396.494
 20
-443.993
 30
2.93076e-012
  70
    32
  0
VERTEX
  8
0
  5
C2C
 10
-396.491
 20
-443.994
 30
2.93071e-012
  70
    32
  0
VERTEX
  8
0
  5
C2D
 10
-396.488
 20
-443.996
 30
2.93065e-012
  70
    32
  0
VERTEX
  8
0
  5
C2E
 10
-396.486
 20
-443.997
 30
2.93059e-012
  70
    32
  0
VERTEX
  8
0
  5
C2F
 10
-396.483
 20
-443.998
 30
2.93054e-012
  70
    32
  0
VERTEX
  8
0
  5
C30
 10
-396.480
 20
-444.000
 30
2.93048e-012
  70
    32
  0
VERTEX
  8
0
  5
C31
 10
-396.477
 20
-444.001
 30
2.93043e-012
  70
    32
  0
VERTEX
  8
0
  5
C32
 10
-396.474
 20
-444.003
 30
2.93037e-012
  70
    32
  0
VERTEX
  8
0
  5
C33
 10
-396.472
 20
-444.004
 30
2.93032e-012
  70
    32
  0
VERTEX
  8
0
  5
C34
 10
-396.469
 20
-444.006
 30
2.93026e-012
  70
    32
  0
VERTEX
  8
0
  5
C35
 10
-396.466
 20
-444.007
 30
2.93020e-012
  70
    32
  0
VERTEX
  8
0
  5
C36
 10
-396.463
 20
-444.008
 30
2.93015e-012
  70
    32
  0
VERTEX
  8
0
  5
C37
 10
-396.460
 20
-444.010
 30
2.93009e-012
  70
    32
  0
VERTEX
  8
0
  5
C38
 10
-396.457
 20
-444.011
 30
2.93004e-012
  70
    32
  0
VERTEX
  8
0
  5
C39
 10
-396.454
 20
-444.013
 30
2.92998e-012
  70
    32
  0
VERTEX
  8
0
  5
C3A
 10
-396.451
 20
-444.014
 30
2.92993e-012
  70
    32
  0
VERTEX
  8
0
  5
C3B
 10
-396.448
 20
-444.015
 30
2.92987e-012
  70
    32
  0
VERTEX
  8
0
  5
C3C
 10
-396.446
 20
-444.017
 30
2.92981e-012
  70
    32
  0
VERTEX
  8
0
  5
C3D
 10
-396.443
 20
-444.018
 30
2.92976e-012
  70
    32
  0
VERTEX
  8
0
  5
C3E
 10
-396.440
 20
-444.020
 30
2.92970e-012
  70
    32
  0
VERTEX
  8
0
  5
C3F
 10
-396.437
 20
-444.021
 30
2.92964e-012
  70
    32
  0
VERTEX
  8
0
  5
C40
 10
-396.434
 20
-444.022
 30
2.92959e-012
  70
    32
  0
VERTEX
  8
0
  5
C41
 10
-396.431
 20
-444.024
 30
2.92953e-012
  70
    32
  0
VERTEX
  8
0
  5
C42
 10
-396.428
 20
-444.025
 30
2.92948e-012
  70
    32
  0
VERTEX
  8
0
  5
C43
 10
-396.425
 20
-444.026
 30
2.92942e-012
  70
    32
  0
VERTEX
  8
0
  5
C44
 10
-396.422
 20
-444.028
 30
2.92936e-012
  70
    32
  0
VERTEX
  8
0
  5
C45
 10
-396.419
 20
-444.029
 30
2.92931e-012
  70
    32
  0
VERTEX
  8
0
  5
C46
 10
-396.416
 20
-444.030
 30
2.92925e-012
  70
    32
  0
VERTEX
  8
0
  5
C47
 10
-396.413
 20
-444.032
 30
2.92919e-012
  70
    32
  0
VERTEX
  8
0
  5
C48
 10
-396.410
 20
-444.033
 30
2.92914e-012
  70
    32
  0
VERTEX
  8
0
  5
C49
 10
-396.407
 20
-444.034
 30
2.92908e-012
  70
    32
  0
VERTEX
  8
0
  5
C4A
 10
-396.404
 20
-444.036
 30
2.92902e-012
  70
    32
  0
VERTEX
  8
0
  5
C4B
 10
-396.401
 20
-444.037
 30
2.92897e-012
  70
    32
  0
VERTEX
  8
0
  5
C4C
 10
-396.398
 20
-444.038
 30
2.92891e-012
  70
    32
  0
VERTEX
  8
0
  5
C4D
 10
-396.395
 20
-444.039
 30
2.92886e-012
  70
    32
  0
VERTEX
  8
0
  5
C4E
 10
-396.392
 20
-444.041
 30
2.92880e-012
  70
    32
  0
VERTEX
  8
0
  5
C4F
 10
-396.388
 20
-444.042
 30
2.92874e-012
  70
    32
  0
VERTEX
  8
0
  5
C50
 10
-396.385
 20
-444.043
 30
2.92869e-012
  70
    32
  0
VERTEX
  8
0
  5
C51
 10
-396.382
 20
-444.044
 30
2.92863e-012
  70
    32
  0
VERTEX
  8
0
  5
C52
 10
-396.379
 20
-444.046
 30
2.92857e-012
  70
    32
  0
VERTEX
  8
0
  5
C53
 10
-396.376
 20
-444.047
 30
2.92852e-012
  70
    32
  0
VERTEX
  8
0
  5
C54
 10
-396.373
 20
-444.048
 30
2.92846e-012
  70
    32
  0
VERTEX
  8
0
  5
C55
 10
-396.370
 20
-444.049
 30
2.92840e-012
  70
    32
  0
VERTEX
  8
0
  5
C56
 10
-396.367
 20
-444.051
 30
2.92835e-012
  70
    32
  0
VERTEX
  8
0
  5
C57
 10
-396.364
 20
-444.052
 30
2.92829e-012
  70
    32
  0
VERTEX
  8
0
  5
C58
 10
-396.360
 20
-444.053
 30
2.92823e-012
  70
    32
  0
VERTEX
  8
0
  5
C59
 10
-396.357
 20
-444.054
 30
2.92817e-012
  70
    32
  0
VERTEX
  8
0
  5
C5A
 10
-396.354
 20
-444.056
 30
2.92812e-012
  70
    32
  0
VERTEX
  8
0
  5
C5B
 10
-396.351
 20
-444.057
 30
2.92806e-012
  70
    32
  0
VERTEX
  8
0
  5
C5C
 10
-396.348
 20
-444.058
 30
2.92800e-012
  70
    32
  0
VERTEX
  8
0
  5
C5D
 10
-396.345
 20
-444.059
 30
2.92795e-012
  70
    32
  0
VERTEX
  8
0
  5
C5E
 10
-396.341
 20
-444.060
 30
2.92789e-012
  70
    32
  0
VERTEX
  8
0
  5
C5F
 10
-396.338
 20
-444.061
 30
2.92783e-012
  70
    32
  0
VERTEX
  8
0
  5
C60
 10
-396.335
 20
-444.063
 30
2.92778e-012
  70
    32
  0
VERTEX
  8
0
  5
C61
 10
-396.332
 20
-444.064
 30
2.92772e-012
  70
    32
  0
VERTEX
  8
0
  5
C62
 10
-396.329
 20
-444.065
 30
2.92766e-012
  70
    32
  0
VERTEX
  8
0
  5
C63
 10
-396.325
 20
-444.066
 30
2.92761e-012
  70
    32
  0
VERTEX
  8
0
  5
C64
 10
-396.322
 20
-444.067
 30
2.92755e-012
  70
    32
  0
VERTEX
  8
0
  5
C65
 10
-396.319
 20
-444.068
 30
2.92749e-012
  70
    32
  0
VERTEX
  8
0
  5
C66
 10
-396.316
 20
-444.069
 30
2.92744e-012
  70
    32
  0
VERTEX
  8
0
  5
C67
 10
-396.313
 20
-444.071
 30
2.92738e-012
  70
    32
  0
VERTEX
  8
0
  5
C68
 10
-396.309
 20
-444.072
 30
2.92732e-012
  70
    32
  0
VERTEX
  8
0
  5
C69
 10
-396.306
 20
-444.073
 30
2.92726e-012
  70
    32
  0
VERTEX
  8
0
  5
C6A
 10
-396.303
 20
-444.074
 30
2.92721e-012
  70
    32
  0
VERTEX
  8
0
  5
C6B
 10
-396.300
 20
-444.075
 30
2.92715e-012
  70
    32
  0
VERTEX
  8
0
  5
C6C
 10
-396.296
 20
-444.076
 30
2.92709e-012
  70
    32
  0
VERTEX
  8
0
  5
C6D
 10
-396.293
 20
-444.077
 30
2.92704e-012
  70
    32
  0
VERTEX
  8
0
  5
C6E
 10
-396.290
 20
-444.078
 30
2.92698e-012
  70
    32
  0
VERTEX
  8
0
  5
C6F
 10
-396.286
 20
-444.079
 30
2.92692e-012
  70
    32
  0
VERTEX
  8
0
  5
C70
 10
-396.283
 20
-444.080
 30
2.92687e-012
  70
    32
  0
VERTEX
  8
0
  5
C71
 10
-396.280
 20
-444.081
 30
2.92681e-012
  70
    32
  0
VERTEX
  8
0
  5
C72
 10
-396.276
 20
-444.082
 30
2.92675e-012
  70
    32
  0
VERTEX
  8
0
  5
C73
 10
-396.273
 20
-444.083
 30
2.92670e-012
  70
    32
  0
VERTEX
  8
0
  5
C74
 10
-396.270
 20
-444.084
 30
2.92664e-012
  70
    32
  0
VERTEX
  8
0
  5
C75
 10
-396.266
 20
-444.085
 30
2.92658e-012
  70
    32
  0
VERTEX
  8
0
  5
C76
 10
-396.263
 20
-444.087
 30
2.92652e-012
  70
    32
  0
VERTEX
  8
0
  5
C77
 10
-396.260
 20
-444.088
 30
2.92647e-012
  70
    32
  0
VERTEX
  8
0
  5
C78
 10
-396.256
 20
-444.089
 30
2.92641e-012
  70
    32
  0
VERTEX
  8
0
  5
C79
 10
-396.253
 20
-444.090
 30
2.92635e-012
  70
    32
  0
VERTEX
  8
0
  5
C7A
 10
-396.250
 20
-444.091
 30
2.92630e-012
  70
    32
  0
VERTEX
  8
0
  5
C7B
 10
-396.246
 20
-444.092
 30
2.92624e-012
  70
    32
  0
VERTEX
  8
0
  5
C7C
 10
-396.243
 20
-444.092
 30
2.92618e-012
  70
    32
  0
VERTEX
  8
0
  5
C7D
 10
-396.240
 20
-444.093
 30
2.92613e-012
  70
    32
  0
VERTEX
  8
0
  5
C7E
 10
-396.236
 20
-444.094
 30
2.92607e-012
  70
    32
  0
VERTEX
  8
0
  5
C7F
 10
-396.233
 20
-444.095
 30
2.92601e-012
  70
    32
  0
VERTEX
  8
0
  5
C80
 10
-396.229
 20
-444.096
 30
2.92595e-012
  70
    32
  0
SEQEND
  8
0
  5
C81
  0
LINE
  5
784
  8
0
  6
CONTINUOUS
 10
-396.60519231794041
 20
-443.92433596385212
 30
0.0000000000028763
 11
-417.36060144726042
 21
-429.12638915737602
 31
0.0000000000034553
210
0.000000000000008
220
0.8164965809277113
230
0.5773502691896467
  0
POLYLINE
  5
785
  8
0
  6
CONTINUOUS
 10
-417.28355834896365
 20
-428.27764391096889
 30
0.0000000000034081
 66
     1
 70
     8
  0
VERTEX
  8
0
  5
C82
 10
-417.284
 20
-428.278
 30
3.40813e-012
  70
    32
  0
VERTEX
  8
0
  5
C83
 10
-417.292
 20
-428.283
 30
3.40818e-012
  70
    32
  0
VERTEX
  8
0
  5
C84
 10
-417.301
 20
-428.288
 30
3.40823e-012
  70
    32
  0
VERTEX
  8
0
  5
C85
 10
-417.310
 20
-428.293
 30
3.40827e-012
  70
    32
  0
VERTEX
  8
0
  5
C86
 10
-417.318
 20
-428.299
 30
3.40832e-012
  70
    32
  0
VERTEX
  8
0
  5
C87
 10
-417.327
 20
-428.304
 30
3.40836e-012
  70
    32
  0
VERTEX
  8
0
  5
C88
 10
-417.335
 20
-428.310
 30
3.40840e-012
  70
    32
  0
VERTEX
  8
0
  5
C89
 10
-417.343
 20
-428.315
 30
3.40843e-012
  70
    32
  0
VERTEX
  8
0
  5
C8A
 10
-417.351
 20
-428.321
 30
3.40847e-012
  70
    32
  0
VERTEX
  8
0
  5
C8B
 10
-417.359
 20
-428.326
 30
3.40850e-012
  70
    32
  0
VERTEX
  8
0
  5
C8C
 10
-417.367
 20
-428.332
 30
3.40853e-012
  70
    32
  0
VERTEX
  8
0
  5
C8D
 10
-417.375
 20
-428.338
 30
3.40856e-012
  70
    32
  0
VERTEX
  8
0
  5
C8E
 10
-417.383
 20
-428.343
 30
3.40859e-012
  70
    32
  0
VERTEX
  8
0
  5
C8F
 10
-417.390
 20
-428.349
 30
3.40861e-012
  70
    32
  0
VERTEX
  8
0
  5
C90
 10
-417.398
 20
-428.355
 30
3.40863e-012
  70
    32
  0
VERTEX
  8
0
  5
C91
 10
-417.405
 20
-428.361
 30
3.40865e-012
  70
    32
  0
VERTEX
  8
0
  5
C92
 10
-417.412
 20
-428.367
 30
3.40867e-012
  70
    32
  0
VERTEX
  8
0
  5
C93
 10
-417.419
 20
-428.373
 30
3.40869e-012
  70
    32
  0
VERTEX
  8
0
  5
C94
 10
-417.426
 20
-428.379
 30
3.40870e-012
  70
    32
  0
VERTEX
  8
0
  5
C95
 10
-417.433
 20
-428.385
 30
3.40871e-012
  70
    32
  0
VERTEX
  8
0
  5
C96
 10
-417.440
 20
-428.391
 30
3.40872e-012
  70
    32
  0
VERTEX
  8
0
  5
C97
 10
-417.446
 20
-428.398
 30
3.40873e-012
  70
    32
  0
VERTEX
  8
0
  5
C98
 10
-417.453
 20
-428.404
 30
3.40873e-012
  70
    32
  0
VERTEX
  8
0
  5
C99
 10
-417.459
 20
-428.410
 30
3.40874e-012
  70
    32
  0
VERTEX
  8
0
  5
C9A
 10
-417.465
 20
-428.416
 30
3.40874e-012
  70
    32
  0
VERTEX
  8
0
  5
C9B
 10
-417.472
 20
-428.423
 30
3.40873e-012
  70
    32
  0
VERTEX
  8
0
  5
C9C
 10
-417.478
 20
-428.429
 30
3.40873e-012
  70
    32
  0
VERTEX
  8
0
  5
C9D
 10
-417.483
 20
-428.436
 30
3.40872e-012
  70
    32
  0
VERTEX
  8
0
  5
C9E
 10
-417.489
 20
-428.442
 30
3.40872e-012
  70
    32
  0
VERTEX
  8
0
  5
C9F
 10
-417.495
 20
-428.449
 30
3.40871e-012
  70
    32
  0
VERTEX
  8
0
  5
CA0
 10
-417.500
 20
-428.455
 30
3.40869e-012
  70
    32
  0
VERTEX
  8
0
  5
CA1
 10
-417.505
 20
-428.462
 30
3.40868e-012
  70
    32
  0
VERTEX
  8
0
  5
CA2
 10
-417.511
 20
-428.468
 30
3.40866e-012
  70
    32
  0
VERTEX
  8
0
  5
CA3
 10
-417.516
 20
-428.475
 30
3.40864e-012
  70
    32
  0
VERTEX
  8
0
  5
CA4
 10
-417.521
 20
-428.482
 30
3.40862e-012
  70
    32
  0
VERTEX
  8
0
  5
CA5
 10
-417.525
 20
-428.488
 30
3.40860e-012
  70
    32
  0
VERTEX
  8
0
  5
CA6
 10
-417.530
 20
-428.495
 30
3.40857e-012
  70
    32
  0
VERTEX
  8
0
  5
CA7
 10
-417.535
 20
-428.502
 30
3.40854e-012
  70
    32
  0
VERTEX
  8
0
  5
CA8
 10
-417.539
 20
-428.509
 30
3.40851e-012
  70
    32
  0
VERTEX
  8
0
  5
CA9
 10
-417.543
 20
-428.516
 30
3.40848e-012
  70
    32
  0
VERTEX
  8
0
  5
CAA
 10
-417.547
 20
-428.523
 30
3.40845e-012
  70
    32
  0
VERTEX
  8
0
  5
CAB
 10
-417.551
 20
-428.529
 30
3.40841e-012
  70
    32
  0
VERTEX
  8
0
  5
CAC
 10
-417.555
 20
-428.536
 30
3.40837e-012
  70
    32
  0
VERTEX
  8
0
  5
CAD
 10
-417.559
 20
-428.543
 30
3.40833e-012
  70
    32
  0
VERTEX
  8
0
  5
CAE
 10
-417.562
 20
-428.550
 30
3.40829e-012
  70
    32
  0
VERTEX
  8
0
  5
CAF
 10
-417.566
 20
-428.557
 30
3.40825e-012
  70
    32
  0
VERTEX
  8
0
  5
CB0
 10
-417.569
 20
-428.564
 30
3.40820e-012
  70
    32
  0
VERTEX
  8
0
  5
CB1
 10
-417.572
 20
-428.571
 30
3.40815e-012
  70
    32
  0
VERTEX
  8
0
  5
CB2
 10
-417.575
 20
-428.578
 30
3.40810e-012
  70
    32
  0
VERTEX
  8
0
  5
CB3
 10
-417.578
 20
-428.586
 30
3.40805e-012
  70
    32
  0
VERTEX
  8
0
  5
CB4
 10
-417.581
 20
-428.593
 30
3.40799e-012
  70
    32
  0
VERTEX
  8
0
  5
CB5
 10
-417.584
 20
-428.600
 30
3.40793e-012
  70
    32
  0
VERTEX
  8
0
  5
CB6
 10
-417.586
 20
-428.607
 30
3.40788e-012
  70
    32
  0
VERTEX
  8
0
  5
CB7
 10
-417.588
 20
-428.614
 30
3.40781e-012
  70
    32
  0
VERTEX
  8
0
  5
CB8
 10
-417.590
 20
-428.621
 30
3.40775e-012
  70
    32
  0
VERTEX
  8
0
  5
CB9
 10
-417.592
 20
-428.628
 30
3.40768e-012
  70
    32
  0
VERTEX
  8
0
  5
CBA
 10
-417.594
 20
-428.636
 30
3.40762e-012
  70
    32
  0
VERTEX
  8
0
  5
CBB
 10
-417.596
 20
-428.643
 30
3.40755e-012
  70
    32
  0
VERTEX
  8
0
  5
CBC
 10
-417.598
 20
-428.650
 30
3.40748e-012
  70
    32
  0
VERTEX
  8
0
  5
CBD
 10
-417.599
 20
-428.657
 30
3.40740e-012
  70
    32
  0
VERTEX
  8
0
  5
CBE
 10
-417.600
 20
-428.664
 30
3.40733e-012
  70
    32
  0
VERTEX
  8
0
  5
CBF
 10
-417.602
 20
-428.672
 30
3.40725e-012
  70
    32
  0
VERTEX
  8
0
  5
CC0
 10
-417.603
 20
-428.679
 30
3.40717e-012
  70
    32
  0
VERTEX
  8
0
  5
CC1
 10
-417.604
 20
-428.686
 30
3.40709e-012
  70
    32
  0
VERTEX
  8
0
  5
CC2
 10
-417.604
 20
-428.693
 30
3.40701e-012
  70
    32
  0
VERTEX
  8
0
  5
CC3
 10
-417.605
 20
-428.701
 30
3.40692e-012
  70
    32
  0
VERTEX
  8
0
  5
CC4
 10
-417.605
 20
-428.708
 30
3.40683e-012
  70
    32
  0
VERTEX
  8
0
  5
CC5
 10
-417.606
 20
-428.715
 30
3.40674e-012
  70
    32
  0
VERTEX
  8
0
  5
CC6
 10
-417.606
 20
-428.723
 30
3.40665e-012
  70
    32
  0
VERTEX
  8
0
  5
CC7
 10
-417.606
 20
-428.730
 30
3.40656e-012
  70
    32
  0
VERTEX
  8
0
  5
CC8
 10
-417.606
 20
-428.737
 30
3.40647e-012
  70
    32
  0
VERTEX
  8
0
  5
CC9
 10
-417.605
 20
-428.744
 30
3.40637e-012
  70
    32
  0
VERTEX
  8
0
  5
CCA
 10
-417.605
 20
-428.752
 30
3.40627e-012
  70
    32
  0
VERTEX
  8
0
  5
CCB
 10
-417.604
 20
-428.759
 30
3.40617e-012
  70
    32
  0
VERTEX
  8
0
  5
CCC
 10
-417.604
 20
-428.766
 30
3.40607e-012
  70
    32
  0
VERTEX
  8
0
  5
CCD
 10
-417.603
 20
-428.773
 30
3.40596e-012
  70
    32
  0
VERTEX
  8
0
  5
CCE
 10
-417.602
 20
-428.781
 30
3.40586e-012
  70
    32
  0
VERTEX
  8
0
  5
CCF
 10
-417.601
 20
-428.788
 30
3.40575e-012
  70
    32
  0
VERTEX
  8
0
  5
CD0
 10
-417.599
 20
-428.795
 30
3.40564e-012
  70
    32
  0
VERTEX
  8
0
  5
CD1
 10
-417.598
 20
-428.802
 30
3.40553e-012
  70
    32
  0
VERTEX
  8
0
  5
CD2
 10
-417.596
 20
-428.810
 30
3.40542e-012
  70
    32
  0
VERTEX
  8
0
  5
CD3
 10
-417.595
 20
-428.817
 30
3.40530e-012
  70
    32
  0
VERTEX
  8
0
  5
CD4
 10
-417.593
 20
-428.824
 30
3.40518e-012
  70
    32
  0
VERTEX
  8
0
  5
CD5
 10
-417.591
 20
-428.831
 30
3.40507e-012
  70
    32
  0
VERTEX
  8
0
  5
CD6
 10
-417.589
 20
-428.838
 30
3.40495e-012
  70
    32
  0
VERTEX
  8
0
  5
CD7
 10
-417.586
 20
-428.846
 30
3.40483e-012
  70
    32
  0
VERTEX
  8
0
  5
CD8
 10
-417.584
 20
-428.853
 30
3.40470e-012
  70
    32
  0
VERTEX
  8
0
  5
CD9
 10
-417.581
 20
-428.860
 30
3.40458e-012
  70
    32
  0
VERTEX
  8
0
  5
CDA
 10
-417.579
 20
-428.867
 30
3.40445e-012
  70
    32
  0
VERTEX
  8
0
  5
CDB
 10
-417.576
 20
-428.874
 30
3.40432e-012
  70
    32
  0
VERTEX
  8
0
  5
CDC
 10
-417.573
 20
-428.881
 30
3.40419e-012
  70
    32
  0
VERTEX
  8
0
  5
CDD
 10
-417.570
 20
-428.888
 30
3.40406e-012
  70
    32
  0
VERTEX
  8
0
  5
CDE
 10
-417.566
 20
-428.895
 30
3.40393e-012
  70
    32
  0
VERTEX
  8
0
  5
CDF
 10
-417.563
 20
-428.902
 30
3.40380e-012
  70
    32
  0
VERTEX
  8
0
  5
CE0
 10
-417.559
 20
-428.909
 30
3.40366e-012
  70
    32
  0
VERTEX
  8
0
  5
CE1
 10
-417.556
 20
-428.916
 30
3.40352e-012
  70
    32
  0
VERTEX
  8
0
  5
CE2
 10
-417.552
 20
-428.923
 30
3.40338e-012
  70
    32
  0
VERTEX
  8
0
  5
CE3
 10
-417.548
 20
-428.930
 30
3.40324e-012
  70
    32
  0
VERTEX
  8
0
  5
CE4
 10
-417.544
 20
-428.937
 30
3.40310e-012
  70
    32
  0
VERTEX
  8
0
  5
CE5
 10
-417.540
 20
-428.944
 30
3.40296e-012
  70
    32
  0
VERTEX
  8
0
  5
CE6
 10
-417.535
 20
-428.950
 30
3.40281e-012
  70
    32
  0
VERTEX
  8
0
  5
CE7
 10
-417.531
 20
-428.957
 30
3.40267e-012
  70
    32
  0
VERTEX
  8
0
  5
CE8
 10
-417.526
 20
-428.964
 30
3.40252e-012
  70
    32
  0
VERTEX
  8
0
  5
CE9
 10
-417.521
 20
-428.971
 30
3.40237e-012
  70
    32
  0
VERTEX
  8
0
  5
CEA
 10
-417.516
 20
-428.977
 30
3.40222e-012
  70
    32
  0
VERTEX
  8
0
  5
CEB
 10
-417.511
 20
-428.984
 30
3.40207e-012
  70
    32
  0
VERTEX
  8
0
  5
CEC
 10
-417.506
 20
-428.991
 30
3.40192e-012
  70
    32
  0
VERTEX
  8
0
  5
CED
 10
-417.501
 20
-428.997
 30
3.40176e-012
  70
    32
  0
VERTEX
  8
0
  5
CEE
 10
-417.495
 20
-429.004
 30
3.40161e-012
  70
    32
  0
VERTEX
  8
0
  5
CEF
 10
-417.490
 20
-429.010
 30
3.40145e-012
  70
    32
  0
VERTEX
  8
0
  5
CF0
 10
-417.484
 20
-429.017
 30
3.40129e-012
  70
    32
  0
VERTEX
  8
0
  5
CF1
 10
-417.478
 20
-429.023
 30
3.40114e-012
  70
    32
  0
VERTEX
  8
0
  5
CF2
 10
-417.472
 20
-429.030
 30
3.40098e-012
  70
    32
  0
VERTEX
  8
0
  5
CF3
 10
-417.466
 20
-429.036
 30
3.40082e-012
  70
    32
  0
VERTEX
  8
0
  5
CF4
 10
-417.460
 20
-429.042
 30
3.40065e-012
  70
    32
  0
VERTEX
  8
0
  5
CF5
 10
-417.454
 20
-429.049
 30
3.40049e-012
  70
    32
  0
VERTEX
  8
0
  5
CF6
 10
-417.447
 20
-429.055
 30
3.40033e-012
  70
    32
  0
VERTEX
  8
0
  5
CF7
 10
-417.441
 20
-429.061
 30
3.40016e-012
  70
    32
  0
VERTEX
  8
0
  5
CF8
 10
-417.434
 20
-429.067
 30
3.39999e-012
  70
    32
  0
VERTEX
  8
0
  5
CF9
 10
-417.427
 20
-429.073
 30
3.39983e-012
  70
    32
  0
VERTEX
  8
0
  5
CFA
 10
-417.420
 20
-429.080
 30
3.39966e-012
  70
    32
  0
VERTEX
  8
0
  5
CFB
 10
-417.413
 20
-429.086
 30
3.39949e-012
  70
    32
  0
VERTEX
  8
0
  5
CFC
 10
-417.406
 20
-429.092
 30
3.39932e-012
  70
    32
  0
VERTEX
  8
0
  5
CFD
 10
-417.399
 20
-429.097
 30
3.39915e-012
  70
    32
  0
VERTEX
  8
0
  5
CFE
 10
-417.391
 20
-429.103
 30
3.39897e-012
  70
    32
  0
VERTEX
  8
0
  5
CFF
 10
-417.384
 20
-429.109
 30
3.39880e-012
  70
    32
  0
VERTEX
  8
0
  5
D00
 10
-417.376
 20
-429.115
 30
3.39863e-012
  70
    32
  0
VERTEX
  8
0
  5
D01
 10
-417.368
 20
-429.121
 30
3.39845e-012
  70
    32
  0
VERTEX
  8
0
  5
D02
 10
-417.361
 20
-429.126
 30
3.39828e-012
  70
    32
  0
SEQEND
  8
0
  5
D03
  0
LINE
  5
786
  8
0
  6
CONTINUOUS
 10
-417.28355834896382
 20
-428.27764391096889
 30
0.0000000000034651
 11
-416.89863410847158
 21
-428.0554077971031
 31
0.000000000003406
210
0.000000000000008
220
0.8164965809277113
230
0.5773502691896467
  0
LINE
  5
787
  8
0
  6
CONTINUOUS
 10
630.66500819853547
 20
-925.96371428978705
 30
-0.0000000000163168
 11
630.66500819853604
 21
97.922998193571516
 31
-0.0000000000033722
210
0.000000000000008
220
0.8164965809277113
230
0.5773502691896467
  0
LINE
  5
788
  8
0
  6
CONTINUOUS
 10
630.66500819853547
 20
-925.96371428978705
 30
-0.0000000000163168
 11
-388.15420902337689
 21
-1514.1792636084519
 31
-0.0000000000106756
210
0.000000000000008
220
0.8164965809277113
230
0.5773502691896467
  0
LINE
  5
789
  8
0
  6
CONTINUOUS
 10
-32.49347326714657
 20
-810.17655493031475
 30
-0.0000000000062559
 11
-39.988805147724143
 21
-814.50398680923217
 31
-0.0000000000062119
210
0.000000000000008
220
0.8164965809277113
230
0.5773502691896467
  0
LINE
  5
78A
  8
0
  6
CONTINUOUS
 10
-39.988805147724143
 20
-814.05491368972105
 30
-0.0000000000063198
 11
-32.882381996799907
 21
-809.95201837055936
 31
-0.0000000000062479
210
0.000000000000008
220
0.8164965809277113
230
0.5773502691896467
  0
LINE
  5
78B
  8
0
  6
CONTINUOUS
 10
-39.9888051477242
 20
-814.50398680923195
 30
-0.0000000000062119
 11
-39.988805147723973
 21
-289.2791614749604
 31
0.0000000000002957
210
0.000000000000008
220
0.8164965809277113
230
0.5773502691896467
  0
LINE
  5
78C
  8
0
  6
CONTINUOUS
 10
251.19776734489119
 20
-121.1625154619358
 30
-0.0000000000012435
 11
251.19776734489119
 21
-155.999494291019
 31
-0.0000000000017471
210
0.000000000000008
220
0.8164965809277113
230
0.5773502691896467
  0
LINE
  5
78D
  8
0
  6
CONTINUOUS
 10
250.80885861523819
 20
-155.77495773126381
 30
-0.0000000000016822
 11
250.80885861523819
 21
-121.3870520216912
 31
-0.0000000000012128
210
0.000000000000008
220
0.8164965809277113
230
0.5773502691896467
  0
LINE
  5
78E
  8
0
  6
CONTINUOUS
 10
631.37211497972237
 20
98.331246484035674
 30
-0.0000000000033905
 11
-387.44710224218983
 21
-489.8843028346293
 31
0.0000000000022222
210
0.000000000000008
220
0.8164965809277113
230
0.5773502691896467
  0
LINE
  5
78F
  8
0
  6
CONTINUOUS
 10
631.37211497972271
 20
343.28022076235141
 30
-0.000000000000301
 11
-416.1875428381241
 21
-261.52862967100589
 31
0.000000000005532
210
0.000000000000008
220
0.8164965809277113
230
0.5773502691896467
  0
POLYLINE
  5
790
  8
0
  6
CONTINUOUS
 10
632.10714992445401
 20
98.353486910807518
 30
-0.0000000000039258
 66
     1
 70
     8
  0
VERTEX
  8
0
  5
D04
 10
632.107
 20
98.3535
 30
-3.92580e-012
  70
    32
  0
VERTEX
  8
0
  5
D05
 10
632.102
 20
98.3558
 30
-3.92570e-012
  70
    32
  0
VERTEX
  8
0
  5
D06
 10
632.097
 20
98.3580
 30
-3.92561e-012
  70
    32
  0
VERTEX
  8
0
  5
D07
 10
632.092
 20
98.3602
 30
-3.92552e-012
  70
    32
  0
VERTEX
  8
0
  5
D08
 10
632.087
 20
98.3624
 30
-3.92542e-012
  70
    32
  0
VERTEX
  8
0
  5
D09
 10
632.082
 20
98.3645
 30
-3.92533e-012
  70
    32
  0
VERTEX
  8
0
  5
D0A
 10
632.077
 20
98.3666
 30
-3.92524e-012
  70
    32
  0
VERTEX
  8
0
  5
D0B
 10
632.072
 20
98.3687
 30
-3.92514e-012
  70
    32
  0
VERTEX
  8
0
  5
D0C
 10
632.067
 20
98.3707
 30
-3.92505e-012
  70
    32
  0
VERTEX
  8
0
  5
D0D
 10
632.061
 20
98.3727
 30
-3.92495e-012
  70
    32
  0
VERTEX
  8
0
  5
D0E
 10
632.056
 20
98.3747
 30
-3.92486e-012
  70
    32
  0
VERTEX
  8
0
  5
D0F
 10
632.051
 20
98.3766
 30
-3.92476e-012
  70
    32
  0
VERTEX
  8
0
  5
D10
 10
632.045
 20
98.3785
 30
-3.92467e-012
  70
    32
  0
VERTEX
  8
0
  5
D11
 10
632.040
 20
98.3804
 30
-3.92458e-012
  70
    32
  0
VERTEX
  8
0
  5
D12
 10
632.034
 20
98.3822
 30
-3.92448e-012
  70
    32
  0
VERTEX
  8
0
  5
D13
 10
632.029
 20
98.3840
 30
-3.92439e-012
  70
    32
  0
VERTEX
  8
0
  5
D14
 10
632.023
 20
98.3858
 30
-3.92429e-012
  70
    32
  0
VERTEX
  8
0
  5
D15
 10
632.018
 20
98.3875
 30
-3.92420e-012
  70
    32
  0
VERTEX
  8
0
  5
D16
 10
632.012
 20
98.3892
 30
-3.92410e-012
  70
    32
  0
VERTEX
  8
0
  5
D17
 10
632.007
 20
98.3908
 30
-3.92401e-012
  70
    32
  0
VERTEX
  8
0
  5
D18
 10
632.001
 20
98.3924
 30
-3.92391e-012
  70
    32
  0
VERTEX
  8
0
  5
D19
 10
631.995
 20
98.3940
 30
-3.92382e-012
  70
    32
  0
VERTEX
  8
0
  5
D1A
 10
631.990
 20
98.3955
 30
-3.92373e-012
  70
    32
  0
VERTEX
  8
0
  5
D1B
 10
631.984
 20
98.3970
 30
-3.92363e-012
  70
    32
  0
VERTEX
  8
0
  5
D1C
 10
631.978
 20
98.3985
 30
-3.92354e-012
  70
    32
  0
VERTEX
  8
0
  5
D1D
 10
631.972
 20
98.3999
 30
-3.92344e-012
  70
    32
  0
VERTEX
  8
0
  5
D1E
 10
631.967
 20
98.4013
 30
-3.92335e-012
  70
    32
  0
VERTEX
  8
0
  5
D1F
 10
631.961
 20
98.4026
 30
-3.92326e-012
  70
    32
  0
VERTEX
  8
0
  5
D20
 10
631.955
 20
98.4039
 30
-3.92316e-012
  70
    32
  0
VERTEX
  8
0
  5
D21
 10
631.949
 20
98.4052
 30
-3.92307e-012
  70
    32
  0
VERTEX
  8
0
  5
D22
 10
631.943
 20
98.4064
 30
-3.92298e-012
  70
    32
  0
VERTEX
  8
0
  5
D23
 10
631.937
 20
98.4076
 30
-3.92288e-012
  70
    32
  0
VERTEX
  8
0
  5
D24
 10
631.931
 20
98.4087
 30
-3.92279e-012
  70
    32
  0
VERTEX
  8
0
  5
D25
 10
631.925
 20
98.4098
 30
-3.92270e-012
  70
    32
  0
VERTEX
  8
0
  5
D26
 10
631.919
 20
98.4109
 30
-3.92260e-012
  70
    32
  0
VERTEX
  8
0
  5
D27
 10
631.913
 20
98.4119
 30
-3.92251e-012
  70
    32
  0
VERTEX
  8
0
  5
D28
 10
631.907
 20
98.4129
 30
-3.92242e-012
  70
    32
  0
VERTEX
  8
0
  5
D29
 10
631.901
 20
98.4138
 30
-3.92233e-012
  70
    32
  0
VERTEX
  8
0
  5
D2A
 10
631.895
 20
98.4147
 30
-3.92224e-012
  70
    32
  0
VERTEX
  8
0
  5
D2B
 10
631.889
 20
98.4156
 30
-3.92215e-012
  70
    32
  0
VERTEX
  8
0
  5
D2C
 10
631.882
 20
98.4164
 30
-3.92206e-012
  70
    32
  0
VERTEX
  8
0
  5
D2D
 10
631.876
 20
98.4172
 30
-3.92197e-012
  70
    32
  0
VERTEX
  8
0
  5
D2E
 10
631.870
 20
98.4179
 30
-3.92188e-012
  70
    32
  0
VERTEX
  8
0
  5
D2F
 10
631.864
 20
98.4186
 30
-3.92179e-012
  70
    32
  0
VERTEX
  8
0
  5
D30
 10
631.858
 20
98.4193
 30
-3.92170e-012
  70
    32
  0
VERTEX
  8
0
  5
D31
 10
631.852
 20
98.4199
 30
-3.92161e-012
  70
    32
  0
VERTEX
  8
0
  5
D32
 10
631.845
 20
98.4205
 30
-3.92152e-012
  70
    32
  0
VERTEX
  8
0
  5
D33
 10
631.839
 20
98.4210
 30
-3.92143e-012
  70
    32
  0
VERTEX
  8
0
  5
D34
 10
631.833
 20
98.4215
 30
-3.92134e-012
  70
    32
  0
VERTEX
  8
0
  5
D35
 10
631.827
 20
98.4220
 30
-3.92125e-012
  70
    32
  0
VERTEX
  8
0
  5
D36
 10
631.820
 20
98.4224
 30
-3.92117e-012
  70
    32
  0
VERTEX
  8
0
  5
D37
 10
631.814
 20
98.4228
 30
-3.92108e-012
  70
    32
  0
VERTEX
  8
0
  5
D38
 10
631.808
 20
98.4231
 30
-3.92099e-012
  70
    32
  0
VERTEX
  8
0
  5
D39
 10
631.801
 20
98.4234
 30
-3.92091e-012
  70
    32
  0
VERTEX
  8
0
  5
D3A
 10
631.795
 20
98.4236
 30
-3.92082e-012
  70
    32
  0
VERTEX
  8
0
  5
D3B
 10
631.789
 20
98.4238
 30
-3.92074e-012
  70
    32
  0
VERTEX
  8
0
  5
D3C
 10
631.783
 20
98.4240
 30
-3.92065e-012
  70
    32
  0
VERTEX
  8
0
  5
D3D
 10
631.776
 20
98.4241
 30
-3.92057e-012
  70
    32
  0
VERTEX
  8
0
  5
D3E
 10
631.770
 20
98.4242
 30
-3.92049e-012
  70
    32
  0
VERTEX
  8
0
  5
D3F
 10
631.764
 20
98.4242
 30
-3.92040e-012
  70
    32
  0
VERTEX
  8
0
  5
D40
 10
631.757
 20
98.4242
 30
-3.92032e-012
  70
    32
  0
VERTEX
  8
0
  5
D41
 10
631.751
 20
98.4242
 30
-3.92024e-012
  70
    32
  0
VERTEX
  8
0
  5
D42
 10
631.745
 20
98.4241
 30
-3.92016e-012
  70
    32
  0
VERTEX
  8
0
  5
D43
 10
631.739
 20
98.4240
 30
-3.92008e-012
  70
    32
  0
VERTEX
  8
0
  5
D44
 10
631.732
 20
98.4238
 30
-3.92000e-012
  70
    32
  0
VERTEX
  8
0
  5
D45
 10
631.726
 20
98.4236
 30
-3.91992e-012
  70
    32
  0
VERTEX
  8
0
  5
D46
 10
631.720
 20
98.4234
 30
-3.91984e-012
  70
    32
  0
VERTEX
  8
0
  5
D47
 10
631.713
 20
98.4231
 30
-3.91976e-012
  70
    32
  0
VERTEX
  8
0
  5
D48
 10
631.707
 20
98.4227
 30
-3.91968e-012
  70
    32
  0
VERTEX
  8
0
  5
D49
 10
631.701
 20
98.4223
 30
-3.91960e-012
  70
    32
  0
VERTEX
  8
0
  5
D4A
 10
631.695
 20
98.4219
 30
-3.91953e-012
  70
    32
  0
VERTEX
  8
0
  5
D4B
 10
631.688
 20
98.4215
 30
-3.91945e-012
  70
    32
  0
VERTEX
  8
0
  5
D4C
 10
631.682
 20
98.4210
 30
-3.91938e-012
  70
    32
  0
VERTEX
  8
0
  5
D4D
 10
631.676
 20
98.4204
 30
-3.91930e-012
  70
    32
  0
VERTEX
  8
0
  5
D4E
 10
631.670
 20
98.4198
 30
-3.91923e-012
  70
    32
  0
VERTEX
  8
0
  5
D4F
 10
631.663
 20
98.4192
 30
-3.91915e-012
  70
    32
  0
VERTEX
  8
0
  5
D50
 10
631.657
 20
98.4185
 30
-3.91908e-012
  70
    32
  0
VERTEX
  8
0
  5
D51
 10
631.651
 20
98.4178
 30
-3.91901e-012
  70
    32
  0
VERTEX
  8
0
  5
D52
 10
631.645
 20
98.4171
 30
-3.91894e-012
  70
    32
  0
VERTEX
  8
0
  5
D53
 10
631.639
 20
98.4163
 30
-3.91887e-012
  70
    32
  0
VERTEX
  8
0
  5
D54
 10
631.633
 20
98.4155
 30
-3.91880e-012
  70
    32
  0
VERTEX
  8
0
  5
D55
 10
631.627
 20
98.4146
 30
-3.91873e-012
  70
    32
  0
VERTEX
  8
0
  5
D56
 10
631.620
 20
98.4137
 30
-3.91866e-012
  70
    32
  0
VERTEX
  8
0
  5
D57
 10
631.614
 20
98.4127
 30
-3.91859e-012
  70
    32
  0
VERTEX
  8
0
  5
D58
 10
631.608
 20
98.4118
 30
-3.91853e-012
  70
    32
  0
VERTEX
  8
0
  5
D59
 10
631.602
 20
98.4107
 30
-3.91846e-012
  70
    32
  0
VERTEX
  8
0
  5
D5A
 10
631.596
 20
98.4097
 30
-3.91839e-012
  70
    32
  0
VERTEX
  8
0
  5
D5B
 10
631.590
 20
98.4085
 30
-3.91833e-012
  70
    32
  0
VERTEX
  8
0
  5
D5C
 10
631.584
 20
98.4074
 30
-3.91827e-012
  70
    32
  0
VERTEX
  8
0
  5
D5D
 10
631.578
 20
98.4062
 30
-3.91820e-012
  70
    32
  0
VERTEX
  8
0
  5
D5E
 10
631.572
 20
98.4050
 30
-3.91814e-012
  70
    32
  0
VERTEX
  8
0
  5
D5F
 10
631.566
 20
98.4037
 30
-3.91808e-012
  70
    32
  0
VERTEX
  8
0
  5
D60
 10
631.561
 20
98.4024
 30
-3.91802e-012
  70
    32
  0
VERTEX
  8
0
  5
D61
 10
631.555
 20
98.4011
 30
-3.91796e-012
  70
    32
  0
VERTEX
  8
0
  5
D62
 10
631.549
 20
98.3997
 30
-3.91790e-012
  70
    32
  0
VERTEX
  8
0
  5
D63
 10
631.543
 20
98.3983
 30
-3.91784e-012
  70
    32
  0
VERTEX
  8
0
  5
D64
 10
631.537
 20
98.3968
 30
-3.91779e-012
  70
    32
  0
VERTEX
  8
0
  5
D65
 10
631.532
 20
98.3953
 30
-3.91773e-012
  70
    32
  0
VERTEX
  8
0
  5
D66
 10
631.526
 20
98.3938
 30
-3.91768e-012
  70
    32
  0
VERTEX
  8
0
  5
D67
 10
631.520
 20
98.3922
 30
-3.91762e-012
  70
    32
  0
VERTEX
  8
0
  5
D68
 10
631.515
 20
98.3906
 30
-3.91757e-012
  70
    32
  0
VERTEX
  8
0
  5
D69
 10
631.509
 20
98.3889
 30
-3.91752e-012
  70
    32
  0
VERTEX
  8
0
  5
D6A
 10
631.503
 20
98.3872
 30
-3.91746e-012
  70
    32
  0
VERTEX
  8
0
  5
D6B
 10
631.498
 20
98.3855
 30
-3.91741e-012
  70
    32
  0
VERTEX
  8
0
  5
D6C
 10
631.492
 20
98.3838
 30
-3.91736e-012
  70
    32
  0
VERTEX
  8
0
  5
D6D
 10
631.487
 20
98.3820
 30
-3.91731e-012
  70
    32
  0
VERTEX
  8
0
  5
D6E
 10
631.481
 20
98.3801
 30
-3.91727e-012
  70
    32
  0
VERTEX
  8
0
  5
D6F
 10
631.476
 20
98.3783
 30
-3.91722e-012
  70
    32
  0
VERTEX
  8
0
  5
D70
 10
631.471
 20
98.3764
 30
-3.91717e-012
  70
    32
  0
VERTEX
  8
0
  5
D71
 10
631.465
 20
98.3744
 30
-3.91713e-012
  70
    32
  0
VERTEX
  8
0
  5
D72
 10
631.460
 20
98.3725
 30
-3.91708e-012
  70
    32
  0
VERTEX
  8
0
  5
D73
 10
631.455
 20
98.3704
 30
-3.91704e-012
  70
    32
  0
VERTEX
  8
0
  5
D74
 10
631.450
 20
98.3684
 30
-3.91700e-012
  70
    32
  0
VERTEX
  8
0
  5
D75
 10
631.444
 20
98.3663
 30
-3.91696e-012
  70
    32
  0
VERTEX
  8
0
  5
D76
 10
631.439
 20
98.3642
 30
-3.91692e-012
  70
    32
  0
VERTEX
  8
0
  5
D77
 10
631.434
 20
98.3621
 30
-3.91688e-012
  70
    32
  0
VERTEX
  8
0
  5
D78
 10
631.429
 20
98.3599
 30
-3.91684e-012
  70
    32
  0
VERTEX
  8
0
  5
D79
 10
631.424
 20
98.3577
 30
-3.91680e-012
  70
    32
  0
VERTEX
  8
0
  5
D7A
 10
631.419
 20
98.3554
 30
-3.91677e-012
  70
    32
  0
VERTEX
  8
0
  5
D7B
 10
631.414
 20
98.3532
 30
-3.91673e-012
  70
    32
  0
VERTEX
  8
0
  5
D7C
 10
631.409
 20
98.3508
 30
-3.91670e-012
  70
    32
  0
VERTEX
  8
0
  5
D7D
 10
631.405
 20
98.3485
 30
-3.91666e-012
  70
    32
  0
VERTEX
  8
0
  5
D7E
 10
631.400
 20
98.3461
 30
-3.91663e-012
  70
    32
  0
VERTEX
  8
0
  5
D7F
 10
631.395
 20
98.3437
 30
-3.91660e-012
  70
    32
  0
VERTEX
  8
0
  5
D80
 10
631.390
 20
98.3413
 30
-3.91657e-012
  70
    32
  0
VERTEX
  8
0
  5
D81
 10
631.386
 20
98.3388
 30
-3.91654e-012
  70
    32
  0
VERTEX
  8
0
  5
D82
 10
631.381
 20
98.3363
 30
-3.91651e-012
  70
    32
  0
VERTEX
  8
0
  5
D83
 10
631.377
 20
98.3338
 30
-3.91648e-012
  70
    32
  0
VERTEX
  8
0
  5
D84
 10
631.372
 20
98.3312
 30
-3.91646e-012
  70
    32
  0
SEQEND
  8
0
  5
D85
  0
LINE
  5
791
  8
0
  6
CONTINUOUS
 10
631.37211497972237
 20
98.331246484035674
 30
-0.0000000000033905
 11
631.37211497972271
 21
343.28022076235141
 31
-0.000000000000301
210
0.000000000000008
220
0.8164965809277113
230
0.5773502691896467
  0
POLYLINE
  5
792
  8
0
  6
CONTINUOUS
 10
632.10714992445412
 20
343.30246118912316
 30
-0.0000000000006675
 66
     1
 70
     8
  0
VERTEX
  8
0
  5
D86
 10
632.107
 20
343.302
 30
-6.67497e-013
  70
    32
  0
VERTEX
  8
0
  5
D87
 10
632.102
 20
343.305
 30
-6.67404e-013
  70
    32
  0
VERTEX
  8
0
  5
D88
 10
632.097
 20
343.307
 30
-6.67310e-013
  70
    32
  0
VERTEX
  8
0
  5
D89
 10
632.092
 20
343.309
 30
-6.67217e-013
  70
    32
  0
VERTEX
  8
0
  5
D8A
 10
632.087
 20
343.311
 30
-6.67123e-013
  70
    32
  0
VERTEX
  8
0
  5
D8B
 10
632.082
 20
343.313
 30
-6.67029e-013
  70
    32
  0
VERTEX
  8
0
  5
D8C
 10
632.077
 20
343.316
 30
-6.66935e-013
  70
    32
  0
VERTEX
  8
0
  5
D8D
 10
632.072
 20
343.318
 30
-6.66841e-013
  70
    32
  0
VERTEX
  8
0
  5
D8E
 10
632.067
 20
343.320
 30
-6.66747e-013
  70
    32
  0
VERTEX
  8
0
  5
D8F
 10
632.061
 20
343.322
 30
-6.66653e-013
  70
    32
  0
VERTEX
  8
0
  5
D90
 10
632.056
 20
343.324
 30
-6.66558e-013
  70
    32
  0
VERTEX
  8
0
  5
D91
 10
632.051
 20
343.326
 30
-6.66464e-013
  70
    32
  0
VERTEX
  8
0
  5
D92
 10
632.045
 20
343.328
 30
-6.66369e-013
  70
    32
  0
VERTEX
  8
0
  5
D93
 10
632.040
 20
343.329
 30
-6.66275e-013
  70
    32
  0
VERTEX
  8
0
  5
D94
 10
632.034
 20
343.331
 30
-6.66180e-013
  70
    32
  0
VERTEX
  8
0
  5
D95
 10
632.029
 20
343.333
 30
-6.66086e-013
  70
    32
  0
VERTEX
  8
0
  5
D96
 10
632.023
 20
343.335
 30
-6.65991e-013
  70
    32
  0
VERTEX
  8
0
  5
D97
 10
632.018
 20
343.336
 30
-6.65897e-013
  70
    32
  0
VERTEX
  8
0
  5
D98
 10
632.012
 20
343.338
 30
-6.65802e-013
  70
    32
  0
VERTEX
  8
0
  5
D99
 10
632.007
 20
343.340
 30
-6.65708e-013
  70
    32
  0
VERTEX
  8
0
  5
D9A
 10
632.001
 20
343.341
 30
-6.65614e-013
  70
    32
  0
VERTEX
  8
0
  5
D9B
 10
631.995
 20
343.343
 30
-6.65519e-013
  70
    32
  0
VERTEX
  8
0
  5
D9C
 10
631.990
 20
343.344
 30
-6.65425e-013
  70
    32
  0
VERTEX
  8
0
  5
D9D
 10
631.984
 20
343.346
 30
-6.65331e-013
  70
    32
  0
VERTEX
  8
0
  5
D9E
 10
631.978
 20
343.347
 30
-6.65237e-013
  70
    32
  0
VERTEX
  8
0
  5
D9F
 10
631.972
 20
343.349
 30
-6.65143e-013
  70
    32
  0
VERTEX
  8
0
  5
DA0
 10
631.967
 20
343.350
 30
-6.65049e-013
  70
    32
  0
VERTEX
  8
0
  5
DA1
 10
631.961
 20
343.352
 30
-6.64955e-013
  70
    32
  0
VERTEX
  8
0
  5
DA2
 10
631.955
 20
343.353
 30
-6.64862e-013
  70
    32
  0
VERTEX
  8
0
  5
DA3
 10
631.949
 20
343.354
 30
-6.64769e-013
  70
    32
  0
VERTEX
  8
0
  5
DA4
 10
631.943
 20
343.355
 30
-6.64675e-013
  70
    32
  0
VERTEX
  8
0
  5
DA5
 10
631.937
 20
343.357
 30
-6.64582e-013
  70
    32
  0
VERTEX
  8
0
  5
DA6
 10
631.931
 20
343.358
 30
-6.64490e-013
  70
    32
  0
VERTEX
  8
0
  5
DA7
 10
631.925
 20
343.359
 30
-6.64397e-013
  70
    32
  0
VERTEX
  8
0
  5
DA8
 10
631.919
 20
343.360
 30
-6.64305e-013
  70
    32
  0
VERTEX
  8
0
  5
DA9
 10
631.913
 20
343.361
 30
-6.64212e-013
  70
    32
  0
VERTEX
  8
0
  5
DAA
 10
631.907
 20
343.362
 30
-6.64121e-013
  70
    32
  0
VERTEX
  8
0
  5
DAB
 10
631.901
 20
343.363
 30
-6.64029e-013
  70
    32
  0
VERTEX
  8
0
  5
DAC
 10
631.895
 20
343.364
 30
-6.63938e-013
  70
    32
  0
VERTEX
  8
0
  5
DAD
 10
631.889
 20
343.365
 30
-6.63846e-013
  70
    32
  0
VERTEX
  8
0
  5
DAE
 10
631.882
 20
343.365
 30
-6.63756e-013
  70
    32
  0
VERTEX
  8
0
  5
DAF
 10
631.876
 20
343.366
 30
-6.63665e-013
  70
    32
  0
VERTEX
  8
0
  5
DB0
 10
631.870
 20
343.367
 30
-6.63575e-013
  70
    32
  0
VERTEX
  8
0
  5
DB1
 10
631.864
 20
343.368
 30
-6.63485e-013
  70
    32
  0
VERTEX
  8
0
  5
DB2
 10
631.858
 20
343.368
 30
-6.63396e-013
  70
    32
  0
VERTEX
  8
0
  5
DB3
 10
631.852
 20
343.369
 30
-6.63307e-013
  70
    32
  0
VERTEX
  8
0
  5
DB4
 10
631.845
 20
343.369
 30
-6.63218e-013
  70
    32
  0
VERTEX
  8
0
  5
DB5
 10
631.839
 20
343.370
 30
-6.63129e-013
  70
    32
  0
VERTEX
  8
0
  5
DB6
 10
631.833
 20
343.371
 30
-6.63041e-013
  70
    32
  0
VERTEX
  8
0
  5
DB7
 10
631.827
 20
343.371
 30
-6.62954e-013
  70
    32
  0
VERTEX
  8
0
  5
DB8
 10
631.820
 20
343.371
 30
-6.62867e-013
  70
    32
  0
VERTEX
  8
0
  5
DB9
 10
631.814
 20
343.372
 30
-6.62780e-013
  70
    32
  0
VERTEX
  8
0
  5
DBA
 10
631.808
 20
343.372
 30
-6.62694e-013
  70
    32
  0
VERTEX
  8
0
  5
DBB
 10
631.801
 20
343.372
 30
-6.62608e-013
  70
    32
  0
VERTEX
  8
0
  5
DBC
 10
631.795
 20
343.373
 30
-6.62522e-013
  70
    32
  0
VERTEX
  8
0
  5
DBD
 10
631.789
 20
343.373
 30
-6.62437e-013
  70
    32
  0
VERTEX
  8
0
  5
DBE
 10
631.783
 20
343.373
 30
-6.62353e-013
  70
    32
  0
VERTEX
  8
0
  5
DBF
 10
631.776
 20
343.373
 30
-6.62269e-013
  70
    32
  0
VERTEX
  8
0
  5
DC0
 10
631.770
 20
343.373
 30
-6.62186e-013
  70
    32
  0
VERTEX
  8
0
  5
DC1
 10
631.764
 20
343.373
 30
-6.62103e-013
  70
    32
  0
VERTEX
  8
0
  5
DC2
 10
631.757
 20
343.373
 30
-6.62020e-013
  70
    32
  0
VERTEX
  8
0
  5
DC3
 10
631.751
 20
343.373
 30
-6.61938e-013
  70
    32
  0
VERTEX
  8
0
  5
DC4
 10
631.745
 20
343.373
 30
-6.61857e-013
  70
    32
  0
VERTEX
  8
0
  5
DC5
 10
631.739
 20
343.373
 30
-6.61776e-013
  70
    32
  0
VERTEX
  8
0
  5
DC6
 10
631.732
 20
343.373
 30
-6.61696e-013
  70
    32
  0
VERTEX
  8
0
  5
DC7
 10
631.726
 20
343.373
 30
-6.61616e-013
  70
    32
  0
VERTEX
  8
0
  5
DC8
 10
631.720
 20
343.372
 30
-6.61537e-013
  70
    32
  0
VERTEX
  8
0
  5
DC9
 10
631.713
 20
343.372
 30
-6.61459e-013
  70
    32
  0
VERTEX
  8
0
  5
DCA
 10
631.707
 20
343.372
 30
-6.61381e-013
  70
    32
  0
VERTEX
  8
0
  5
DCB
 10
631.701
 20
343.371
 30
-6.61304e-013
  70
    32
  0
VERTEX
  8
0
  5
DCC
 10
631.695
 20
343.371
 30
-6.61227e-013
  70
    32
  0
VERTEX
  8
0
  5
DCD
 10
631.688
 20
343.370
 30
-6.61151e-013
  70
    32
  0
VERTEX
  8
0
  5
DCE
 10
631.682
 20
343.370
 30
-6.61076e-013
  70
    32
  0
VERTEX
  8
0
  5
DCF
 10
631.676
 20
343.369
 30
-6.61001e-013
  70
    32
  0
VERTEX
  8
0
  5
DD0
 10
631.670
 20
343.369
 30
-6.60927e-013
  70
    32
  0
VERTEX
  8
0
  5
DD1
 10
631.663
 20
343.368
 30
-6.60854e-013
  70
    32
  0
VERTEX
  8
0
  5
DD2
 10
631.657
 20
343.368
 30
-6.60781e-013
  70
    32
  0
VERTEX
  8
0
  5
DD3
 10
631.651
 20
343.367
 30
-6.60709e-013
  70
    32
  0
VERTEX
  8
0
  5
DD4
 10
631.645
 20
343.366
 30
-6.60638e-013
  70
    32
  0
VERTEX
  8
0
  5
DD5
 10
631.639
 20
343.365
 30
-6.60568e-013
  70
    32
  0
VERTEX
  8
0
  5
DD6
 10
631.633
 20
343.364
 30
-6.60498e-013
  70
    32
  0
VERTEX
  8
0
  5
DD7
 10
631.627
 20
343.364
 30
-6.60429e-013
  70
    32
  0
VERTEX
  8
0
  5
DD8
 10
631.620
 20
343.363
 30
-6.60360e-013
  70
    32
  0
VERTEX
  8
0
  5
DD9
 10
631.614
 20
343.362
 30
-6.60293e-013
  70
    32
  0
VERTEX
  8
0
  5
DDA
 10
631.608
 20
343.361
 30
-6.60226e-013
  70
    32
  0
VERTEX
  8
0
  5
DDB
 10
631.602
 20
343.360
 30
-6.60160e-013
  70
    32
  0
VERTEX
  8
0
  5
DDC
 10
631.596
 20
343.359
 30
-6.60095e-013
  70
    32
  0
VERTEX
  8
0
  5
DDD
 10
631.590
 20
343.358
 30
-6.60031e-013
  70
    32
  0
VERTEX
  8
0
  5
DDE
 10
631.584
 20
343.356
 30
-6.59967e-013
  70
    32
  0
VERTEX
  8
0
  5
DDF
 10
631.578
 20
343.355
 30
-6.59904e-013
  70
    32
  0
VERTEX
  8
0
  5
DE0
 10
631.572
 20
343.354
 30
-6.59842e-013
  70
    32
  0
VERTEX
  8
0
  5
DE1
 10
631.566
 20
343.353
 30
-6.59781e-013
  70
    32
  0
VERTEX
  8
0
  5
DE2
 10
631.561
 20
343.351
 30
-6.59720e-013
  70
    32
  0
VERTEX
  8
0
  5
DE3
 10
631.555
 20
343.350
 30
-6.59661e-013
  70
    32
  0
VERTEX
  8
0
  5
DE4
 10
631.549
 20
343.349
 30
-6.59602e-013
  70
    32
  0
VERTEX
  8
0
  5
DE5
 10
631.543
 20
343.347
 30
-6.59544e-013
  70
    32
  0
VERTEX
  8
0
  5
DE6
 10
631.537
 20
343.346
 30
-6.59487e-013
  70
    32
  0
VERTEX
  8
0
  5
DE7
 10
631.532
 20
343.344
 30
-6.59431e-013
  70
    32
  0
VERTEX
  8
0
  5
DE8
 10
631.526
 20
343.343
 30
-6.59376e-013
  70
    32
  0
VERTEX
  8
0
  5
DE9
 10
631.520
 20
343.341
 30
-6.59322e-013
  70
    32
  0
VERTEX
  8
0
  5
DEA
 10
631.515
 20
343.340
 30
-6.59268e-013
  70
    32
  0
VERTEX
  8
0
  5
DEB
 10
631.509
 20
343.338
 30
-6.59216e-013
  70
    32
  0
VERTEX
  8
0
  5
DEC
 10
631.503
 20
343.336
 30
-6.59164e-013
  70
    32
  0
VERTEX
  8
0
  5
DED
 10
631.498
 20
343.334
 30
-6.59113e-013
  70
    32
  0
VERTEX
  8
0
  5
DEE
 10
631.492
 20
343.333
 30
-6.59063e-013
  70
    32
  0
VERTEX
  8
0
  5
DEF
 10
631.487
 20
343.331
 30
-6.59014e-013
  70
    32
  0
VERTEX
  8
0
  5
DF0
 10
631.481
 20
343.329
 30
-6.58966e-013
  70
    32
  0
VERTEX
  8
0
  5
DF1
 10
631.476
 20
343.327
 30
-6.58919e-013
  70
    32
  0
VERTEX
  8
0
  5
DF2
 10
631.471
 20
343.325
 30
-6.58873e-013
  70
    32
  0
VERTEX
  8
0
  5
DF3
 10
631.465
 20
343.323
 30
-6.58828e-013
  70
    32
  0
VERTEX
  8
0
  5
DF4
 10
631.460
 20
343.321
 30
-6.58784e-013
  70
    32
  0
VERTEX
  8
0
  5
DF5
 10
631.455
 20
343.319
 30
-6.58741e-013
  70
    32
  0
VERTEX
  8
0
  5
DF6
 10
631.450
 20
343.317
 30
-6.58698e-013
  70
    32
  0
VERTEX
  8
0
  5
DF7
 10
631.444
 20
343.315
 30
-6.58657e-013
  70
    32
  0
VERTEX
  8
0
  5
DF8
 10
631.439
 20
343.313
 30
-6.58617e-013
  70
    32
  0
VERTEX
  8
0
  5
DF9
 10
631.434
 20
343.311
 30
-6.58577e-013
  70
    32
  0
VERTEX
  8
0
  5
DFA
 10
631.429
 20
343.309
 30
-6.58539e-013
  70
    32
  0
VERTEX
  8
0
  5
DFB
 10
631.424
 20
343.307
 30
-6.58502e-013
  70
    32
  0
VERTEX
  8
0
  5
DFC
 10
631.419
 20
343.304
 30
-6.58465e-013
  70
    32
  0
VERTEX
  8
0
  5
DFD
 10
631.414
 20
343.302
 30
-6.58430e-013
  70
    32
  0
VERTEX
  8
0
  5
DFE
 10
631.409
 20
343.300
 30
-6.58395e-013
  70
    32
  0
VERTEX
  8
0
  5
DFF
 10
631.405
 20
343.297
 30
-6.58362e-013
  70
    32
  0
VERTEX
  8
0
  5
E00
 10
631.400
 20
343.295
 30
-6.58330e-013
  70
    32
  0
VERTEX
  8
0
  5
E01
 10
631.395
 20
343.293
 30
-6.58298e-013
  70
    32
  0
VERTEX
  8
0
  5
E02
 10
631.390
 20
343.290
 30
-6.58268e-013
  70
    32
  0
VERTEX
  8
0
  5
E03
 10
631.386
 20
343.288
 30
-6.58239e-013
  70
    32
  0
VERTEX
  8
0
  5
E04
 10
631.381
 20
343.285
 30
-6.58211e-013
  70
    32
  0
VERTEX
  8
0
  5
E05
 10
631.377
 20
343.283
 30
-6.58183e-013
  70
    32
  0
VERTEX
  8
0
  5
E06
 10
631.372
 20
343.280
 30
-6.58157e-013
  70
    32
  0
SEQEND
  8
0
  5
E07
  0
LINE
  5
793
  8
0
  6
CONTINUOUS
 10
659.65046557820187
 20
85.47618727260442
 30
-0.0000000000038313
 11
632.10714992445389
 21
98.353486910807561
 31
-0.0000000000031868
210
0.000000000000008
220
0.8164965809277113
230
0.5773502691896467
  0
LINE
  5
794
  8
0
  6
CONTINUOUS
 10
632.10714992445389
 20
98.353486910807561
 30
-0.0000000000031868
 11
632.10714992445389
 21
343.30246118912311
 31
-0.0000000000002794
210
0.000000000000008
220
0.8164965809277113
230
0.5773502691896467
  0
LINE
  5
795
  8
0
  6
CONTINUOUS
 10
659.65046557820187
 20
330.42516155091988
 30
-0.0000000000008397
 11
632.10714992445389
 21
343.30246118912311
 31
-0.0000000000002794
210
0.000000000000008
220
0.8164965809277113
230
0.5773502691896467
  0
POLYLINE
  5
796
  8
0
  6
CONTINUOUS
 10
659.65046557820187
 20
85.476187272604406
 30
-0.0000000000044141
 66
     1
 70
     8
  0
VERTEX
  8
0
  5
E08
 10
659.650
 20
85.4762
 30
-4.41406e-012
  70
    32
  0
VERTEX
  8
0
  5
E09
 10
659.660
 20
85.4716
 30
-4.41424e-012
  70
    32
  0
VERTEX
  8
0
  5
E0A
 10
659.670
 20
85.4672
 30
-4.41443e-012
  70
    32
  0
VERTEX
  8
0
  5
E0B
 10
659.680
 20
85.4627
 30
-4.41462e-012
  70
    32
  0
VERTEX
  8
0
  5
E0C
 10
659.690
 20
85.4584
 30
-4.41480e-012
  70
    32
  0
VERTEX
  8
0
  5
E0D
 10
659.701
 20
85.4541
 30
-4.41499e-012
  70
    32
  0
VERTEX
  8
0
  5
E0E
 10
659.711
 20
85.4499
 30
-4.41518e-012
  70
    32
  0
VERTEX
  8
0
  5
E0F
 10
659.721
 20
85.4458
 30
-4.41537e-012
  70
    32
  0
VERTEX
  8
0
  5
E10
 10
659.732
 20
85.4417
 30
-4.41556e-012
  70
    32
  0
VERTEX
  8
0
  5
E11
 10
659.742
 20
85.4377
 30
-4.41575e-012
  70
    32
  0
VERTEX
  8
0
  5
E12
 10
659.753
 20
85.4337
 30
-4.41594e-012
  70
    32
  0
VERTEX
  8
0
  5
E13
 10
659.763
 20
85.4299
 30
-4.41613e-012
  70
    32
  0
VERTEX
  8
0
  5
E14
 10
659.774
 20
85.4261
 30
-4.41632e-012
  70
    32
  0
VERTEX
  8
0
  5
E15
 10
659.785
 20
85.4224
 30
-4.41650e-012
  70
    32
  0
VERTEX
  8
0
  5
E16
 10
659.796
 20
85.4187
 30
-4.41669e-012
  70
    32
  0
VERTEX
  8
0
  5
E17
 10
659.807
 20
85.4151
 30
-4.41688e-012
  70
    32
  0
VERTEX
  8
0
  5
E18
 10
659.818
 20
85.4116
 30
-4.41707e-012
  70
    32
  0
VERTEX
  8
0
  5
E19
 10
659.829
 20
85.4082
 30
-4.41726e-012
  70
    32
  0
VERTEX
  8
0
  5
E1A
 10
659.840
 20
85.4048
 30
-4.41745e-012
  70
    32
  0
VERTEX
  8
0
  5
E1B
 10
659.851
 20
85.4015
 30
-4.41764e-012
  70
    32
  0
VERTEX
  8
0
  5
E1C
 10
659.863
 20
85.3983
 30
-4.41783e-012
  70
    32
  0
VERTEX
  8
0
  5
E1D
 10
659.874
 20
85.3952
 30
-4.41802e-012
  70
    32
  0
VERTEX
  8
0
  5
E1E
 10
659.885
 20
85.3921
 30
-4.41821e-012
  70
    32
  0
VERTEX
  8
0
  5
E1F
 10
659.897
 20
85.3891
 30
-4.41840e-012
  70
    32
  0
VERTEX
  8
0
  5
E20
 10
659.908
 20
85.3862
 30
-4.41858e-012
  70
    32
  0
VERTEX
  8
0
  5
E21
 10
659.920
 20
85.3834
 30
-4.41877e-012
  70
    32
  0
VERTEX
  8
0
  5
E22
 10
659.932
 20
85.3806
 30
-4.41896e-012
  70
    32
  0
VERTEX
  8
0
  5
E23
 10
659.943
 20
85.3780
 30
-4.41915e-012
  70
    32
  0
VERTEX
  8
0
  5
E24
 10
659.955
 20
85.3754
 30
-4.41934e-012
  70
    32
  0
VERTEX
  8
0
  5
E25
 10
659.967
 20
85.3728
 30
-4.41952e-012
  70
    32
  0
VERTEX
  8
0
  5
E26
 10
659.979
 20
85.3704
 30
-4.41971e-012
  70
    32
  0
VERTEX
  8
0
  5
E27
 10
659.991
 20
85.3680
 30
-4.41990e-012
  70
    32
  0
VERTEX
  8
0
  5
E28
 10
660.003
 20
85.3657
 30
-4.42008e-012
  70
    32
  0
VERTEX
  8
0
  5
E29
 10
660.015
 20
85.3635
 30
-4.42027e-012
  70
    32
  0
VERTEX
  8
0
  5
E2A
 10
660.027
 20
85.3614
 30
-4.42045e-012
  70
    32
  0
VERTEX
  8
0
  5
E2B
 10
660.039
 20
85.3594
 30
-4.42064e-012
  70
    32
  0
VERTEX
  8
0
  5
E2C
 10
660.051
 20
85.3574
 30
-4.42082e-012
  70
    32
  0
VERTEX
  8
0
  5
E2D
 10
660.063
 20
85.3555
 30
-4.42100e-012
  70
    32
  0
VERTEX
  8
0
  5
E2E
 10
660.075
 20
85.3537
 30
-4.42119e-012
  70
    32
  0
VERTEX
  8
0
  5
E2F
 10
660.088
 20
85.3520
 30
-4.42137e-012
  70
    32
  0
VERTEX
  8
0
  5
E30
 10
660.100
 20
85.3503
 30
-4.42155e-012
  70
    32
  0
VERTEX
  8
0
  5
E31
 10
660.112
 20
85.3488
 30
-4.42173e-012
  70
    32
  0
VERTEX
  8
0
  5
E32
 10
660.125
 20
85.3473
 30
-4.42191e-012
  70
    32
  0
VERTEX
  8
0
  5
E33
 10
660.137
 20
85.3459
 30
-4.42209e-012
  70
    32
  0
VERTEX
  8
0
  5
E34
 10
660.149
 20
85.3445
 30
-4.42227e-012
  70
    32
  0
VERTEX
  8
0
  5
E35
 10
660.162
 20
85.3433
 30
-4.42245e-012
  70
    32
  0
VERTEX
  8
0
  5
E36
 10
660.174
 20
85.3422
 30
-4.42263e-012
  70
    32
  0
VERTEX
  8
0
  5
E37
 10
660.187
 20
85.3411
 30
-4.42280e-012
  70
    32
  0
VERTEX
  8
0
  5
E38
 10
660.199
 20
85.3401
 30
-4.42298e-012
  70
    32
  0
VERTEX
  8
0
  5
E39
 10
660.212
 20
85.3392
 30
-4.42316e-012
  70
    32
  0
VERTEX
  8
0
  5
E3A
 10
660.224
 20
85.3384
 30
-4.42333e-012
  70
    32
  0
VERTEX
  8
0
  5
E3B
 10
660.237
 20
85.3376
 30
-4.42350e-012
  70
    32
  0
VERTEX
  8
0
  5
E3C
 10
660.249
 20
85.3370
 30
-4.42368e-012
  70
    32
  0
VERTEX
  8
0
  5
E3D
 10
660.262
 20
85.3364
 30
-4.42385e-012
  70
    32
  0
VERTEX
  8
0
  5
E3E
 10
660.274
 20
85.3359
 30
-4.42402e-012
  70
    32
  0
VERTEX
  8
0
  5
E3F
 10
660.287
 20
85.3355
 30
-4.42419e-012
  70
    32
  0
VERTEX
  8
0
  5
E40
 10
660.300
 20
85.3351
 30
-4.42436e-012
  70
    32
  0
VERTEX
  8
0
  5
E41
 10
660.312
 20
85.3349
 30
-4.42453e-012
  70
    32
  0
VERTEX
  8
0
  5
E42
 10
660.325
 20
85.3347
 30
-4.42469e-012
  70
    32
  0
VERTEX
  8
0
  5
E43
 10
660.337
 20
85.3347
 30
-4.42486e-012
  70
    32
  0
VERTEX
  8
0
  5
E44
 10
660.350
 20
85.3347
 30
-4.42502e-012
  70
    32
  0
VERTEX
  8
0
  5
E45
 10
660.363
 20
85.3348
 30
-4.42519e-012
  70
    32
  0
VERTEX
  8
0
  5
E46
 10
660.375
 20
85.3349
 30
-4.42535e-012
  70
    32
  0
VERTEX
  8
0
  5
E47
 10
660.388
 20
85.3352
 30
-4.42551e-012
  70
    32
  0
VERTEX
  8
0
  5
E48
 10
660.400
 20
85.3355
 30
-4.42567e-012
  70
    32
  0
VERTEX
  8
0
  5
E49
 10
660.413
 20
85.3359
 30
-4.42583e-012
  70
    32
  0
VERTEX
  8
0
  5
E4A
 10
660.425
 20
85.3365
 30
-4.42599e-012
  70
    32
  0
VERTEX
  8
0
  5
E4B
 10
660.438
 20
85.3370
 30
-4.42615e-012
  70
    32
  0
VERTEX
  8
0
  5
E4C
 10
660.451
 20
85.3377
 30
-4.42630e-012
  70
    32
  0
VERTEX
  8
0
  5
E4D
 10
660.463
 20
85.3385
 30
-4.42646e-012
  70
    32
  0
VERTEX
  8
0
  5
E4E
 10
660.476
 20
85.3393
 30
-4.42661e-012
  70
    32
  0
VERTEX
  8
0
  5
E4F
 10
660.488
 20
85.3402
 30
-4.42676e-012
  70
    32
  0
VERTEX
  8
0
  5
E50
 10
660.501
 20
85.3412
 30
-4.42691e-012
  70
    32
  0
VERTEX
  8
0
  5
E51
 10
660.513
 20
85.3423
 30
-4.42706e-012
  70
    32
  0
VERTEX
  8
0
  5
E52
 10
660.525
 20
85.3435
 30
-4.42721e-012
  70
    32
  0
VERTEX
  8
0
  5
E53
 10
660.538
 20
85.3447
 30
-4.42735e-012
  70
    32
  0
VERTEX
  8
0
  5
E54
 10
660.550
 20
85.3461
 30
-4.42750e-012
  70
    32
  0
VERTEX
  8
0
  5
E55
 10
660.563
 20
85.3475
 30
-4.42764e-012
  70
    32
  0
VERTEX
  8
0
  5
E56
 10
660.575
 20
85.3490
 30
-4.42779e-012
  70
    32
  0
VERTEX
  8
0
  5
E57
 10
660.587
 20
85.3505
 30
-4.42793e-012
  70
    32
  0
VERTEX
  8
0
  5
E58
 10
660.600
 20
85.3522
 30
-4.42807e-012
  70
    32
  0
VERTEX
  8
0
  5
E59
 10
660.612
 20
85.3539
 30
-4.42820e-012
  70
    32
  0
VERTEX
  8
0
  5
E5A
 10
660.624
 20
85.3558
 30
-4.42834e-012
  70
    32
  0
VERTEX
  8
0
  5
E5B
 10
660.636
 20
85.3577
 30
-4.42848e-012
  70
    32
  0
VERTEX
  8
0
  5
E5C
 10
660.648
 20
85.3596
 30
-4.42861e-012
  70
    32
  0
VERTEX
  8
0
  5
E5D
 10
660.660
 20
85.3617
 30
-4.42874e-012
  70
    32
  0
VERTEX
  8
0
  5
E5E
 10
660.672
 20
85.3638
 30
-4.42887e-012
  70
    32
  0
VERTEX
  8
0
  5
E5F
 10
660.684
 20
85.3661
 30
-4.42900e-012
  70
    32
  0
VERTEX
  8
0
  5
E60
 10
660.696
 20
85.3684
 30
-4.42913e-012
  70
    32
  0
VERTEX
  8
0
  5
E61
 10
660.708
 20
85.3707
 30
-4.42925e-012
  70
    32
  0
VERTEX
  8
0
  5
E62
 10
660.720
 20
85.3732
 30
-4.42938e-012
  70
    32
  0
VERTEX
  8
0
  5
E63
 10
660.732
 20
85.3757
 30
-4.42950e-012
  70
    32
  0
VERTEX
  8
0
  5
E64
 10
660.744
 20
85.3783
 30
-4.42962e-012
  70
    32
  0
VERTEX
  8
0
  5
E65
 10
660.755
 20
85.3810
 30
-4.42974e-012
  70
    32
  0
VERTEX
  8
0
  5
E66
 10
660.767
 20
85.3838
 30
-4.42985e-012
  70
    32
  0
VERTEX
  8
0
  5
E67
 10
660.779
 20
85.3866
 30
-4.42997e-012
  70
    32
  0
VERTEX
  8
0
  5
E68
 10
660.790
 20
85.3896
 30
-4.43008e-012
  70
    32
  0
VERTEX
  8
0
  5
E69
 10
660.802
 20
85.3926
 30
-4.43020e-012
  70
    32
  0
VERTEX
  8
0
  5
E6A
 10
660.813
 20
85.3956
 30
-4.43031e-012
  70
    32
  0
VERTEX
  8
0
  5
E6B
 10
660.824
 20
85.3988
 30
-4.43041e-012
  70
    32
  0
VERTEX
  8
0
  5
E6C
 10
660.836
 20
85.4020
 30
-4.43052e-012
  70
    32
  0
VERTEX
  8
0
  5
E6D
 10
660.847
 20
85.4053
 30
-4.43063e-012
  70
    32
  0
VERTEX
  8
0
  5
E6E
 10
660.858
 20
85.4087
 30
-4.43073e-012
  70
    32
  0
VERTEX
  8
0
  5
E6F
 10
660.869
 20
85.4121
 30
-4.43083e-012
  70
    32
  0
VERTEX
  8
0
  5
E70
 10
660.880
 20
85.4156
 30
-4.43093e-012
  70
    32
  0
VERTEX
  8
0
  5
E71
 10
660.891
 20
85.4192
 30
-4.43103e-012
  70
    32
  0
VERTEX
  8
0
  5
E72
 10
660.902
 20
85.4229
 30
-4.43112e-012
  70
    32
  0
VERTEX
  8
0
  5
E73
 10
660.913
 20
85.4266
 30
-4.43122e-012
  70
    32
  0
VERTEX
  8
0
  5
E74
 10
660.924
 20
85.4304
 30
-4.43131e-012
  70
    32
  0
VERTEX
  8
0
  5
E75
 10
660.934
 20
85.4343
 30
-4.43140e-012
  70
    32
  0
VERTEX
  8
0
  5
E76
 10
660.945
 20
85.4382
 30
-4.43149e-012
  70
    32
  0
VERTEX
  8
0
  5
E77
 10
660.955
 20
85.4423
 30
-4.43157e-012
  70
    32
  0
VERTEX
  8
0
  5
E78
 10
660.966
 20
85.4464
 30
-4.43166e-012
  70
    32
  0
VERTEX
  8
0
  5
E79
 10
660.976
 20
85.4505
 30
-4.43174e-012
  70
    32
  0
VERTEX
  8
0
  5
E7A
 10
660.986
 20
85.4547
 30
-4.43182e-012
  70
    32
  0
VERTEX
  8
0
  5
E7B
 10
660.997
 20
85.4590
 30
-4.43190e-012
  70
    32
  0
VERTEX
  8
0
  5
E7C
 10
661.007
 20
85.4634
 30
-4.43197e-012
  70
    32
  0
VERTEX
  8
0
  5
E7D
 10
661.017
 20
85.4678
 30
-4.43205e-012
  70
    32
  0
VERTEX
  8
0
  5
E7E
 10
661.027
 20
85.4723
 30
-4.43212e-012
  70
    32
  0
VERTEX
  8
0
  5
E7F
 10
661.036
 20
85.4768
 30
-4.43219e-012
  70
    32
  0
VERTEX
  8
0
  5
E80
 10
661.046
 20
85.4815
 30
-4.43226e-012
  70
    32
  0
VERTEX
  8
0
  5
E81
 10
661.056
 20
85.4861
 30
-4.43232e-012
  70
    32
  0
VERTEX
  8
0
  5
E82
 10
661.065
 20
85.4909
 30
-4.43239e-012
  70
    32
  0
VERTEX
  8
0
  5
E83
 10
661.075
 20
85.4957
 30
-4.43245e-012
  70
    32
  0
VERTEX
  8
0
  5
E84
 10
661.084
 20
85.5006
 30
-4.43251e-012
  70
    32
  0
VERTEX
  8
0
  5
E85
 10
661.093
 20
85.5055
 30
-4.43257e-012
  70
    32
  0
VERTEX
  8
0
  5
E86
 10
661.103
 20
85.5105
 30
-4.43262e-012
  70
    32
  0
VERTEX
  8
0
  5
E87
 10
661.112
 20
85.5156
 30
-4.43268e-012
  70
    32
  0
VERTEX
  8
0
  5
E88
 10
661.121
 20
85.5207
 30
-4.43273e-012
  70
    32
  0
SEQEND
  8
0
  5
E89
  0
LINE
  5
797
  8
0
  6
CONTINUOUS
 10
659.65046557820187
 20
85.47618727260442
 30
-0.0000000000038313
 11
659.65046557820187
 21
330.42516155091988
 31
-0.0000000000008397
210
0.000000000000008
220
0.8164965809277113
230
0.5773502691896467
  0
POLYLINE
  5
798
  8
0
  6
CONTINUOUS
 10
659.65046557820199
 20
330.42516155091994
 30
-0.000000000001236
 66
     1
 70
     8
  0
VERTEX
  8
0
  5
E8A
 10
659.650
 20
330.425
 30
-1.23596e-012
  70
    32
  0
VERTEX
  8
0
  5
E8B
 10
659.660
 20
330.421
 30
-1.23614e-012
  70
    32
  0
VERTEX
  8
0
  5
E8C
 10
659.670
 20
330.416
 30
-1.23633e-012
  70
    32
  0
VERTEX
  8
0
  5
E8D
 10
659.680
 20
330.412
 30
-1.23652e-012
  70
    32
  0
VERTEX
  8
0
  5
E8E
 10
659.690
 20
330.407
 30
-1.23670e-012
  70
    32
  0
VERTEX
  8
0
  5
E8F
 10
659.701
 20
330.403
 30
-1.23689e-012
  70
    32
  0
VERTEX
  8
0
  5
E90
 10
659.711
 20
330.399
 30
-1.23708e-012
  70
    32
  0
VERTEX
  8
0
  5
E91
 10
659.721
 20
330.395
 30
-1.23727e-012
  70
    32
  0
VERTEX
  8
0
  5
E92
 10
659.732
 20
330.391
 30
-1.23746e-012
  70
    32
  0
VERTEX
  8
0
  5
E93
 10
659.742
 20
330.387
 30
-1.23765e-012
  70
    32
  0
VERTEX
  8
0
  5
E94
 10
659.753
 20
330.383
 30
-1.23784e-012
  70
    32
  0
VERTEX
  8
0
  5
E95
 10
659.763
 20
330.379
 30
-1.23803e-012
  70
    32
  0
VERTEX
  8
0
  5
E96
 10
659.774
 20
330.375
 30
-1.23822e-012
  70
    32
  0
VERTEX
  8
0
  5
E97
 10
659.785
 20
330.371
 30
-1.23840e-012
  70
    32
  0
VERTEX
  8
0
  5
E98
 10
659.796
 20
330.368
 30
-1.23859e-012
  70
    32
  0
VERTEX
  8
0
  5
E99
 10
659.807
 20
330.364
 30
-1.23878e-012
  70
    32
  0
VERTEX
  8
0
  5
E9A
 10
659.818
 20
330.361
 30
-1.23897e-012
  70
    32
  0
VERTEX
  8
0
  5
E9B
 10
659.829
 20
330.357
 30
-1.23916e-012
  70
    32
  0
VERTEX
  8
0
  5
E9C
 10
659.840
 20
330.354
 30
-1.23935e-012
  70
    32
  0
VERTEX
  8
0
  5
E9D
 10
659.851
 20
330.351
 30
-1.23954e-012
  70
    32
  0
VERTEX
  8
0
  5
E9E
 10
659.863
 20
330.347
 30
-1.23973e-012
  70
    32
  0
VERTEX
  8
0
  5
E9F
 10
659.874
 20
330.344
 30
-1.23992e-012
  70
    32
  0
VERTEX
  8
0
  5
EA0
 10
659.885
 20
330.341
 30
-1.24011e-012
  70
    32
  0
VERTEX
  8
0
  5
EA1
 10
659.897
 20
330.338
 30
-1.24030e-012
  70
    32
  0
VERTEX
  8
0
  5
EA2
 10
659.908
 20
330.335
 30
-1.24048e-012
  70
    32
  0
VERTEX
  8
0
  5
EA3
 10
659.920
 20
330.332
 30
-1.24067e-012
  70
    32
  0
VERTEX
  8
0
  5
EA4
 10
659.932
 20
330.330
 30
-1.24086e-012
  70
    32
  0
VERTEX
  8
0
  5
EA5
 10
659.943
 20
330.327
 30
-1.24105e-012
  70
    32
  0
VERTEX
  8
0
  5
EA6
 10
659.955
 20
330.324
 30
-1.24124e-012
  70
    32
  0
VERTEX
  8
0
  5
EA7
 10
659.967
 20
330.322
 30
-1.24142e-012
  70
    32
  0
VERTEX
  8
0
  5
EA8
 10
659.979
 20
330.319
 30
-1.24161e-012
  70
    32
  0
VERTEX
  8
0
  5
EA9
 10
659.991
 20
330.317
 30
-1.24180e-012
  70
    32
  0
VERTEX
  8
0
  5
EAA
 10
660.003
 20
330.315
 30
-1.24198e-012
  70
    32
  0
VERTEX
  8
0
  5
EAB
 10
660.015
 20
330.313
 30
-1.24217e-012
  70
    32
  0
VERTEX
  8
0
  5
EAC
 10
660.027
 20
330.310
 30
-1.24235e-012
  70
    32
  0
VERTEX
  8
0
  5
EAD
 10
660.039
 20
330.308
 30
-1.24254e-012
  70
    32
  0
VERTEX
  8
0
  5
EAE
 10
660.051
 20
330.306
 30
-1.24272e-012
  70
    32
  0
VERTEX
  8
0
  5
EAF
 10
660.063
 20
330.304
 30
-1.24290e-012
  70
    32
  0
VERTEX
  8
0
  5
EB0
 10
660.075
 20
330.303
 30
-1.24309e-012
  70
    32
  0
VERTEX
  8
0
  5
EB1
 10
660.088
 20
330.301
 30
-1.24327e-012
  70
    32
  0
VERTEX
  8
0
  5
EB2
 10
660.100
 20
330.299
 30
-1.24345e-012
  70
    32
  0
VERTEX
  8
0
  5
EB3
 10
660.112
 20
330.298
 30
-1.24363e-012
  70
    32
  0
VERTEX
  8
0
  5
EB4
 10
660.125
 20
330.296
 30
-1.24381e-012
  70
    32
  0
VERTEX
  8
0
  5
EB5
 10
660.137
 20
330.295
 30
-1.24399e-012
  70
    32
  0
VERTEX
  8
0
  5
EB6
 10
660.149
 20
330.294
 30
-1.24417e-012
  70
    32
  0
VERTEX
  8
0
  5
EB7
 10
660.162
 20
330.292
 30
-1.24435e-012
  70
    32
  0
VERTEX
  8
0
  5
EB8
 10
660.174
 20
330.291
 30
-1.24453e-012
  70
    32
  0
VERTEX
  8
0
  5
EB9
 10
660.187
 20
330.290
 30
-1.24470e-012
  70
    32
  0
VERTEX
  8
0
  5
EBA
 10
660.199
 20
330.289
 30
-1.24488e-012
  70
    32
  0
VERTEX
  8
0
  5
EBB
 10
660.212
 20
330.288
 30
-1.24506e-012
  70
    32
  0
VERTEX
  8
0
  5
EBC
 10
660.224
 20
330.287
 30
-1.24523e-012
  70
    32
  0
VERTEX
  8
0
  5
EBD
 10
660.237
 20
330.287
 30
-1.24540e-012
  70
    32
  0
VERTEX
  8
0
  5
EBE
 10
660.249
 20
330.286
 30
-1.24558e-012
  70
    32
  0
VERTEX
  8
0
  5
EBF
 10
660.262
 20
330.285
 30
-1.24575e-012
  70
    32
  0
VERTEX
  8
0
  5
EC0
 10
660.274
 20
330.285
 30
-1.24592e-012
  70
    32
  0
VERTEX
  8
0
  5
EC1
 10
660.287
 20
330.284
 30
-1.24609e-012
  70
    32
  0
VERTEX
  8
0
  5
EC2
 10
660.300
 20
330.284
 30
-1.24626e-012
  70
    32
  0
VERTEX
  8
0
  5
EC3
 10
660.312
 20
330.284
 30
-1.24643e-012
  70
    32
  0
VERTEX
  8
0
  5
EC4
 10
660.325
 20
330.284
 30
-1.24659e-012
  70
    32
  0
VERTEX
  8
0
  5
EC5
 10
660.337
 20
330.284
 30
-1.24676e-012
  70
    32
  0
VERTEX
  8
0
  5
EC6
 10
660.350
 20
330.284
 30
-1.24692e-012
  70
    32
  0
VERTEX
  8
0
  5
EC7
 10
660.363
 20
330.284
 30
-1.24709e-012
  70
    32
  0
VERTEX
  8
0
  5
EC8
 10
660.375
 20
330.284
 30
-1.24725e-012
  70
    32
  0
VERTEX
  8
0
  5
EC9
 10
660.388
 20
330.284
 30
-1.24741e-012
  70
    32
  0
VERTEX
  8
0
  5
ECA
 10
660.400
 20
330.285
 30
-1.24757e-012
  70
    32
  0
VERTEX
  8
0
  5
ECB
 10
660.413
 20
330.285
 30
-1.24773e-012
  70
    32
  0
VERTEX
  8
0
  5
ECC
 10
660.425
 20
330.285
 30
-1.24789e-012
  70
    32
  0
VERTEX
  8
0
  5
ECD
 10
660.438
 20
330.286
 30
-1.24805e-012
  70
    32
  0
VERTEX
  8
0
  5
ECE
 10
660.451
 20
330.287
 30
-1.24820e-012
  70
    32
  0
VERTEX
  8
0
  5
ECF
 10
660.463
 20
330.287
 30
-1.24836e-012
  70
    32
  0
VERTEX
  8
0
  5
ED0
 10
660.476
 20
330.288
 30
-1.24851e-012
  70
    32
  0
VERTEX
  8
0
  5
ED1
 10
660.488
 20
330.289
 30
-1.24866e-012
  70
    32
  0
VERTEX
  8
0
  5
ED2
 10
660.501
 20
330.290
 30
-1.24881e-012
  70
    32
  0
VERTEX
  8
0
  5
ED3
 10
660.513
 20
330.291
 30
-1.24896e-012
  70
    32
  0
VERTEX
  8
0
  5
ED4
 10
660.525
 20
330.292
 30
-1.24911e-012
  70
    32
  0
VERTEX
  8
0
  5
ED5
 10
660.538
 20
330.294
 30
-1.24925e-012
  70
    32
  0
VERTEX
  8
0
  5
ED6
 10
660.550
 20
330.295
 30
-1.24940e-012
  70
    32
  0
VERTEX
  8
0
  5
ED7
 10
660.563
 20
330.296
 30
-1.24954e-012
  70
    32
  0
VERTEX
  8
0
  5
ED8
 10
660.575
 20
330.298
 30
-1.24969e-012
  70
    32
  0
VERTEX
  8
0
  5
ED9
 10
660.587
 20
330.300
 30
-1.24983e-012
  70
    32
  0
VERTEX
  8
0
  5
EDA
 10
660.600
 20
330.301
 30
-1.24997e-012
  70
    32
  0
VERTEX
  8
0
  5
EDB
 10
660.612
 20
330.303
 30
-1.25010e-012
  70
    32
  0
VERTEX
  8
0
  5
EDC
 10
660.624
 20
330.305
 30
-1.25024e-012
  70
    32
  0
VERTEX
  8
0
  5
EDD
 10
660.636
 20
330.307
 30
-1.25038e-012
  70
    32
  0
VERTEX
  8
0
  5
EDE
 10
660.648
 20
330.309
 30
-1.25051e-012
  70
    32
  0
VERTEX
  8
0
  5
EDF
 10
660.660
 20
330.311
 30
-1.25064e-012
  70
    32
  0
VERTEX
  8
0
  5
EE0
 10
660.672
 20
330.313
 30
-1.25077e-012
  70
    32
  0
VERTEX
  8
0
  5
EE1
 10
660.684
 20
330.315
 30
-1.25090e-012
  70
    32
  0
VERTEX
  8
0
  5
EE2
 10
660.696
 20
330.317
 30
-1.25103e-012
  70
    32
  0
VERTEX
  8
0
  5
EE3
 10
660.708
 20
330.320
 30
-1.25115e-012
  70
    32
  0
VERTEX
  8
0
  5
EE4
 10
660.720
 20
330.322
 30
-1.25128e-012
  70
    32
  0
VERTEX
  8
0
  5
EE5
 10
660.732
 20
330.325
 30
-1.25140e-012
  70
    32
  0
VERTEX
  8
0
  5
EE6
 10
660.744
 20
330.327
 30
-1.25152e-012
  70
    32
  0
VERTEX
  8
0
  5
EE7
 10
660.755
 20
330.330
 30
-1.25164e-012
  70
    32
  0
VERTEX
  8
0
  5
EE8
 10
660.767
 20
330.333
 30
-1.25175e-012
  70
    32
  0
VERTEX
  8
0
  5
EE9
 10
660.779
 20
330.336
 30
-1.25187e-012
  70
    32
  0
VERTEX
  8
0
  5
EEA
 10
660.790
 20
330.339
 30
-1.25198e-012
  70
    32
  0
VERTEX
  8
0
  5
EEB
 10
660.802
 20
330.342
 30
-1.25210e-012
  70
    32
  0
VERTEX
  8
0
  5
EEC
 10
660.813
 20
330.345
 30
-1.25221e-012
  70
    32
  0
VERTEX
  8
0
  5
EED
 10
660.824
 20
330.348
 30
-1.25231e-012
  70
    32
  0
VERTEX
  8
0
  5
EEE
 10
660.836
 20
330.351
 30
-1.25242e-012
  70
    32
  0
VERTEX
  8
0
  5
EEF
 10
660.847
 20
330.354
 30
-1.25253e-012
  70
    32
  0
VERTEX
  8
0
  5
EF0
 10
660.858
 20
330.358
 30
-1.25263e-012
  70
    32
  0
VERTEX
  8
0
  5
EF1
 10
660.869
 20
330.361
 30
-1.25273e-012
  70
    32
  0
VERTEX
  8
0
  5
EF2
 10
660.880
 20
330.365
 30
-1.25283e-012
  70
    32
  0
VERTEX
  8
0
  5
EF3
 10
660.891
 20
330.368
 30
-1.25293e-012
  70
    32
  0
VERTEX
  8
0
  5
EF4
 10
660.902
 20
330.372
 30
-1.25302e-012
  70
    32
  0
VERTEX
  8
0
  5
EF5
 10
660.913
 20
330.376
 30
-1.25312e-012
  70
    32
  0
VERTEX
  8
0
  5
EF6
 10
660.924
 20
330.379
 30
-1.25321e-012
  70
    32
  0
VERTEX
  8
0
  5
EF7
 10
660.934
 20
330.383
 30
-1.25330e-012
  70
    32
  0
VERTEX
  8
0
  5
EF8
 10
660.945
 20
330.387
 30
-1.25339e-012
  70
    32
  0
VERTEX
  8
0
  5
EF9
 10
660.955
 20
330.391
 30
-1.25347e-012
  70
    32
  0
VERTEX
  8
0
  5
EFA
 10
660.966
 20
330.395
 30
-1.25356e-012
  70
    32
  0
VERTEX
  8
0
  5
EFB
 10
660.976
 20
330.399
 30
-1.25364e-012
  70
    32
  0
VERTEX
  8
0
  5
EFC
 10
660.986
 20
330.404
 30
-1.25372e-012
  70
    32
  0
VERTEX
  8
0
  5
EFD
 10
660.997
 20
330.408
 30
-1.25380e-012
  70
    32
  0
VERTEX
  8
0
  5
EFE
 10
661.007
 20
330.412
 30
-1.25387e-012
  70
    32
  0
VERTEX
  8
0
  5
EFF
 10
661.017
 20
330.417
 30
-1.25395e-012
  70
    32
  0
VERTEX
  8
0
  5
F00
 10
661.027
 20
330.421
 30
-1.25402e-012
  70
    32
  0
VERTEX
  8
0
  5
F01
 10
661.036
 20
330.426
 30
-1.25409e-012
  70
    32
  0
VERTEX
  8
0
  5
F02
 10
661.046
 20
330.430
 30
-1.25416e-012
  70
    32
  0
VERTEX
  8
0
  5
F03
 10
661.056
 20
330.435
 30
-1.25422e-012
  70
    32
  0
VERTEX
  8
0
  5
F04
 10
661.065
 20
330.440
 30
-1.25429e-012
  70
    32
  0
VERTEX
  8
0
  5
F05
 10
661.075
 20
330.445
 30
-1.25435e-012
  70
    32
  0
VERTEX
  8
0
  5
F06
 10
661.084
 20
330.450
 30
-1.25441e-012
  70
    32
  0
VERTEX
  8
0
  5
F07
 10
661.093
 20
330.454
 30
-1.25447e-012
  70
    32
  0
VERTEX
  8
0
  5
F08
 10
661.103
 20
330.459
 30
-1.25452e-012
  70
    32
  0
VERTEX
  8
0
  5
F09
 10
661.112
 20
330.465
 30
-1.25458e-012
  70
    32
  0
VERTEX
  8
0
  5
F0A
 10
661.121
 20
330.470
 30
-1.25463e-012
  70
    32
  0
SEQEND
  8
0
  5
F0B
  0
LINE
  5
799
  8
0
  6
CONTINUOUS
 10
668.45030561900512
 20
89.752512896121587
 30
-0.0000000000039217
 11
661.12053546766151
 21
85.520668126145168
 31
-0.0000000000038929
210
0.000000000000008
220
0.8164965809277113
230
0.5773502691896467
  0
LINE
  5
79A
  8
0
  6
CONTINUOUS
 10
661.12053546766151
 20
85.520668126145168
 30
-0.0000000000038929
 11
661.12053546766174
 21
330.46964240446079
 31
-0.0000000000007448
210
0.000000000000008
220
0.8164965809277113
230
0.5773502691896467
  0
LINE
  5
79B
  8
0
  6
CONTINUOUS
 10
668.45030561900512
 20
334.70148717443709
 30
-0.0000000000008411
 11
661.12053546766174
 21
330.46964240446079
 31
-0.0000000000007448
210
0.000000000000008
220
0.8164965809277113
230
0.5773502691896467
  0
POLYLINE
  5
79C
  8
0
  6
CONTINUOUS
 10
668.45030561900512
 20
89.752512896121544
 30
-0.0000000000043478
 66
     1
 70
     8
  0
VERTEX
  8
0
  5
F0C
 10
668.450
 20
89.7525
 30
-4.34780e-012
  70
    32
  0
VERTEX
  8
0
  5
F0D
 10
668.458
 20
89.7571
 30
-4.34785e-012
  70
    32
  0
VERTEX
  8
0
  5
F0E
 10
668.466
 20
89.7617
 30
-4.34789e-012
  70
    32
  0
VERTEX
  8
0
  5
F0F
 10
668.474
 20
89.7664
 30
-4.34794e-012
  70
    32
  0
VERTEX
  8
0
  5
F10
 10
668.482
 20
89.7710
 30
-4.34798e-012
  70
    32
  0
VERTEX
  8
0
  5
F11
 10
668.489
 20
89.7757
 30
-4.34802e-012
  70
    32
  0
VERTEX
  8
0
  5
F12
 10
668.497
 20
89.7804
 30
-4.34806e-012
  70
    32
  0
VERTEX
  8
0
  5
F13
 10
668.505
 20
89.7852
 30
-4.34810e-012
  70
    32
  0
VERTEX
  8
0
  5
F14
 10
668.512
 20
89.7900
 30
-4.34814e-012
  70
    32
  0
VERTEX
  8
0
  5
F15
 10
668.520
 20
89.7948
 30
-4.34818e-012
  70
    32
  0
VERTEX
  8
0
  5
F16
 10
668.527
 20
89.7996
 30
-4.34822e-012
  70
    32
  0
VERTEX
  8
0
  5
F17
 10
668.534
 20
89.8045
 30
-4.34825e-012
  70
    32
  0
VERTEX
  8
0
  5
F18
 10
668.542
 20
89.8093
 30
-4.34829e-012
  70
    32
  0
VERTEX
  8
0
  5
F19
 10
668.549
 20
89.8142
 30
-4.34832e-012
  70
    32
  0
VERTEX
  8
0
  5
F1A
 10
668.556
 20
89.8192
 30
-4.34836e-012
  70
    32
  0
VERTEX
  8
0
  5
F1B
 10
668.563
 20
89.8241
 30
-4.34839e-012
  70
    32
  0
VERTEX
  8
0
  5
F1C
 10
668.571
 20
89.8291
 30
-4.34842e-012
  70
    32
  0
VERTEX
  8
0
  5
F1D
 10
668.578
 20
89.8341
 30
-4.34845e-012
  70
    32
  0
VERTEX
  8
0
  5
F1E
 10
668.585
 20
89.8392
 30
-4.34848e-012
  70
    32
  0
VERTEX
  8
0
  5
F1F
 10
668.592
 20
89.8442
 30
-4.34851e-012
  70
    32
  0
VERTEX
  8
0
  5
F20
 10
668.599
 20
89.8493
 30
-4.34853e-012
  70
    32
  0
VERTEX
  8
0
  5
F21
 10
668.605
 20
89.8544
 30
-4.34856e-012
  70
    32
  0
VERTEX
  8
0
  5
F22
 10
668.612
 20
89.8596
 30
-4.34858e-012
  70
    32
  0
VERTEX
  8
0
  5
F23
 10
668.619
 20
89.8647
 30
-4.34861e-012
  70
    32
  0
VERTEX
  8
0
  5
F24
 10
668.626
 20
89.8699
 30
-4.34863e-012
  70
    32
  0
VERTEX
  8
0
  5
F25
 10
668.632
 20
89.8751
 30
-4.34865e-012
  70
    32
  0
VERTEX
  8
0
  5
F26
 10
668.639
 20
89.8803
 30
-4.34867e-012
  70
    32
  0
VERTEX
  8
0
  5
F27
 10
668.645
 20
89.8856
 30
-4.34869e-012
  70
    32
  0
VERTEX
  8
0
  5
F28
 10
668.652
 20
89.8909
 30
-4.34871e-012
  70
    32
  0
VERTEX
  8
0
  5
F29
 10
668.658
 20
89.8962
 30
-4.34873e-012
  70
    32
  0
VERTEX
  8
0
  5
F2A
 10
668.665
 20
89.9015
 30
-4.34874e-012
  70
    32
  0
VERTEX
  8
0
  5
F2B
 10
668.671
 20
89.9068
 30
-4.34876e-012
  70
    32
  0
VERTEX
  8
0
  5
F2C
 10
668.677
 20
89.9122
 30
-4.34877e-012
  70
    32
  0
VERTEX
  8
0
  5
F2D
 10
668.683
 20
89.9176
 30
-4.34879e-012
  70
    32
  0
VERTEX
  8
0
  5
F2E
 10
668.690
 20
89.9230
 30
-4.34880e-012
  70
    32
  0
VERTEX
  8
0
  5
F2F
 10
668.696
 20
89.9284
 30
-4.34881e-012
  70
    32
  0
VERTEX
  8
0
  5
F30
 10
668.702
 20
89.9339
 30
-4.34882e-012
  70
    32
  0
VERTEX
  8
0
  5
F31
 10
668.708
 20
89.9393
 30
-4.34883e-012
  70
    32
  0
VERTEX
  8
0
  5
F32
 10
668.714
 20
89.9448
 30
-4.34884e-012
  70
    32
  0
VERTEX
  8
0
  5
F33
 10
668.719
 20
89.9503
 30
-4.34884e-012
  70
    32
  0
VERTEX
  8
0
  5
F34
 10
668.725
 20
89.9559
 30
-4.34885e-012
  70
    32
  0
VERTEX
  8
0
  5
F35
 10
668.731
 20
89.9614
 30
-4.34886e-012
  70
    32
  0
VERTEX
  8
0
  5
F36
 10
668.737
 20
89.9670
 30
-4.34886e-012
  70
    32
  0
VERTEX
  8
0
  5
F37
 10
668.742
 20
89.9726
 30
-4.34886e-012
  70
    32
  0
VERTEX
  8
0
  5
F38
 10
668.748
 20
89.9782
 30
-4.34886e-012
  70
    32
  0
VERTEX
  8
0
  5
F39
 10
668.753
 20
89.9839
 30
-4.34887e-012
  70
    32
  0
VERTEX
  8
0
  5
F3A
 10
668.759
 20
89.9895
 30
-4.34887e-012
  70
    32
  0
VERTEX
  8
0
  5
F3B
 10
668.764
 20
89.9952
 30
-4.34886e-012
  70
    32
  0
VERTEX
  8
0
  5
F3C
 10
668.769
 20
90.0009
 30
-4.34886e-012
  70
    32
  0
VERTEX
  8
0
  5
F3D
 10
668.775
 20
90.0066
 30
-4.34886e-012
  70
    32
  0
VERTEX
  8
0
  5
F3E
 10
668.780
 20
90.0123
 30
-4.34885e-012
  70
    32
  0
VERTEX
  8
0
  5
F3F
 10
668.785
 20
90.0181
 30
-4.34885e-012
  70
    32
  0
VERTEX
  8
0
  5
F40
 10
668.790
 20
90.0238
 30
-4.34884e-012
  70
    32
  0
VERTEX
  8
0
  5
F41
 10
668.795
 20
90.0296
 30
-4.34884e-012
  70
    32
  0
VERTEX
  8
0
  5
F42
 10
668.800
 20
90.0354
 30
-4.34883e-012
  70
    32
  0
VERTEX
  8
0
  5
F43
 10
668.805
 20
90.0412
 30
-4.34882e-012
  70
    32
  0
VERTEX
  8
0
  5
F44
 10
668.810
 20
90.0471
 30
-4.34881e-012
  70
    32
  0
VERTEX
  8
0
  5
F45
 10
668.814
 20
90.0529
 30
-4.34880e-012
  70
    32
  0
VERTEX
  8
0
  5
F46
 10
668.819
 20
90.0588
 30
-4.34878e-012
  70
    32
  0
VERTEX
  8
0
  5
F47
 10
668.824
 20
90.0647
 30
-4.34877e-012
  70
    32
  0
VERTEX
  8
0
  5
F48
 10
668.828
 20
90.0706
 30
-4.34876e-012
  70
    32
  0
VERTEX
  8
0
  5
F49
 10
668.833
 20
90.0765
 30
-4.34874e-012
  70
    32
  0
VERTEX
  8
0
  5
F4A
 10
668.837
 20
90.0824
 30
-4.34872e-012
  70
    32
  0
VERTEX
  8
0
  5
F4B
 10
668.842
 20
90.0884
 30
-4.34871e-012
  70
    32
  0
VERTEX
  8
0
  5
F4C
 10
668.846
 20
90.0943
 30
-4.34869e-012
  70
    32
  0
VERTEX
  8
0
  5
F4D
 10
668.850
 20
90.1003
 30
-4.34867e-012
  70
    32
  0
VERTEX
  8
0
  5
F4E
 10
668.854
 20
90.1063
 30
-4.34865e-012
  70
    32
  0
VERTEX
  8
0
  5
F4F
 10
668.858
 20
90.1123
 30
-4.34862e-012
  70
    32
  0
VERTEX
  8
0
  5
F50
 10
668.863
 20
90.1184
 30
-4.34860e-012
  70
    32
  0
VERTEX
  8
0
  5
F51
 10
668.867
 20
90.1244
 30
-4.34858e-012
  70
    32
  0
VERTEX
  8
0
  5
F52
 10
668.870
 20
90.1304
 30
-4.34855e-012
  70
    32
  0
VERTEX
  8
0
  5
F53
 10
668.874
 20
90.1365
 30
-4.34853e-012
  70
    32
  0
VERTEX
  8
0
  5
F54
 10
668.878
 20
90.1426
 30
-4.34850e-012
  70
    32
  0
VERTEX
  8
0
  5
F55
 10
668.882
 20
90.1487
 30
-4.34847e-012
  70
    32
  0
VERTEX
  8
0
  5
F56
 10
668.886
 20
90.1548
 30
-4.34844e-012
  70
    32
  0
VERTEX
  8
0
  5
F57
 10
668.889
 20
90.1609
 30
-4.34841e-012
  70
    32
  0
VERTEX
  8
0
  5
F58
 10
668.893
 20
90.1671
 30
-4.34838e-012
  70
    32
  0
VERTEX
  8
0
  5
F59
 10
668.896
 20
90.1732
 30
-4.34835e-012
  70
    32
  0
VERTEX
  8
0
  5
F5A
 10
668.900
 20
90.1794
 30
-4.34832e-012
  70
    32
  0
VERTEX
  8
0
  5
F5B
 10
668.903
 20
90.1855
 30
-4.34828e-012
  70
    32
  0
VERTEX
  8
0
  5
F5C
 10
668.906
 20
90.1917
 30
-4.34825e-012
  70
    32
  0
VERTEX
  8
0
  5
F5D
 10
668.909
 20
90.1979
 30
-4.34821e-012
  70
    32
  0
VERTEX
  8
0
  5
F5E
 10
668.913
 20
90.2041
 30
-4.34817e-012
  70
    32
  0
VERTEX
  8
0
  5
F5F
 10
668.916
 20
90.2103
 30
-4.34814e-012
  70
    32
  0
VERTEX
  8
0
  5
F60
 10
668.919
 20
90.2165
 30
-4.34810e-012
  70
    32
  0
VERTEX
  8
0
  5
F61
 10
668.922
 20
90.2228
 30
-4.34806e-012
  70
    32
  0
VERTEX
  8
0
  5
F62
 10
668.925
 20
90.2290
 30
-4.34801e-012
  70
    32
  0
VERTEX
  8
0
  5
F63
 10
668.927
 20
90.2353
 30
-4.34797e-012
  70
    32
  0
VERTEX
  8
0
  5
F64
 10
668.930
 20
90.2415
 30
-4.34793e-012
  70
    32
  0
VERTEX
  8
0
  5
F65
 10
668.933
 20
90.2478
 30
-4.34788e-012
  70
    32
  0
VERTEX
  8
0
  5
F66
 10
668.935
 20
90.2541
 30
-4.34784e-012
  70
    32
  0
VERTEX
  8
0
  5
F67
 10
668.938
 20
90.2604
 30
-4.34779e-012
  70
    32
  0
VERTEX
  8
0
  5
F68
 10
668.940
 20
90.2667
 30
-4.34775e-012
  70
    32
  0
VERTEX
  8
0
  5
F69
 10
668.943
 20
90.2730
 30
-4.34770e-012
  70
    32
  0
VERTEX
  8
0
  5
F6A
 10
668.945
 20
90.2793
 30
-4.34765e-012
  70
    32
  0
VERTEX
  8
0
  5
F6B
 10
668.948
 20
90.2857
 30
-4.34760e-012
  70
    32
  0
VERTEX
  8
0
  5
F6C
 10
668.950
 20
90.2920
 30
-4.34755e-012
  70
    32
  0
VERTEX
  8
0
  5
F6D
 10
668.952
 20
90.2984
 30
-4.34750e-012
  70
    32
  0
VERTEX
  8
0
  5
F6E
 10
668.954
 20
90.3047
 30
-4.34744e-012
  70
    32
  0
VERTEX
  8
0
  5
F6F
 10
668.956
 20
90.3111
 30
-4.34739e-012
  70
    32
  0
VERTEX
  8
0
  5
F70
 10
668.958
 20
90.3174
 30
-4.34733e-012
  70
    32
  0
VERTEX
  8
0
  5
F71
 10
668.960
 20
90.3238
 30
-4.34728e-012
  70
    32
  0
VERTEX
  8
0
  5
F72
 10
668.962
 20
90.3302
 30
-4.34722e-012
  70
    32
  0
VERTEX
  8
0
  5
F73
 10
668.963
 20
90.3366
 30
-4.34716e-012
  70
    32
  0
VERTEX
  8
0
  5
F74
 10
668.965
 20
90.3430
 30
-4.34710e-012
  70
    32
  0
VERTEX
  8
0
  5
F75
 10
668.967
 20
90.3494
 30
-4.34704e-012
  70
    32
  0
VERTEX
  8
0
  5
F76
 10
668.968
 20
90.3558
 30
-4.34698e-012
  70
    32
  0
VERTEX
  8
0
  5
F77
 10
668.970
 20
90.3622
 30
-4.34692e-012
  70
    32
  0
VERTEX
  8
0
  5
F78
 10
668.971
 20
90.3686
 30
-4.34686e-012
  70
    32
  0
VERTEX
  8
0
  5
F79
 10
668.972
 20
90.3750
 30
-4.34679e-012
  70
    32
  0
VERTEX
  8
0
  5
F7A
 10
668.974
 20
90.3814
 30
-4.34673e-012
  70
    32
  0
VERTEX
  8
0
  5
F7B
 10
668.975
 20
90.3879
 30
-4.34666e-012
  70
    32
  0
VERTEX
  8
0
  5
F7C
 10
668.976
 20
90.3943
 30
-4.34660e-012
  70
    32
  0
VERTEX
  8
0
  5
F7D
 10
668.977
 20
90.4007
 30
-4.34653e-012
  70
    32
  0
VERTEX
  8
0
  5
F7E
 10
668.978
 20
90.4072
 30
-4.34646e-012
  70
    32
  0
VERTEX
  8
0
  5
F7F
 10
668.979
 20
90.4136
 30
-4.34639e-012
  70
    32
  0
VERTEX
  8
0
  5
F80
 10
668.980
 20
90.4201
 30
-4.34632e-012
  70
    32
  0
VERTEX
  8
0
  5
F81
 10
668.981
 20
90.4265
 30
-4.34625e-012
  70
    32
  0
VERTEX
  8
0
  5
F82
 10
668.981
 20
90.4330
 30
-4.34618e-012
  70
    32
  0
VERTEX
  8
0
  5
F83
 10
668.982
 20
90.4394
 30
-4.34610e-012
  70
    32
  0
VERTEX
  8
0
  5
F84
 10
668.983
 20
90.4459
 30
-4.34603e-012
  70
    32
  0
VERTEX
  8
0
  5
F85
 10
668.983
 20
90.4523
 30
-4.34595e-012
  70
    32
  0
VERTEX
  8
0
  5
F86
 10
668.984
 20
90.4588
 30
-4.34588e-012
  70
    32
  0
VERTEX
  8
0
  5
F87
 10
668.984
 20
90.4652
 30
-4.34580e-012
  70
    32
  0
VERTEX
  8
0
  5
F88
 10
668.984
 20
90.4717
 30
-4.34572e-012
  70
    32
  0
VERTEX
  8
0
  5
F89
 10
668.985
 20
90.4782
 30
-4.34564e-012
  70
    32
  0
VERTEX
  8
0
  5
F8A
 10
668.985
 20
90.4846
 30
-4.34556e-012
  70
    32
  0
VERTEX
  8
0
  5
F8B
 10
668.985
 20
90.4911
 30
-4.34548e-012
  70
    32
  0
VERTEX
  8
0
  5
F8C
 10
668.985
 20
90.4976
 30
-4.34540e-012
  70
    32
  0
SEQEND
  8
0
  5
F8D
  0
LINE
  5
79D
  8
0
  6
CONTINUOUS
 10
668.45030561900512
 20
89.752512896121587
 30
-0.0000000000039217
 11
668.45030561900512
 21
334.70148717443709
 31
-0.0000000000008411
210
0.000000000000008
220
0.8164965809277113
230
0.5773502691896467
  0
POLYLINE
  5
79E
  8
0
  6
CONTINUOUS
 10
668.45030561900535
 20
334.7014871744372
 30
-0.0000000000012548
 66
     1
 70
     8
  0
VERTEX
  8
0
  5
F8E
 10
668.450
 20
334.701
 30
-1.25480e-012
  70
    32
  0
VERTEX
  8
0
  5
F8F
 10
668.482
 20
334.720
 30
-1.25498e-012
  70
    32
  0
VERTEX
  8
0
  5
F90
 10
668.512
 20
334.739
 30
-1.25514e-012
  70
    32
  0
VERTEX
  8
0
  5
F91
 10
668.542
 20
334.758
 30
-1.25529e-012
  70
    32
  0
VERTEX
  8
0
  5
F92
 10
668.571
 20
334.778
 30
-1.25542e-012
  70
    32
  0
VERTEX
  8
0
  5
F93
 10
668.599
 20
334.798
 30
-1.25553e-012
  70
    32
  0
VERTEX
  8
0
  5
F94
 10
668.626
 20
334.819
 30
-1.25563e-012
  70
    32
  0
VERTEX
  8
0
  5
F95
 10
668.652
 20
334.840
 30
-1.25571e-012
  70
    32
  0
VERTEX
  8
0
  5
F96
 10
668.677
 20
334.861
 30
-1.25577e-012
  70
    32
  0
VERTEX
  8
0
  5
F97
 10
668.702
 20
334.883
 30
-1.25582e-012
  70
    32
  0
VERTEX
  8
0
  5
F98
 10
668.725
 20
334.905
 30
-1.25585e-012
  70
    32
  0
VERTEX
  8
0
  5
F99
 10
668.748
 20
334.927
 30
-1.25586e-012
  70
    32
  0
VERTEX
  8
0
  5
F9A
 10
668.769
 20
334.950
 30
-1.25586e-012
  70
    32
  0
VERTEX
  8
0
  5
F9B
 10
668.790
 20
334.973
 30
-1.25584e-012
  70
    32
  0
VERTEX
  8
0
  5
F9C
 10
668.810
 20
334.996
 30
-1.25581e-012
  70
    32
  0
VERTEX
  8
0
  5
F9D
 10
668.828
 20
335.020
 30
-1.25576e-012
  70
    32
  0
VERTEX
  8
0
  5
F9E
 10
668.846
 20
335.043
 30
-1.25569e-012
  70
    32
  0
VERTEX
  8
0
  5
F9F
 10
668.863
 20
335.067
 30
-1.25560e-012
  70
    32
  0
VERTEX
  8
0
  5
FA0
 10
668.878
 20
335.092
 30
-1.25550e-012
  70
    32
  0
VERTEX
  8
0
  5
FA1
 10
668.893
 20
335.116
 30
-1.25538e-012
  70
    32
  0
VERTEX
  8
0
  5
FA2
 10
668.906
 20
335.141
 30
-1.25525e-012
  70
    32
  0
VERTEX
  8
0
  5
FA3
 10
668.919
 20
335.166
 30
-1.25510e-012
  70
    32
  0
VERTEX
  8
0
  5
FA4
 10
668.930
 20
335.191
 30
-1.25493e-012
  70
    32
  0
VERTEX
  8
0
  5
FA5
 10
668.940
 20
335.216
 30
-1.25475e-012
  70
    32
  0
VERTEX
  8
0
  5
FA6
 10
668.950
 20
335.241
 30
-1.25455e-012
  70
    32
  0
VERTEX
  8
0
  5
FA7
 10
668.958
 20
335.266
 30
-1.25433e-012
  70
    32
  0
VERTEX
  8
0
  5
FA8
 10
668.965
 20
335.292
 30
-1.25410e-012
  70
    32
  0
VERTEX
  8
0
  5
FA9
 10
668.971
 20
335.318
 30
-1.25386e-012
  70
    32
  0
VERTEX
  8
0
  5
FAA
 10
668.976
 20
335.343
 30
-1.25360e-012
  70
    32
  0
VERTEX
  8
0
  5
FAB
 10
668.980
 20
335.369
 30
-1.25332e-012
  70
    32
  0
VERTEX
  8
0
  5
FAC
 10
668.983
 20
335.395
 30
-1.25303e-012
  70
    32
  0
VERTEX
  8
0
  5
FAD
 10
668.984
 20
335.421
 30
-1.25272e-012
  70
    32
  0
VERTEX
  8
0
  5
FAE
 10
668.985
 20
335.447
 30
-1.25240e-012
  70
    32
  0
VERTEX
  8
0
  5
FAF
 10
668.984
 20
335.472
 30
-1.25206e-012
  70
    32
  0
VERTEX
  8
0
  5
FB0
 10
668.983
 20
335.498
 30
-1.25171e-012
  70
    32
  0
VERTEX
  8
0
  5
FB1
 10
668.980
 20
335.524
 30
-1.25135e-012
  70
    32
  0
VERTEX
  8
0
  5
FB2
 10
668.976
 20
335.550
 30
-1.25097e-012
  70
    32
  0
VERTEX
  8
0
  5
FB3
 10
668.971
 20
335.576
 30
-1.25058e-012
  70
    32
  0
VERTEX
  8
0
  5
FB4
 10
668.965
 20
335.601
 30
-1.25018e-012
  70
    32
  0
VERTEX
  8
0
  5
FB5
 10
668.958
 20
335.627
 30
-1.24976e-012
  70
    32
  0
VERTEX
  8
0
  5
FB6
 10
668.950
 20
335.652
 30
-1.24933e-012
  70
    32
  0
VERTEX
  8
0
  5
FB7
 10
668.940
 20
335.677
 30
-1.24888e-012
  70
    32
  0
VERTEX
  8
0
  5
FB8
 10
668.930
 20
335.703
 30
-1.24843e-012
  70
    32
  0
VERTEX
  8
0
  5
FB9
 10
668.919
 20
335.728
 30
-1.24796e-012
  70
    32
  0
VERTEX
  8
0
  5
FBA
 10
668.906
 20
335.752
 30
-1.24748e-012
  70
    32
  0
VERTEX
  8
0
  5
FBB
 10
668.893
 20
335.777
 30
-1.24699e-012
  70
    32
  0
VERTEX
  8
0
  5
FBC
 10
668.878
 20
335.802
 30
-1.24648e-012
  70
    32
  0
VERTEX
  8
0
  5
FBD
 10
668.863
 20
335.826
 30
-1.24597e-012
  70
    32
  0
VERTEX
  8
0
  5
FBE
 10
668.846
 20
335.850
 30
-1.24544e-012
  70
    32
  0
VERTEX
  8
0
  5
FBF
 10
668.828
 20
335.874
 30
-1.24491e-012
  70
    32
  0
VERTEX
  8
0
  5
FC0
 10
668.810
 20
335.897
 30
-1.24436e-012
  70
    32
  0
VERTEX
  8
0
  5
FC1
 10
668.790
 20
335.920
 30
-1.24381e-012
  70
    32
  0
VERTEX
  8
0
  5
FC2
 10
668.769
 20
335.943
 30
-1.24325e-012
  70
    32
  0
VERTEX
  8
0
  5
FC3
 10
668.748
 20
335.966
 30
-1.24267e-012
  70
    32
  0
VERTEX
  8
0
  5
FC4
 10
668.725
 20
335.988
 30
-1.24209e-012
  70
    32
  0
VERTEX
  8
0
  5
FC5
 10
668.702
 20
336.010
 30
-1.24150e-012
  70
    32
  0
VERTEX
  8
0
  5
FC6
 10
668.677
 20
336.032
 30
-1.24090e-012
  70
    32
  0
VERTEX
  8
0
  5
FC7
 10
668.652
 20
336.053
 30
-1.24030e-012
  70
    32
  0
VERTEX
  8
0
  5
FC8
 10
668.626
 20
336.074
 30
-1.23969e-012
  70
    32
  0
VERTEX
  8
0
  5
FC9
 10
668.599
 20
336.095
 30
-1.23907e-012
  70
    32
  0
VERTEX
  8
0
  5
FCA
 10
668.571
 20
336.115
 30
-1.23844e-012
  70
    32
  0
VERTEX
  8
0
  5
FCB
 10
668.542
 20
336.135
 30
-1.23781e-012
  70
    32
  0
VERTEX
  8
0
  5
FCC
 10
668.512
 20
336.154
 30
-1.23717e-012
  70
    32
  0
VERTEX
  8
0
  5
FCD
 10
668.482
 20
336.173
 30
-1.23653e-012
  70
    32
  0
VERTEX
  8
0
  5
FCE
 10
668.450
 20
336.192
 30
-1.23588e-012
  70
    32
  0
VERTEX
  8
0
  5
FCF
 10
668.418
 20
336.210
 30
-1.23523e-012
  70
    32
  0
VERTEX
  8
0
  5
FD0
 10
668.385
 20
336.227
 30
-1.23457e-012
  70
    32
  0
VERTEX
  8
0
  5
FD1
 10
668.352
 20
336.244
 30
-1.23391e-012
  70
    32
  0
VERTEX
  8
0
  5
FD2
 10
668.318
 20
336.261
 30
-1.23324e-012
  70
    32
  0
VERTEX
  8
0
  5
FD3
 10
668.283
 20
336.277
 30
-1.23258e-012
  70
    32
  0
VERTEX
  8
0
  5
FD4
 10
668.247
 20
336.293
 30
-1.23191e-012
  70
    32
  0
VERTEX
  8
0
  5
FD5
 10
668.211
 20
336.308
 30
-1.23124e-012
  70
    32
  0
VERTEX
  8
0
  5
FD6
 10
668.174
 20
336.323
 30
-1.23056e-012
  70
    32
  0
VERTEX
  8
0
  5
FD7
 10
668.136
 20
336.337
 30
-1.22989e-012
  70
    32
  0
VERTEX
  8
0
  5
FD8
 10
668.098
 20
336.350
 30
-1.22921e-012
  70
    32
  0
VERTEX
  8
0
  5
FD9
 10
668.059
 20
336.363
 30
-1.22854e-012
  70
    32
  0
VERTEX
  8
0
  5
FDA
 10
668.020
 20
336.376
 30
-1.22786e-012
  70
    32
  0
VERTEX
  8
0
  5
FDB
 10
667.980
 20
336.388
 30
-1.22718e-012
  70
    32
  0
VERTEX
  8
0
  5
FDC
 10
667.940
 20
336.399
 30
-1.22651e-012
  70
    32
  0
VERTEX
  8
0
  5
FDD
 10
667.899
 20
336.410
 30
-1.22583e-012
  70
    32
  0
VERTEX
  8
0
  5
FDE
 10
667.858
 20
336.420
 30
-1.22516e-012
  70
    32
  0
VERTEX
  8
0
  5
FDF
 10
667.817
 20
336.430
 30
-1.22449e-012
  70
    32
  0
VERTEX
  8
0
  5
FE0
 10
667.775
 20
336.439
 30
-1.22382e-012
  70
    32
  0
VERTEX
  8
0
  5
FE1
 10
667.732
 20
336.447
 30
-1.22315e-012
  70
    32
  0
VERTEX
  8
0
  5
FE2
 10
667.690
 20
336.455
 30
-1.22249e-012
  70
    32
  0
VERTEX
  8
0
  5
FE3
 10
667.647
 20
336.462
 30
-1.22183e-012
  70
    32
  0
VERTEX
  8
0
  5
FE4
 10
667.603
 20
336.469
 30
-1.22118e-012
  70
    32
  0
VERTEX
  8
0
  5
FE5
 10
667.560
 20
336.475
 30
-1.22052e-012
  70
    32
  0
VERTEX
  8
0
  5
FE6
 10
667.516
 20
336.480
 30
-1.21988e-012
  70
    32
  0
VERTEX
  8
0
  5
FE7
 10
667.472
 20
336.485
 30
-1.21924e-012
  70
    32
  0
VERTEX
  8
0
  5
FE8
 10
667.428
 20
336.489
 30
-1.21860e-012
  70
    32
  0
VERTEX
  8
0
  5
FE9
 10
667.383
 20
336.492
 30
-1.21797e-012
  70
    32
  0
VERTEX
  8
0
  5
FEA
 10
667.339
 20
336.495
 30
-1.21735e-012
  70
    32
  0
VERTEX
  8
0
  5
FEB
 10
667.294
 20
336.497
 30
-1.21673e-012
  70
    32
  0
VERTEX
  8
0
  5
FEC
 10
667.249
 20
336.499
 30
-1.21612e-012
  70
    32
  0
VERTEX
  8
0
  5
FED
 10
667.205
 20
336.500
 30
-1.21551e-012
  70
    32
  0
VERTEX
  8
0
  5
FEE
 10
667.160
 20
336.500
 30
-1.21492e-012
  70
    32
  0
VERTEX
  8
0
  5
FEF
 10
667.115
 20
336.500
 30
-1.21433e-012
  70
    32
  0
VERTEX
  8
0
  5
FF0
 10
667.070
 20
336.499
 30
-1.21375e-012
  70
    32
  0
VERTEX
  8
0
  5
FF1
 10
667.026
 20
336.497
 30
-1.21318e-012
  70
    32
  0
VERTEX
  8
0
  5
FF2
 10
666.981
 20
336.495
 30
-1.21262e-012
  70
    32
  0
VERTEX
  8
0
  5
FF3
 10
666.936
 20
336.492
 30
-1.21207e-012
  70
    32
  0
VERTEX
  8
0
  5
FF4
 10
666.892
 20
336.489
 30
-1.21153e-012
  70
    32
  0
VERTEX
  8
0
  5
FF5
 10
666.848
 20
336.485
 30
-1.21100e-012
  70
    32
  0
VERTEX
  8
0
  5
FF6
 10
666.804
 20
336.480
 30
-1.21047e-012
  70
    32
  0
VERTEX
  8
0
  5
FF7
 10
666.760
 20
336.475
 30
-1.20996e-012
  70
    32
  0
VERTEX
  8
0
  5
FF8
 10
666.716
 20
336.469
 30
-1.20946e-012
  70
    32
  0
VERTEX
  8
0
  5
FF9
 10
666.673
 20
336.462
 30
-1.20898e-012
  70
    32
  0
VERTEX
  8
0
  5
FFA
 10
666.630
 20
336.455
 30
-1.20850e-012
  70
    32
  0
VERTEX
  8
0
  5
FFB
 10
666.587
 20
336.447
 30
-1.20803e-012
  70
    32
  0
VERTEX
  8
0
  5
FFC
 10
666.545
 20
336.439
 30
-1.20758e-012
  70
    32
  0
VERTEX
  8
0
  5
FFD
 10
666.503
 20
336.430
 30
-1.20714e-012
  70
    32
  0
VERTEX
  8
0
  5
FFE
 10
666.461
 20
336.420
 30
-1.20671e-012
  70
    32
  0
VERTEX
  8
0
  5
FFF
 10
666.420
 20
336.410
 30
-1.20630e-012
  70
    32
  0
VERTEX
  8
0
  5
1000
 10
666.380
 20
336.399
 30
-1.20590e-012
  70
    32
  0
VERTEX
  8
0
  5
1001
 10
666.339
 20
336.388
 30
-1.20551e-012
  70
    32
  0
VERTEX
  8
0
  5
1002
 10
666.300
 20
336.376
 30
-1.20514e-012
  70
    32
  0
VERTEX
  8
0
  5
1003
 10
666.260
 20
336.363
 30
-1.20478e-012
  70
    32
  0
VERTEX
  8
0
  5
1004
 10
666.222
 20
336.350
 30
-1.20443e-012
  70
    32
  0
VERTEX
  8
0
  5
1005
 10
666.183
 20
336.337
 30
-1.20410e-012
  70
    32
  0
VERTEX
  8
0
  5
1006
 10
666.146
 20
336.323
 30
-1.20378e-012
  70
    32
  0
VERTEX
  8
0
  5
1007
 10
666.109
 20
336.308
 30
-1.20348e-012
  70
    32
  0
VERTEX
  8
0
  5
1008
 10
666.073
 20
336.293
 30
-1.20320e-012
  70
    32
  0
VERTEX
  8
0
  5
1009
 10
666.037
 20
336.277
 30
-1.20292e-012
  70
    32
  0
VERTEX
  8
0
  5
100A
 10
666.002
 20
336.261
 30
-1.20267e-012
  70
    32
  0
VERTEX
  8
0
  5
100B
 10
665.968
 20
336.244
 30
-1.20243e-012
  70
    32
  0
VERTEX
  8
0
  5
100C
 10
665.934
 20
336.227
 30
-1.20220e-012
  70
    32
  0
VERTEX
  8
0
  5
100D
 10
665.901
 20
336.210
 30
-1.20199e-012
  70
    32
  0
VERTEX
  8
0
  5
100E
 10
665.869
 20
336.192
 30
-1.20180e-012
  70
    32
  0
SEQEND
  8
0
  5
100F
  0
LINE
  5
79F
  8
0
  6
CONTINUOUS
 10
661.74428544808507
 20
333.80997714394988
 30
-0.0000000000008319
 11
665.86936586767411
 21
336.19159343463031
 31
-0.0000000000007753
210
0.000000000000008
220
0.8164965809277113
230
0.5773502691896467
  0
LINE
  5
7A0
  8
0
  6
CONTINUOUS
 10
661.74428544808484
 20
331.27883774307497
 30
-0.0000000000008244
 11
661.74428544808507
 21
333.80997714394988
 31
-0.0000000000008319
210
0.000000000000008
220
0.8164965809277113
230
0.5773502691896467
  0
LINE
  5
7A1
  8
0
  6
CONTINUOUS
 10
662.1331941777371
 20
333.58544058419511
 30
-0.0000000000008199
 11
661.74428544808507
 21
333.80997714394988
 31
-0.0000000000008319
210
0.000000000000008
220
0.8164965809277113
230
0.5773502691896467
  0
LINE
  5
7A2
  8
0
  6
CONTINUOUS
 10
662.1331941777371
 20
331.5033743028298
 30
-0.0000000000008795
 11
662.1331941777371
 21
333.58544058419511
 31
-0.0000000000008199
210
0.000000000000008
220
0.8164965809277113
230
0.5773502691896467
  0
LINE
  5
7A3
  8
0
  6
CONTINUOUS
 10
666.25827459732739
 20
335.9670568748748
 30
-0.0000000000008402
 11
662.1331941777371
 21
333.58544058419511
 31
-0.0000000000008199
210
0.000000000000008
220
0.8164965809277113
230
0.5773502691896467
  0
LINE
  5
7A4
  8
0
  6
CONTINUOUS
 10
666.25827459732739
 20
333.88499059350897
 30
-0.0000000000009015
 11
666.25827459732739
 21
335.9670568748748
 31
-0.0000000000008402
210
0.000000000000008
220
0.8164965809277113
230
0.5773502691896467
  0
POLYLINE
  5
7A5
  8
0
  6
CONTINUOUS
 10
668.06139688935343
 20
334.92602373419174
 30
-0.0000000000012485
 66
     1
 70
     8
  0
VERTEX
  8
0
  5
1010
 10
668.061
 20
334.926
 30
-1.24852e-012
  70
    32
  0
VERTEX
  8
0
  5
1011
 10
668.083
 20
334.939
 30
-1.24864e-012
  70
    32
  0
VERTEX
  8
0
  5
1012
 10
668.105
 20
334.952
 30
-1.24875e-012
  70
    32
  0
VERTEX
  8
0
  5
1013
 10
668.125
 20
334.966
 30
-1.24885e-012
  70
    32
  0
VERTEX
  8
0
  5
1014
 10
668.145
 20
334.980
 30
-1.24894e-012
  70
    32
  0
VERTEX
  8
0
  5
1015
 10
668.165
 20
334.994
 30
-1.24902e-012
  70
    32
  0
VERTEX
  8
0
  5
1016
 10
668.184
 20
335.008
 30
-1.24908e-012
  70
    32
  0
VERTEX
  8
0
  5
1017
 10
668.202
 20
335.023
 30
-1.24914e-012
  70
    32
  0
VERTEX
  8
0
  5
1018
 10
668.220
 20
335.038
 30
-1.24918e-012
  70
    32
  0
VERTEX
  8
0
  5
1019
 10
668.237
 20
335.053
 30
-1.24921e-012
  70
    32
  0
VERTEX
  8
0
  5
101A
 10
668.253
 20
335.068
 30
-1.24923e-012
  70
    32
  0
VERTEX
  8
0
  5
101B
 10
668.269
 20
335.084
 30
-1.24924e-012
  70
    32
  0
VERTEX
  8
0
  5
101C
 10
668.284
 20
335.100
 30
-1.24924e-012
  70
    32
  0
VERTEX
  8
0
  5
101D
 10
668.299
 20
335.116
 30
-1.24922e-012
  70
    32
  0
VERTEX
  8
0
  5
101E
 10
668.312
 20
335.132
 30
-1.24919e-012
  70
    32
  0
VERTEX
  8
0
  5
101F
 10
668.325
 20
335.148
 30
-1.24916e-012
  70
    32
  0
VERTEX
  8
0
  5
1020
 10
668.338
 20
335.165
 30
-1.24911e-012
  70
    32
  0
VERTEX
  8
0
  5
1021
 10
668.349
 20
335.182
 30
-1.24905e-012
  70
    32
  0
VERTEX
  8
0
  5
1022
 10
668.360
 20
335.199
 30
-1.24897e-012
  70
    32
  0
VERTEX
  8
0
  5
1023
 10
668.370
 20
335.216
 30
-1.24889e-012
  70
    32
  0
VERTEX
  8
0
  5
1024
 10
668.380
 20
335.233
 30
-1.24879e-012
  70
    32
  0
VERTEX
  8
0
  5
1025
 10
668.389
 20
335.250
 30
-1.24869e-012
  70
    32
  0
VERTEX
  8
0
  5
1026
 10
668.397
 20
335.268
 30
-1.24857e-012
  70
    32
  0
VERTEX
  8
0
  5
1027
 10
668.404
 20
335.285
 30
-1.24844e-012
  70
    32
  0
VERTEX
  8
0
  5
1028
 10
668.410
 20
335.303
 30
-1.24830e-012
  70
    32
  0
VERTEX
  8
0
  5
1029
 10
668.416
 20
335.321
 30
-1.24815e-012
  70
    32
  0
VERTEX
  8
0
  5
102A
 10
668.421
 20
335.339
 30
-1.24799e-012
  70
    32
  0
VERTEX
  8
0
  5
102B
 10
668.425
 20
335.356
 30
-1.24782e-012
  70
    32
  0
VERTEX
  8
0
  5
102C
 10
668.429
 20
335.374
 30
-1.24764e-012
  70
    32
  0
VERTEX
  8
0
  5
102D
 10
668.431
 20
335.392
 30
-1.24744e-012
  70
    32
  0
VERTEX
  8
0
  5
102E
 10
668.433
 20
335.410
 30
-1.24724e-012
  70
    32
  0
VERTEX
  8
0
  5
102F
 10
668.434
 20
335.428
 30
-1.24702e-012
  70
    32
  0
VERTEX
  8
0
  5
1030
 10
668.435
 20
335.447
 30
-1.24680e-012
  70
    32
  0
VERTEX
  8
0
  5
1031
 10
668.434
 20
335.465
 30
-1.24657e-012
  70
    32
  0
VERTEX
  8
0
  5
1032
 10
668.433
 20
335.483
 30
-1.24632e-012
  70
    32
  0
VERTEX
  8
0
  5
1033
 10
668.431
 20
335.501
 30
-1.24607e-012
  70
    32
  0
VERTEX
  8
0
  5
1034
 10
668.429
 20
335.519
 30
-1.24580e-012
  70
    32
  0
VERTEX
  8
0
  5
1035
 10
668.425
 20
335.537
 30
-1.24553e-012
  70
    32
  0
VERTEX
  8
0
  5
1036
 10
668.421
 20
335.555
 30
-1.24525e-012
  70
    32
  0
VERTEX
  8
0
  5
1037
 10
668.416
 20
335.572
 30
-1.24496e-012
  70
    32
  0
VERTEX
  8
0
  5
1038
 10
668.410
 20
335.590
 30
-1.24466e-012
  70
    32
  0
VERTEX
  8
0
  5
1039
 10
668.404
 20
335.608
 30
-1.24435e-012
  70
    32
  0
VERTEX
  8
0
  5
103A
 10
668.397
 20
335.625
 30
-1.24403e-012
  70
    32
  0
VERTEX
  8
0
  5
103B
 10
668.389
 20
335.643
 30
-1.24370e-012
  70
    32
  0
VERTEX
  8
0
  5
103C
 10
668.380
 20
335.660
 30
-1.24337e-012
  70
    32
  0
VERTEX
  8
0
  5
103D
 10
668.370
 20
335.677
 30
-1.24302e-012
  70
    32
  0
VERTEX
  8
0
  5
103E
 10
668.360
 20
335.695
 30
-1.24267e-012
  70
    32
  0
VERTEX
  8
0
  5
103F
 10
668.349
 20
335.711
 30
-1.24232e-012
  70
    32
  0
VERTEX
  8
0
  5
1040
 10
668.338
 20
335.728
 30
-1.24195e-012
  70
    32
  0
VERTEX
  8
0
  5
1041
 10
668.325
 20
335.745
 30
-1.24158e-012
  70
    32
  0
VERTEX
  8
0
  5
1042
 10
668.312
 20
335.761
 30
-1.24120e-012
  70
    32
  0
VERTEX
  8
0
  5
1043
 10
668.299
 20
335.778
 30
-1.24081e-012
  70
    32
  0
VERTEX
  8
0
  5
1044
 10
668.284
 20
335.794
 30
-1.24042e-012
  70
    32
  0
VERTEX
  8
0
  5
1045
 10
668.269
 20
335.809
 30
-1.24002e-012
  70
    32
  0
VERTEX
  8
0
  5
1046
 10
668.253
 20
335.825
 30
-1.23962e-012
  70
    32
  0
VERTEX
  8
0
  5
1047
 10
668.237
 20
335.840
 30
-1.23921e-012
  70
    32
  0
VERTEX
  8
0
  5
1048
 10
668.220
 20
335.856
 30
-1.23879e-012
  70
    32
  0
VERTEX
  8
0
  5
1049
 10
668.202
 20
335.870
 30
-1.23837e-012
  70
    32
  0
VERTEX
  8
0
  5
104A
 10
668.184
 20
335.885
 30
-1.23794e-012
  70
    32
  0
VERTEX
  8
0
  5
104B
 10
668.165
 20
335.899
 30
-1.23751e-012
  70
    32
  0
VERTEX
  8
0
  5
104C
 10
668.145
 20
335.914
 30
-1.23708e-012
  70
    32
  0
VERTEX
  8
0
  5
104D
 10
668.125
 20
335.927
 30
-1.23664e-012
  70
    32
  0
VERTEX
  8
0
  5
104E
 10
668.105
 20
335.941
 30
-1.23620e-012
  70
    32
  0
VERTEX
  8
0
  5
104F
 10
668.083
 20
335.954
 30
-1.23575e-012
  70
    32
  0
VERTEX
  8
0
  5
1050
 10
668.061
 20
335.967
 30
-1.23530e-012
  70
    32
  0
VERTEX
  8
0
  5
1051
 10
668.039
 20
335.980
 30
-1.23484e-012
  70
    32
  0
VERTEX
  8
0
  5
1052
 10
668.016
 20
335.992
 30
-1.23439e-012
  70
    32
  0
VERTEX
  8
0
  5
1053
 10
667.993
 20
336.004
 30
-1.23393e-012
  70
    32
  0
VERTEX
  8
0
  5
1054
 10
667.969
 20
336.016
 30
-1.23347e-012
  70
    32
  0
VERTEX
  8
0
  5
1055
 10
667.944
 20
336.027
 30
-1.23300e-012
  70
    32
  0
VERTEX
  8
0
  5
1056
 10
667.919
 20
336.038
 30
-1.23254e-012
  70
    32
  0
VERTEX
  8
0
  5
1057
 10
667.894
 20
336.048
 30
-1.23207e-012
  70
    32
  0
VERTEX
  8
0
  5
1058
 10
667.868
 20
336.059
 30
-1.23160e-012
  70
    32
  0
VERTEX
  8
0
  5
1059
 10
667.842
 20
336.068
 30
-1.23114e-012
  70
    32
  0
VERTEX
  8
0
  5
105A
 10
667.815
 20
336.078
 30
-1.23067e-012
  70
    32
  0
VERTEX
  8
0
  5
105B
 10
667.788
 20
336.087
 30
-1.23020e-012
  70
    32
  0
VERTEX
  8
0
  5
105C
 10
667.761
 20
336.096
 30
-1.22973e-012
  70
    32
  0
VERTEX
  8
0
  5
105D
 10
667.733
 20
336.104
 30
-1.22926e-012
  70
    32
  0
VERTEX
  8
0
  5
105E
 10
667.705
 20
336.112
 30
-1.22879e-012
  70
    32
  0
VERTEX
  8
0
  5
105F
 10
667.677
 20
336.120
 30
-1.22832e-012
  70
    32
  0
VERTEX
  8
0
  5
1060
 10
667.648
 20
336.127
 30
-1.22785e-012
  70
    32
  0
VERTEX
  8
0
  5
1061
 10
667.619
 20
336.133
 30
-1.22739e-012
  70
    32
  0
VERTEX
  8
0
  5
1062
 10
667.589
 20
336.140
 30
-1.22692e-012
  70
    32
  0
VERTEX
  8
0
  5
1063
 10
667.560
 20
336.146
 30
-1.22646e-012
  70
    32
  0
VERTEX
  8
0
  5
1064
 10
667.530
 20
336.151
 30
-1.22600e-012
  70
    32
  0
VERTEX
  8
0
  5
1065
 10
667.500
 20
336.156
 30
-1.22554e-012
  70
    32
  0
VERTEX
  8
0
  5
1066
 10
667.470
 20
336.161
 30
-1.22509e-012
  70
    32
  0
VERTEX
  8
0
  5
1067
 10
667.439
 20
336.165
 30
-1.22464e-012
  70
    32
  0
VERTEX
  8
0
  5
1068
 10
667.409
 20
336.169
 30
-1.22419e-012
  70
    32
  0
VERTEX
  8
0
  5
1069
 10
667.378
 20
336.172
 30
-1.22374e-012
  70
    32
  0
VERTEX
  8
0
  5
106A
 10
667.347
 20
336.175
 30
-1.22330e-012
  70
    32
  0
VERTEX
  8
0
  5
106B
 10
667.316
 20
336.177
 30
-1.22287e-012
  70
    32
  0
VERTEX
  8
0
  5
106C
 10
667.285
 20
336.179
 30
-1.22243e-012
  70
    32
  0
VERTEX
  8
0
  5
106D
 10
667.254
 20
336.181
 30
-1.22201e-012
  70
    32
  0
VERTEX
  8
0
  5
106E
 10
667.222
 20
336.182
 30
-1.22158e-012
  70
    32
  0
VERTEX
  8
0
  5
106F
 10
667.191
 20
336.182
 30
-1.22116e-012
  70
    32
  0
VERTEX
  8
0
  5
1070
 10
667.160
 20
336.183
 30
-1.22075e-012
  70
    32
  0
VERTEX
  8
0
  5
1071
 10
667.129
 20
336.182
 30
-1.22034e-012
  70
    32
  0
VERTEX
  8
0
  5
1072
 10
667.097
 20
336.182
 30
-1.21994e-012
  70
    32
  0
VERTEX
  8
0
  5
1073
 10
667.066
 20
336.181
 30
-1.21955e-012
  70
    32
  0
VERTEX
  8
0
  5
1074
 10
667.035
 20
336.179
 30
-1.21916e-012
  70
    32
  0
VERTEX
  8
0
  5
1075
 10
667.004
 20
336.177
 30
-1.21878e-012
  70
    32
  0
VERTEX
  8
0
  5
1076
 10
666.973
 20
336.175
 30
-1.21840e-012
  70
    32
  0
VERTEX
  8
0
  5
1077
 10
666.942
 20
336.172
 30
-1.21803e-012
  70
    32
  0
VERTEX
  8
0
  5
1078
 10
666.911
 20
336.169
 30
-1.21767e-012
  70
    32
  0
VERTEX
  8
0
  5
1079
 10
666.880
 20
336.165
 30
-1.21732e-012
  70
    32
  0
VERTEX
  8
0
  5
107A
 10
666.850
 20
336.161
 30
-1.21697e-012
  70
    32
  0
VERTEX
  8
0
  5
107B
 10
666.820
 20
336.156
 30
-1.21664e-012
  70
    32
  0
VERTEX
  8
0
  5
107C
 10
666.790
 20
336.151
 30
-1.21631e-012
  70
    32
  0
VERTEX
  8
0
  5
107D
 10
666.760
 20
336.146
 30
-1.21598e-012
  70
    32
  0
VERTEX
  8
0
  5
107E
 10
666.730
 20
336.140
 30
-1.21567e-012
  70
    32
  0
VERTEX
  8
0
  5
107F
 10
666.701
 20
336.133
 30
-1.21537e-012
  70
    32
  0
VERTEX
  8
0
  5
1080
 10
666.672
 20
336.127
 30
-1.21507e-012
  70
    32
  0
VERTEX
  8
0
  5
1081
 10
666.643
 20
336.120
 30
-1.21479e-012
  70
    32
  0
VERTEX
  8
0
  5
1082
 10
666.615
 20
336.112
 30
-1.21451e-012
  70
    32
  0
VERTEX
  8
0
  5
1083
 10
666.587
 20
336.104
 30
-1.21424e-012
  70
    32
  0
VERTEX
  8
0
  5
1084
 10
666.559
 20
336.096
 30
-1.21398e-012
  70
    32
  0
VERTEX
  8
0
  5
1085
 10
666.531
 20
336.087
 30
-1.21373e-012
  70
    32
  0
VERTEX
  8
0
  5
1086
 10
666.504
 20
336.078
 30
-1.21350e-012
  70
    32
  0
VERTEX
  8
0
  5
1087
 10
666.478
 20
336.068
 30
-1.21327e-012
  70
    32
  0
VERTEX
  8
0
  5
1088
 10
666.451
 20
336.059
 30
-1.21305e-012
  70
    32
  0
VERTEX
  8
0
  5
1089
 10
666.426
 20
336.048
 30
-1.21284e-012
  70
    32
  0
VERTEX
  8
0
  5
108A
 10
666.400
 20
336.038
 30
-1.21264e-012
  70
    32
  0
VERTEX
  8
0
  5
108B
 10
666.375
 20
336.027
 30
-1.21246e-012
  70
    32
  0
VERTEX
  8
0
  5
108C
 10
666.351
 20
336.016
 30
-1.21228e-012
  70
    32
  0
VERTEX
  8
0
  5
108D
 10
666.327
 20
336.004
 30
-1.21211e-012
  70
    32
  0
VERTEX
  8
0
  5
108E
 10
666.304
 20
335.992
 30
-1.21196e-012
  70
    32
  0
VERTEX
  8
0
  5
108F
 10
666.281
 20
335.980
 30
-1.21181e-012
  70
    32
  0
VERTEX
  8
0
  5
1090
 10
666.258
 20
335.967
 30
-1.21168e-012
  70
    32
  0
SEQEND
  8
0
  5
1091
  0
LINE
  5
7A6
  8
0
  6
CONTINUOUS
 10
660.73162673800925
 20
330.69417896421578
 30
-0.0000000000008049
 11
668.06139688935355
 21
334.9260237341918
 31
-0.0000000000009276
210
0.000000000000008
220
0.8164965809277113
230
0.5773502691896467
  0
POLYLINE
  5
7A7
  8
0
  6
CONTINUOUS
 10
659.99659179327853
 20
330.67193853744533
 30
-0.0000000000012524
 66
     1
 70
     8
  0
VERTEX
  8
0
  5
1092
 10
659.997
 20
330.672
 30
-1.25240e-012
  70
    32
  0
VERTEX
  8
0
  5
1093
 10
660.002
 20
330.670
 30
-1.25250e-012
  70
    32
  0
VERTEX
  8
0
  5
1094
 10
660.006
 20
330.667
 30
-1.25259e-012
  70
    32
  0
VERTEX
  8
0
  5
1095
 10
660.011
 20
330.665
 30
-1.25268e-012
  70
    32
  0
VERTEX
  8
0
  5
1096
 10
660.017
 20
330.663
 30
-1.25278e-012
  70
    32
  0
VERTEX
  8
0
  5
1097
 10
660.022
 20
330.661
 30
-1.25287e-012
  70
    32
  0
VERTEX
  8
0
  5
1098
 10
660.027
 20
330.659
 30
-1.25296e-012
  70
    32
  0
VERTEX
  8
0
  5
1099
 10
660.032
 20
330.657
 30
-1.25306e-012
  70
    32
  0
VERTEX
  8
0
  5
109A
 10
660.037
 20
330.655
 30
-1.25315e-012
  70
    32
  0
VERTEX
  8
0
  5
109B
 10
660.042
 20
330.653
 30
-1.25325e-012
  70
    32
  0
VERTEX
  8
0
  5
109C
 10
660.048
 20
330.651
 30
-1.25334e-012
  70
    32
  0
VERTEX
  8
0
  5
109D
 10
660.053
 20
330.649
 30
-1.25344e-012
  70
    32
  0
VERTEX
  8
0
  5
109E
 10
660.058
 20
330.647
 30
-1.25353e-012
  70
    32
  0
VERTEX
  8
0
  5
109F
 10
660.064
 20
330.645
 30
-1.25362e-012
  70
    32
  0
VERTEX
  8
0
  5
10A0
 10
660.069
 20
330.643
 30
-1.25372e-012
  70
    32
  0
VERTEX
  8
0
  5
10A1
 10
660.075
 20
330.641
 30
-1.25381e-012
  70
    32
  0
VERTEX
  8
0
  5
10A2
 10
660.080
 20
330.640
 30
-1.25391e-012
  70
    32
  0
VERTEX
  8
0
  5
10A3
 10
660.086
 20
330.638
 30
-1.25400e-012
  70
    32
  0
VERTEX
  8
0
  5
10A4
 10
660.091
 20
330.636
 30
-1.25410e-012
  70
    32
  0
VERTEX
  8
0
  5
10A5
 10
660.097
 20
330.635
 30
-1.25419e-012
  70
    32
  0
VERTEX
  8
0
  5
10A6
 10
660.103
 20
330.633
 30
-1.25429e-012
  70
    32
  0
VERTEX
  8
0
  5
10A7
 10
660.108
 20
330.631
 30
-1.25438e-012
  70
    32
  0
VERTEX
  8
0
  5
10A8
 10
660.114
 20
330.630
 30
-1.25447e-012
  70
    32
  0
VERTEX
  8
0
  5
10A9
 10
660.120
 20
330.628
 30
-1.25457e-012
  70
    32
  0
VERTEX
  8
0
  5
10AA
 10
660.126
 20
330.627
 30
-1.25466e-012
  70
    32
  0
VERTEX
  8
0
  5
10AB
 10
660.131
 20
330.626
 30
-1.25476e-012
  70
    32
  0
VERTEX
  8
0
  5
10AC
 10
660.137
 20
330.624
 30
-1.25485e-012
  70
    32
  0
VERTEX
  8
0
  5
10AD
 10
660.143
 20
330.623
 30
-1.25494e-012
  70
    32
  0
VERTEX
  8
0
  5
10AE
 10
660.149
 20
330.622
 30
-1.25504e-012
  70
    32
  0
VERTEX
  8
0
  5
10AF
 10
660.155
 20
330.620
 30
-1.25513e-012
  70
    32
  0
VERTEX
  8
0
  5
10B0
 10
660.161
 20
330.619
 30
-1.25522e-012
  70
    32
  0
VERTEX
  8
0
  5
10B1
 10
660.167
 20
330.618
 30
-1.25532e-012
  70
    32
  0
VERTEX
  8
0
  5
10B2
 10
660.173
 20
330.617
 30
-1.25541e-012
  70
    32
  0
VERTEX
  8
0
  5
10B3
 10
660.179
 20
330.616
 30
-1.25550e-012
  70
    32
  0
VERTEX
  8
0
  5
10B4
 10
660.185
 20
330.615
 30
-1.25560e-012
  70
    32
  0
VERTEX
  8
0
  5
10B5
 10
660.191
 20
330.614
 30
-1.25569e-012
  70
    32
  0
VERTEX
  8
0
  5
10B6
 10
660.197
 20
330.613
 30
-1.25578e-012
  70
    32
  0
VERTEX
  8
0
  5
10B7
 10
660.203
 20
330.612
 30
-1.25587e-012
  70
    32
  0
VERTEX
  8
0
  5
10B8
 10
660.209
 20
330.611
 30
-1.25596e-012
  70
    32
  0
VERTEX
  8
0
  5
10B9
 10
660.215
 20
330.610
 30
-1.25605e-012
  70
    32
  0
VERTEX
  8
0
  5
10BA
 10
660.221
 20
330.609
 30
-1.25614e-012
  70
    32
  0
VERTEX
  8
0
  5
10BB
 10
660.227
 20
330.608
 30
-1.25623e-012
  70
    32
  0
VERTEX
  8
0
  5
10BC
 10
660.234
 20
330.607
 30
-1.25632e-012
  70
    32
  0
VERTEX
  8
0
  5
10BD
 10
660.240
 20
330.607
 30
-1.25641e-012
  70
    32
  0
VERTEX
  8
0
  5
10BE
 10
660.246
 20
330.606
 30
-1.25650e-012
  70
    32
  0
VERTEX
  8
0
  5
10BF
 10
660.252
 20
330.605
 30
-1.25659e-012
  70
    32
  0
VERTEX
  8
0
  5
10C0
 10
660.258
 20
330.605
 30
-1.25668e-012
  70
    32
  0
VERTEX
  8
0
  5
10C1
 10
660.265
 20
330.604
 30
-1.25677e-012
  70
    32
  0
VERTEX
  8
0
  5
10C2
 10
660.271
 20
330.604
 30
-1.25686e-012
  70
    32
  0
VERTEX
  8
0
  5
10C3
 10
660.277
 20
330.603
 30
-1.25695e-012
  70
    32
  0
VERTEX
  8
0
  5
10C4
 10
660.283
 20
330.603
 30
-1.25703e-012
  70
    32
  0
VERTEX
  8
0
  5
10C5
 10
660.290
 20
330.603
 30
-1.25712e-012
  70
    32
  0
VERTEX
  8
0
  5
10C6
 10
660.296
 20
330.602
 30
-1.25721e-012
  70
    32
  0
VERTEX
  8
0
  5
10C7
 10
660.302
 20
330.602
 30
-1.25729e-012
  70
    32
  0
VERTEX
  8
0
  5
10C8
 10
660.309
 20
330.602
 30
-1.25738e-012
  70
    32
  0
VERTEX
  8
0
  5
10C9
 10
660.315
 20
330.602
 30
-1.25746e-012
  70
    32
  0
VERTEX
  8
0
  5
10CA
 10
660.321
 20
330.601
 30
-1.25755e-012
  70
    32
  0
VERTEX
  8
0
  5
10CB
 10
660.327
 20
330.601
 30
-1.25763e-012
  70
    32
  0
VERTEX
  8
0
  5
10CC
 10
660.334
 20
330.601
 30
-1.25771e-012
  70
    32
  0
VERTEX
  8
0
  5
10CD
 10
660.340
 20
330.601
 30
-1.25780e-012
  70
    32
  0
VERTEX
  8
0
  5
10CE
 10
660.346
 20
330.601
 30
-1.25788e-012
  70
    32
  0
VERTEX
  8
0
  5
10CF
 10
660.353
 20
330.601
 30
-1.25796e-012
  70
    32
  0
VERTEX
  8
0
  5
10D0
 10
660.359
 20
330.601
 30
-1.25804e-012
  70
    32
  0
VERTEX
  8
0
  5
10D1
 10
660.365
 20
330.601
 30
-1.25812e-012
  70
    32
  0
VERTEX
  8
0
  5
10D2
 10
660.372
 20
330.602
 30
-1.25820e-012
  70
    32
  0
VERTEX
  8
0
  5
10D3
 10
660.378
 20
330.602
 30
-1.25828e-012
  70
    32
  0
VERTEX
  8
0
  5
10D4
 10
660.384
 20
330.602
 30
-1.25836e-012
  70
    32
  0
VERTEX
  8
0
  5
10D5
 10
660.390
 20
330.602
 30
-1.25844e-012
  70
    32
  0
VERTEX
  8
0
  5
10D6
 10
660.397
 20
330.603
 30
-1.25852e-012
  70
    32
  0
VERTEX
  8
0
  5
10D7
 10
660.403
 20
330.603
 30
-1.25860e-012
  70
    32
  0
VERTEX
  8
0
  5
10D8
 10
660.409
 20
330.603
 30
-1.25867e-012
  70
    32
  0
VERTEX
  8
0
  5
10D9
 10
660.415
 20
330.604
 30
-1.25875e-012
  70
    32
  0
VERTEX
  8
0
  5
10DA
 10
660.422
 20
330.604
 30
-1.25882e-012
  70
    32
  0
VERTEX
  8
0
  5
10DB
 10
660.428
 20
330.605
 30
-1.25890e-012
  70
    32
  0
VERTEX
  8
0
  5
10DC
 10
660.434
 20
330.606
 30
-1.25897e-012
  70
    32
  0
VERTEX
  8
0
  5
10DD
 10
660.440
 20
330.606
 30
-1.25905e-012
  70
    32
  0
VERTEX
  8
0
  5
10DE
 10
660.446
 20
330.607
 30
-1.25912e-012
  70
    32
  0
VERTEX
  8
0
  5
10DF
 10
660.453
 20
330.608
 30
-1.25919e-012
  70
    32
  0
VERTEX
  8
0
  5
10E0
 10
660.459
 20
330.608
 30
-1.25926e-012
  70
    32
  0
VERTEX
  8
0
  5
10E1
 10
660.465
 20
330.609
 30
-1.25933e-012
  70
    32
  0
VERTEX
  8
0
  5
10E2
 10
660.471
 20
330.610
 30
-1.25940e-012
  70
    32
  0
VERTEX
  8
0
  5
10E3
 10
660.477
 20
330.611
 30
-1.25947e-012
  70
    32
  0
VERTEX
  8
0
  5
10E4
 10
660.483
 20
330.612
 30
-1.25954e-012
  70
    32
  0
VERTEX
  8
0
  5
10E5
 10
660.489
 20
330.613
 30
-1.25961e-012
  70
    32
  0
VERTEX
  8
0
  5
10E6
 10
660.495
 20
330.614
 30
-1.25967e-012
  70
    32
  0
VERTEX
  8
0
  5
10E7
 10
660.502
 20
330.615
 30
-1.25974e-012
  70
    32
  0
VERTEX
  8
0
  5
10E8
 10
660.508
 20
330.616
 30
-1.25981e-012
  70
    32
  0
VERTEX
  8
0
  5
10E9
 10
660.514
 20
330.617
 30
-1.25987e-012
  70
    32
  0
VERTEX
  8
0
  5
10EA
 10
660.520
 20
330.618
 30
-1.25993e-012
  70
    32
  0
VERTEX
  8
0
  5
10EB
 10
660.525
 20
330.619
 30
-1.26000e-012
  70
    32
  0
VERTEX
  8
0
  5
10EC
 10
660.531
 20
330.620
 30
-1.26006e-012
  70
    32
  0
VERTEX
  8
0
  5
10ED
 10
660.537
 20
330.622
 30
-1.26012e-012
  70
    32
  0
VERTEX
  8
0
  5
10EE
 10
660.543
 20
330.623
 30
-1.26018e-012
  70
    32
  0
VERTEX
  8
0
  5
10EF
 10
660.549
 20
330.624
 30
-1.26024e-012
  70
    32
  0
VERTEX
  8
0
  5
10F0
 10
660.555
 20
330.626
 30
-1.26030e-012
  70
    32
  0
VERTEX
  8
0
  5
10F1
 10
660.561
 20
330.627
 30
-1.26036e-012
  70
    32
  0
VERTEX
  8
0
  5
10F2
 10
660.566
 20
330.629
 30
-1.26041e-012
  70
    32
  0
VERTEX
  8
0
  5
10F3
 10
660.572
 20
330.630
 30
-1.26047e-012
  70
    32
  0
VERTEX
  8
0
  5
10F4
 10
660.578
 20
330.632
 30
-1.26052e-012
  70
    32
  0
VERTEX
  8
0
  5
10F5
 10
660.584
 20
330.633
 30
-1.26058e-012
  70
    32
  0
VERTEX
  8
0
  5
10F6
 10
660.589
 20
330.635
 30
-1.26063e-012
  70
    32
  0
VERTEX
  8
0
  5
10F7
 10
660.595
 20
330.636
 30
-1.26068e-012
  70
    32
  0
VERTEX
  8
0
  5
10F8
 10
660.600
 20
330.638
 30
-1.26074e-012
  70
    32
  0
VERTEX
  8
0
  5
10F9
 10
660.606
 20
330.640
 30
-1.26079e-012
  70
    32
  0
VERTEX
  8
0
  5
10FA
 10
660.611
 20
330.642
 30
-1.26084e-012
  70
    32
  0
VERTEX
  8
0
  5
10FB
 10
660.617
 20
330.643
 30
-1.26089e-012
  70
    32
  0
VERTEX
  8
0
  5
10FC
 10
660.622
 20
330.645
 30
-1.26093e-012
  70
    32
  0
VERTEX
  8
0
  5
10FD
 10
660.628
 20
330.647
 30
-1.26098e-012
  70
    32
  0
VERTEX
  8
0
  5
10FE
 10
660.633
 20
330.649
 30
-1.26103e-012
  70
    32
  0
VERTEX
  8
0
  5
10FF
 10
660.638
 20
330.651
 30
-1.26107e-012
  70
    32
  0
VERTEX
  8
0
  5
1100
 10
660.644
 20
330.653
 30
-1.26112e-012
  70
    32
  0
VERTEX
  8
0
  5
1101
 10
660.649
 20
330.655
 30
-1.26116e-012
  70
    32
  0
VERTEX
  8
0
  5
1102
 10
660.654
 20
330.657
 30
-1.26120e-012
  70
    32
  0
VERTEX
  8
0
  5
1103
 10
660.659
 20
330.659
 30
-1.26124e-012
  70
    32
  0
VERTEX
  8
0
  5
1104
 10
660.665
 20
330.661
 30
-1.26128e-012
  70
    32
  0
VERTEX
  8
0
  5
1105
 10
660.670
 20
330.663
 30
-1.26132e-012
  70
    32
  0
VERTEX
  8
0
  5
1106
 10
660.675
 20
330.666
 30
-1.26136e-012
  70
    32
  0
VERTEX
  8
0
  5
1107
 10
660.680
 20
330.668
 30
-1.26140e-012
  70
    32
  0
VERTEX
  8
0
  5
1108
 10
660.685
 20
330.670
 30
-1.26143e-012
  70
    32
  0
VERTEX
  8
0
  5
1109
 10
660.690
 20
330.672
 30
-1.26147e-012
  70
    32
  0
VERTEX
  8
0
  5
110A
 10
660.694
 20
330.675
 30
-1.26150e-012
  70
    32
  0
VERTEX
  8
0
  5
110B
 10
660.699
 20
330.677
 30
-1.26154e-012
  70
    32
  0
VERTEX
  8
0
  5
110C
 10
660.704
 20
330.679
 30
-1.26157e-012
  70
    32
  0
VERTEX
  8
0
  5
110D
 10
660.709
 20
330.682
 30
-1.26160e-012
  70
    32
  0
VERTEX
  8
0
  5
110E
 10
660.713
 20
330.684
 30
-1.26163e-012
  70
    32
  0
VERTEX
  8
0
  5
110F
 10
660.718
 20
330.687
 30
-1.26166e-012
  70
    32
  0
VERTEX
  8
0
  5
1110
 10
660.723
 20
330.689
 30
-1.26169e-012
  70
    32
  0
VERTEX
  8
0
  5
1111
 10
660.727
 20
330.692
 30
-1.26172e-012
  70
    32
  0
VERTEX
  8
0
  5
1112
 10
660.732
 20
330.694
 30
-1.26174e-012
  70
    32
  0
SEQEND
  8
0
  5
1113
  0
LINE
  5
7A8
  8
0
  6
CONTINUOUS
 10
632.45327613953077
 20
343.54923817564821
 30
-0.0000000000003182
 11
659.99659179327841
 21
330.67193853744533
 31
-0.000000000000894
210
0.000000000000008
220
0.8164965809277113
230
0.5773502691896467
  0
POLYLINE
  5
7A9
  8
0
  6
CONTINUOUS
 10
632.45327613953089
 20
343.54923817564827
 30
-0.0000000000006528
 66
     1
 70
     8
  0
VERTEX
  8
0
  5
1114
 10
632.453
 20
343.549
 30
-6.52845e-013
  70
    32
  0
VERTEX
  8
0
  5
1115
 10
632.443
 20
343.554
 30
-6.52658e-013
  70
    32
  0
VERTEX
  8
0
  5
1116
 10
632.434
 20
343.558
 30
-6.52470e-013
  70
    32
  0
VERTEX
  8
0
  5
1117
 10
632.423
 20
343.563
 30
-6.52283e-013
  70
    32
  0
VERTEX
  8
0
  5
1118
 10
632.413
 20
343.567
 30
-6.52095e-013
  70
    32
  0
VERTEX
  8
0
  5
1119
 10
632.403
 20
343.571
 30
-6.51907e-013
  70
    32
  0
VERTEX
  8
0
  5
111A
 10
632.393
 20
343.576
 30
-6.51718e-013
  70
    32
  0
VERTEX
  8
0
  5
111B
 10
632.383
 20
343.580
 30
-6.51530e-013
  70
    32
  0
VERTEX
  8
0
  5
111C
 10
632.372
 20
343.584
 30
-6.51341e-013
  70
    32
  0
VERTEX
  8
0
  5
111D
 10
632.362
 20
343.588
 30
-6.51152e-013
  70
    32
  0
VERTEX
  8
0
  5
111E
 10
632.351
 20
343.592
 30
-6.50963e-013
  70
    32
  0
VERTEX
  8
0
  5
111F
 10
632.340
 20
343.596
 30
-6.50774e-013
  70
    32
  0
VERTEX
  8
0
  5
1120
 10
632.330
 20
343.599
 30
-6.50585e-013
  70
    32
  0
VERTEX
  8
0
  5
1121
 10
632.319
 20
343.603
 30
-6.50395e-013
  70
    32
  0
VERTEX
  8
0
  5
1122
 10
632.308
 20
343.607
 30
-6.50206e-013
  70
    32
  0
VERTEX
  8
0
  5
1123
 10
632.297
 20
343.610
 30
-6.50016e-013
  70
    32
  0
VERTEX
  8
0
  5
1124
 10
632.286
 20
343.614
 30
-6.49827e-013
  70
    32
  0
VERTEX
  8
0
  5
1125
 10
632.275
 20
343.617
 30
-6.49638e-013
  70
    32
  0
VERTEX
  8
0
  5
1126
 10
632.264
 20
343.621
 30
-6.49448e-013
  70
    32
  0
VERTEX
  8
0
  5
1127
 10
632.252
 20
343.624
 30
-6.49259e-013
  70
    32
  0
VERTEX
  8
0
  5
1128
 10
632.241
 20
343.627
 30
-6.49070e-013
  70
    32
  0
VERTEX
  8
0
  5
1129
 10
632.230
 20
343.630
 30
-6.48881e-013
  70
    32
  0
VERTEX
  8
0
  5
112A
 10
632.218
 20
343.633
 30
-6.48692e-013
  70
    32
  0
VERTEX
  8
0
  5
112B
 10
632.207
 20
343.636
 30
-6.48504e-013
  70
    32
  0
VERTEX
  8
0
  5
112C
 10
632.195
 20
343.639
 30
-6.48315e-013
  70
    32
  0
VERTEX
  8
0
  5
112D
 10
632.184
 20
343.642
 30
-6.48127e-013
  70
    32
  0
VERTEX
  8
0
  5
112E
 10
632.172
 20
343.645
 30
-6.47939e-013
  70
    32
  0
VERTEX
  8
0
  5
112F
 10
632.160
 20
343.647
 30
-6.47752e-013
  70
    32
  0
VERTEX
  8
0
  5
1130
 10
632.148
 20
343.650
 30
-6.47564e-013
  70
    32
  0
VERTEX
  8
0
  5
1131
 10
632.137
 20
343.653
 30
-6.47377e-013
  70
    32
  0
VERTEX
  8
0
  5
1132
 10
632.125
 20
343.655
 30
-6.47191e-013
  70
    32
  0
VERTEX
  8
0
  5
1133
 10
632.113
 20
343.657
 30
-6.47004e-013
  70
    32
  0
VERTEX
  8
0
  5
1134
 10
632.101
 20
343.660
 30
-6.46819e-013
  70
    32
  0
VERTEX
  8
0
  5
1135
 10
632.089
 20
343.662
 30
-6.46633e-013
  70
    32
  0
VERTEX
  8
0
  5
1136
 10
632.077
 20
343.664
 30
-6.46448e-013
  70
    32
  0
VERTEX
  8
0
  5
1137
 10
632.065
 20
343.666
 30
-6.46264e-013
  70
    32
  0
VERTEX
  8
0
  5
1138
 10
632.053
 20
343.668
 30
-6.46080e-013
  70
    32
  0
VERTEX
  8
0
  5
1139
 10
632.041
 20
343.670
 30
-6.45896e-013
  70
    32
  0
VERTEX
  8
0
  5
113A
 10
632.028
 20
343.672
 30
-6.45713e-013
  70
    32
  0
VERTEX
  8
0
  5
113B
 10
632.016
 20
343.673
 30
-6.45531e-013
  70
    32
  0
VERTEX
  8
0
  5
113C
 10
632.004
 20
343.675
 30
-6.45349e-013
  70
    32
  0
VERTEX
  8
0
  5
113D
 10
631.991
 20
343.677
 30
-6.45168e-013
  70
    32
  0
VERTEX
  8
0
  5
113E
 10
631.979
 20
343.678
 30
-6.44988e-013
  70
    32
  0
VERTEX
  8
0
  5
113F
 10
631.967
 20
343.680
 30
-6.44808e-013
  70
    32
  0
VERTEX
  8
0
  5
1140
 10
631.954
 20
343.681
 30
-6.44629e-013
  70
    32
  0
VERTEX
  8
0
  5
1141
 10
631.942
 20
343.682
 30
-6.44451e-013
  70
    32
  0
VERTEX
  8
0
  5
1142
 10
631.930
 20
343.683
 30
-6.44273e-013
  70
    32
  0
VERTEX
  8
0
  5
1143
 10
631.917
 20
343.684
 30
-6.44096e-013
  70
    32
  0
VERTEX
  8
0
  5
1144
 10
631.905
 20
343.685
 30
-6.43920e-013
  70
    32
  0
VERTEX
  8
0
  5
1145
 10
631.892
 20
343.686
 30
-6.43745e-013
  70
    32
  0
VERTEX
  8
0
  5
1146
 10
631.880
 20
343.687
 30
-6.43570e-013
  70
    32
  0
VERTEX
  8
0
  5
1147
 10
631.867
 20
343.688
 30
-6.43397e-013
  70
    32
  0
VERTEX
  8
0
  5
1148
 10
631.855
 20
343.688
 30
-6.43224e-013
  70
    32
  0
VERTEX
  8
0
  5
1149
 10
631.842
 20
343.689
 30
-6.43052e-013
  70
    32
  0
VERTEX
  8
0
  5
114A
 10
631.829
 20
343.690
 30
-6.42881e-013
  70
    32
  0
VERTEX
  8
0
  5
114B
 10
631.817
 20
343.690
 30
-6.42711e-013
  70
    32
  0
VERTEX
  8
0
  5
114C
 10
631.804
 20
343.690
 30
-6.42543e-013
  70
    32
  0
VERTEX
  8
0
  5
114D
 10
631.792
 20
343.691
 30
-6.42375e-013
  70
    32
  0
VERTEX
  8
0
  5
114E
 10
631.779
 20
343.691
 30
-6.42208e-013
  70
    32
  0
VERTEX
  8
0
  5
114F
 10
631.766
 20
343.691
 30
-6.42042e-013
  70
    32
  0
VERTEX
  8
0
  5
1150
 10
631.754
 20
343.691
 30
-6.41877e-013
  70
    32
  0
VERTEX
  8
0
  5
1151
 10
631.741
 20
343.691
 30
-6.41713e-013
  70
    32
  0
VERTEX
  8
0
  5
1152
 10
631.729
 20
343.690
 30
-6.41550e-013
  70
    32
  0
VERTEX
  8
0
  5
1153
 10
631.716
 20
343.690
 30
-6.41389e-013
  70
    32
  0
VERTEX
  8
0
  5
1154
 10
631.703
 20
343.690
 30
-6.41228e-013
  70
    32
  0
VERTEX
  8
0
  5
1155
 10
631.691
 20
343.689
 30
-6.41069e-013
  70
    32
  0
VERTEX
  8
0
  5
1156
 10
631.678
 20
343.689
 30
-6.40911e-013
  70
    32
  0
VERTEX
  8
0
  5
1157
 10
631.666
 20
343.688
 30
-6.40754e-013
  70
    32
  0
VERTEX
  8
0
  5
1158
 10
631.653
 20
343.688
 30
-6.40599e-013
  70
    32
  0
VERTEX
  8
0
  5
1159
 10
631.641
 20
343.687
 30
-6.40444e-013
  70
    32
  0
VERTEX
  8
0
  5
115A
 10
631.628
 20
343.686
 30
-6.40291e-013
  70
    32
  0
VERTEX
  8
0
  5
115B
 10
631.616
 20
343.685
 30
-6.40139e-013
  70
    32
  0
VERTEX
  8
0
  5
115C
 10
631.603
 20
343.684
 30
-6.39989e-013
  70
    32
  0
VERTEX
  8
0
  5
115D
 10
631.591
 20
343.683
 30
-6.39840e-013
  70
    32
  0
VERTEX
  8
0
  5
115E
 10
631.578
 20
343.682
 30
-6.39692e-013
  70
    32
  0
VERTEX
  8
0
  5
115F
 10
631.566
 20
343.681
 30
-6.39545e-013
  70
    32
  0
VERTEX
  8
0
  5
1160
 10
631.553
 20
343.679
 30
-6.39400e-013
  70
    32
  0
VERTEX
  8
0
  5
1161
 10
631.541
 20
343.678
 30
-6.39256e-013
  70
    32
  0
VERTEX
  8
0
  5
1162
 10
631.529
 20
343.676
 30
-6.39114e-013
  70
    32
  0
VERTEX
  8
0
  5
1163
 10
631.517
 20
343.675
 30
-6.38973e-013
  70
    32
  0
VERTEX
  8
0
  5
1164
 10
631.504
 20
343.673
 30
-6.38834e-013
  70
    32
  0
VERTEX
  8
0
  5
1165
 10
631.492
 20
343.671
 30
-6.38696e-013
  70
    32
  0
VERTEX
  8
0
  5
1166
 10
631.480
 20
343.670
 30
-6.38560e-013
  70
    32
  0
VERTEX
  8
0
  5
1167
 10
631.468
 20
343.668
 30
-6.38425e-013
  70
    32
  0
VERTEX
  8
0
  5
1168
 10
631.456
 20
343.666
 30
-6.38291e-013
  70
    32
  0
VERTEX
  8
0
  5
1169
 10
631.443
 20
343.664
 30
-6.38160e-013
  70
    32
  0
VERTEX
  8
0
  5
116A
 10
631.431
 20
343.662
 30
-6.38029e-013
  70
    32
  0
VERTEX
  8
0
  5
116B
 10
631.419
 20
343.659
 30
-6.37901e-013
  70
    32
  0
VERTEX
  8
0
  5
116C
 10
631.407
 20
343.657
 30
-6.37774e-013
  70
    32
  0
VERTEX
  8
0
  5
116D
 10
631.396
 20
343.655
 30
-6.37648e-013
  70
    32
  0
VERTEX
  8
0
  5
116E
 10
631.384
 20
343.652
 30
-6.37524e-013
  70
    32
  0
VERTEX
  8
0
  5
116F
 10
631.372
 20
343.650
 30
-6.37402e-013
  70
    32
  0
VERTEX
  8
0
  5
1170
 10
631.360
 20
343.647
 30
-6.37282e-013
  70
    32
  0
VERTEX
  8
0
  5
1171
 10
631.348
 20
343.644
 30
-6.37163e-013
  70
    32
  0
VERTEX
  8
0
  5
1172
 10
631.337
 20
343.642
 30
-6.37046e-013
  70
    32
  0
VERTEX
  8
0
  5
1173
 10
631.325
 20
343.639
 30
-6.36930e-013
  70
    32
  0
VERTEX
  8
0
  5
1174
 10
631.314
 20
343.636
 30
-6.36817e-013
  70
    32
  0
VERTEX
  8
0
  5
1175
 10
631.302
 20
343.633
 30
-6.36705e-013
  70
    32
  0
VERTEX
  8
0
  5
1176
 10
631.291
 20
343.630
 30
-6.36595e-013
  70
    32
  0
VERTEX
  8
0
  5
1177
 10
631.279
 20
343.627
 30
-6.36486e-013
  70
    32
  0
VERTEX
  8
0
  5
1178
 10
631.268
 20
343.623
 30
-6.36380e-013
  70
    32
  0
VERTEX
  8
0
  5
1179
 10
631.257
 20
343.620
 30
-6.36275e-013
  70
    32
  0
VERTEX
  8
0
  5
117A
 10
631.246
 20
343.617
 30
-6.36172e-013
  70
    32
  0
VERTEX
  8
0
  5
117B
 10
631.235
 20
343.613
 30
-6.36071e-013
  70
    32
  0
VERTEX
  8
0
  5
117C
 10
631.224
 20
343.610
 30
-6.35971e-013
  70
    32
  0
VERTEX
  8
0
  5
117D
 10
631.213
 20
343.606
 30
-6.35874e-013
  70
    32
  0
VERTEX
  8
0
  5
117E
 10
631.202
 20
343.603
 30
-6.35778e-013
  70
    32
  0
VERTEX
  8
0
  5
117F
 10
631.191
 20
343.599
 30
-6.35684e-013
  70
    32
  0
VERTEX
  8
0
  5
1180
 10
631.180
 20
343.595
 30
-6.35593e-013
  70
    32
  0
VERTEX
  8
0
  5
1181
 10
631.169
 20
343.591
 30
-6.35503e-013
  70
    32
  0
VERTEX
  8
0
  5
1182
 10
631.159
 20
343.587
 30
-6.35415e-013
  70
    32
  0
VERTEX
  8
0
  5
1183
 10
631.148
 20
343.583
 30
-6.35329e-013
  70
    32
  0
VERTEX
  8
0
  5
1184
 10
631.138
 20
343.579
 30
-6.35244e-013
  70
    32
  0
VERTEX
  8
0
  5
1185
 10
631.128
 20
343.575
 30
-6.35162e-013
  70
    32
  0
VERTEX
  8
0
  5
1186
 10
631.117
 20
343.571
 30
-6.35082e-013
  70
    32
  0
VERTEX
  8
0
  5
1187
 10
631.107
 20
343.566
 30
-6.35004e-013
  70
    32
  0
VERTEX
  8
0
  5
1188
 10
631.097
 20
343.562
 30
-6.34927e-013
  70
    32
  0
VERTEX
  8
0
  5
1189
 10
631.087
 20
343.558
 30
-6.34853e-013
  70
    32
  0
VERTEX
  8
0
  5
118A
 10
631.077
 20
343.553
 30
-6.34781e-013
  70
    32
  0
VERTEX
  8
0
  5
118B
 10
631.067
 20
343.549
 30
-6.34710e-013
  70
    32
  0
VERTEX
  8
0
  5
118C
 10
631.058
 20
343.544
 30
-6.34642e-013
  70
    32
  0
VERTEX
  8
0
  5
118D
 10
631.048
 20
343.539
 30
-6.34576e-013
  70
    32
  0
VERTEX
  8
0
  5
118E
 10
631.038
 20
343.535
 30
-6.34512e-013
  70
    32
  0
VERTEX
  8
0
  5
118F
 10
631.029
 20
343.530
 30
-6.34449e-013
  70
    32
  0
VERTEX
  8
0
  5
1190
 10
631.020
 20
343.525
 30
-6.34389e-013
  70
    32
  0
VERTEX
  8
0
  5
1191
 10
631.010
 20
343.520
 30
-6.34331e-013
  70
    32
  0
VERTEX
  8
0
  5
1192
 10
631.001
 20
343.515
 30
-6.34275e-013
  70
    32
  0
VERTEX
  8
0
  5
1193
 10
630.992
 20
343.510
 30
-6.34221e-013
  70
    32
  0
VERTEX
  8
0
  5
1194
 10
630.983
 20
343.505
 30
-6.34170e-013
  70
    32
  0
SEQEND
  8
0
  5
1195
  0
LINE
  5
7AA
  8
0
  6
CONTINUOUS
 10
-416.5764515677771
 20
-261.30409311125038
 30
0.0000000000054832
 11
630.98320625006977
 21
343.5047573221068
 31
-0.0000000000001882
210
0.000000000000008
220
0.8164965809277113
230
0.5773502691896467
  0
POLYLINE
  5
7AB
  8
0
  6
CONTINUOUS
 10
-416.57645156777716
 20
-261.30409311125044
 30
0.0000000000055398
 66
     1
 70
     8
  0
VERTEX
  8
0
  5
1196
 10
-416.576
 20
-261.304
 30
5.53983e-012
  70
    32
  0
VERTEX
  8
0
  5
1197
 10
-416.585
 20
-261.309
 30
5.53988e-012
  70
    32
  0
VERTEX
  8
0
  5
1198
 10
-416.594
 20
-261.314
 30
5.53993e-012
  70
    32
  0
VERTEX
  8
0
  5
1199
 10
-416.603
 20
-261.320
 30
5.53997e-012
  70
    32
  0
VERTEX
  8
0
  5
119A
 10
-416.611
 20
-261.325
 30
5.54002e-012
  70
    32
  0
VERTEX
  8
0
  5
119B
 10
-416.620
 20
-261.331
 30
5.54006e-012
  70
    32
  0
VERTEX
  8
0
  5
119C
 10
-416.628
 20
-261.336
 30
5.54010e-012
  70
    32
  0
VERTEX
  8
0
  5
119D
 10
-416.636
 20
-261.342
 30
5.54013e-012
  70
    32
  0
VERTEX
  8
0
  5
119E
 10
-416.644
 20
-261.347
 30
5.54017e-012
  70
    32
  0
VERTEX
  8
0
  5
119F
 10
-416.652
 20
-261.353
 30
5.54020e-012
  70
    32
  0
VERTEX
  8
0
  5
11A0
 10
-416.660
 20
-261.358
 30
5.54023e-012
  70
    32
  0
VERTEX
  8
0
  5
11A1
 10
-416.668
 20
-261.364
 30
5.54026e-012
  70
    32
  0
VERTEX
  8
0
  5
11A2
 10
-416.676
 20
-261.370
 30
5.54029e-012
  70
    32
  0
VERTEX
  8
0
  5
11A3
 10
-416.683
 20
-261.376
 30
5.54031e-012
  70
    32
  0
VERTEX
  8
0
  5
11A4
 10
-416.691
 20
-261.382
 30
5.54033e-012
  70
    32
  0
VERTEX
  8
0
  5
11A5
 10
-416.698
 20
-261.387
 30
5.54035e-012
  70
    32
  0
VERTEX
  8
0
  5
11A6
 10
-416.705
 20
-261.393
 30
5.54037e-012
  70
    32
  0
VERTEX
  8
0
  5
11A7
 10
-416.712
 20
-261.399
 30
5.54039e-012
  70
    32
  0
VERTEX
  8
0
  5
11A8
 10
-416.719
 20
-261.406
 30
5.54040e-012
  70
    32
  0
VERTEX
  8
0
  5
11A9
 10
-416.726
 20
-261.412
 30
5.54041e-012
  70
    32
  0
VERTEX
  8
0
  5
11AA
 10
-416.733
 20
-261.418
 30
5.54042e-012
  70
    32
  0
VERTEX
  8
0
  5
11AB
 10
-416.739
 20
-261.424
 30
5.54043e-012
  70
    32
  0
VERTEX
  8
0
  5
11AC
 10
-416.746
 20
-261.430
 30
5.54043e-012
  70
    32
  0
VERTEX
  8
0
  5
11AD
 10
-416.752
 20
-261.437
 30
5.54044e-012
  70
    32
  0
VERTEX
  8
0
  5
11AE
 10
-416.758
 20
-261.443
 30
5.54044e-012
  70
    32
  0
VERTEX
  8
0
  5
11AF
 10
-416.764
 20
-261.449
 30
5.54043e-012
  70
    32
  0
VERTEX
  8
0
  5
11B0
 10
-416.770
 20
-261.456
 30
5.54043e-012
  70
    32
  0
VERTEX
  8
0
  5
11B1
 10
-416.776
 20
-261.462
 30
5.54042e-012
  70
    32
  0
VERTEX
  8
0
  5
11B2
 10
-416.782
 20
-261.469
 30
5.54042e-012
  70
    32
  0
VERTEX
  8
0
  5
11B3
 10
-416.788
 20
-261.475
 30
5.54041e-012
  70
    32
  0
VERTEX
  8
0
  5
11B4
 10
-416.793
 20
-261.482
 30
5.54039e-012
  70
    32
  0
VERTEX
  8
0
  5
11B5
 10
-416.798
 20
-261.488
 30
5.54038e-012
  70
    32
  0
VERTEX
  8
0
  5
11B6
 10
-416.804
 20
-261.495
 30
5.54036e-012
  70
    32
  0
VERTEX
  8
0
  5
11B7
 10
-416.809
 20
-261.502
 30
5.54034e-012
  70
    32
  0
VERTEX
  8
0
  5
11B8
 10
-416.814
 20
-261.508
 30
5.54032e-012
  70
    32
  0
VERTEX
  8
0
  5
11B9
 10
-416.818
 20
-261.515
 30
5.54030e-012
  70
    32
  0
VERTEX
  8
0
  5
11BA
 10
-416.823
 20
-261.522
 30
5.54027e-012
  70
    32
  0
VERTEX
  8
0
  5
11BB
 10
-416.827
 20
-261.528
 30
5.54024e-012
  70
    32
  0
VERTEX
  8
0
  5
11BC
 10
-416.832
 20
-261.535
 30
5.54021e-012
  70
    32
  0
VERTEX
  8
0
  5
11BD
 10
-416.836
 20
-261.542
 30
5.54018e-012
  70
    32
  0
VERTEX
  8
0
  5
11BE
 10
-416.840
 20
-261.549
 30
5.54015e-012
  70
    32
  0
VERTEX
  8
0
  5
11BF
 10
-416.844
 20
-261.556
 30
5.54011e-012
  70
    32
  0
VERTEX
  8
0
  5
11C0
 10
-416.848
 20
-261.563
 30
5.54007e-012
  70
    32
  0
VERTEX
  8
0
  5
11C1
 10
-416.852
 20
-261.570
 30
5.54003e-012
  70
    32
  0
VERTEX
  8
0
  5
11C2
 10
-416.855
 20
-261.577
 30
5.53999e-012
  70
    32
  0
VERTEX
  8
0
  5
11C3
 10
-416.859
 20
-261.584
 30
5.53995e-012
  70
    32
  0
VERTEX
  8
0
  5
11C4
 10
-416.862
 20
-261.591
 30
5.53990e-012
  70
    32
  0
VERTEX
  8
0
  5
11C5
 10
-416.865
 20
-261.598
 30
5.53985e-012
  70
    32
  0
VERTEX
  8
0
  5
11C6
 10
-416.868
 20
-261.605
 30
5.53980e-012
  70
    32
  0
VERTEX
  8
0
  5
11C7
 10
-416.871
 20
-261.612
 30
5.53975e-012
  70
    32
  0
VERTEX
  8
0
  5
11C8
 10
-416.874
 20
-261.619
 30
5.53969e-012
  70
    32
  0
VERTEX
  8
0
  5
11C9
 10
-416.876
 20
-261.626
 30
5.53963e-012
  70
    32
  0
VERTEX
  8
0
  5
11CA
 10
-416.879
 20
-261.633
 30
5.53958e-012
  70
    32
  0
VERTEX
  8
0
  5
11CB
 10
-416.881
 20
-261.640
 30
5.53951e-012
  70
    32
  0
VERTEX
  8
0
  5
11CC
 10
-416.883
 20
-261.648
 30
5.53945e-012
  70
    32
  0
VERTEX
  8
0
  5
11CD
 10
-416.885
 20
-261.655
 30
5.53938e-012
  70
    32
  0
VERTEX
  8
0
  5
11CE
 10
-416.887
 20
-261.662
 30
5.53932e-012
  70
    32
  0
VERTEX
  8
0
  5
11CF
 10
-416.889
 20
-261.669
 30
5.53925e-012
  70
    32
  0
VERTEX
  8
0
  5
11D0
 10
-416.891
 20
-261.676
 30
5.53918e-012
  70
    32
  0
VERTEX
  8
0
  5
11D1
 10
-416.892
 20
-261.684
 30
5.53910e-012
  70
    32
  0
VERTEX
  8
0
  5
11D2
 10
-416.893
 20
-261.691
 30
5.53903e-012
  70
    32
  0
VERTEX
  8
0
  5
11D3
 10
-416.895
 20
-261.698
 30
5.53895e-012
  70
    32
  0
VERTEX
  8
0
  5
11D4
 10
-416.896
 20
-261.705
 30
5.53887e-012
  70
    32
  0
VERTEX
  8
0
  5
11D5
 10
-416.896
 20
-261.713
 30
5.53879e-012
  70
    32
  0
VERTEX
  8
0
  5
11D6
 10
-416.897
 20
-261.720
 30
5.53871e-012
  70
    32
  0
VERTEX
  8
0
  5
11D7
 10
-416.898
 20
-261.727
 30
5.53862e-012
  70
    32
  0
VERTEX
  8
0
  5
11D8
 10
-416.898
 20
-261.734
 30
5.53853e-012
  70
    32
  0
VERTEX
  8
0
  5
11D9
 10
-416.898
 20
-261.742
 30
5.53844e-012
  70
    32
  0
VERTEX
  8
0
  5
11DA
 10
-416.899
 20
-261.749
 30
5.53835e-012
  70
    32
  0
VERTEX
  8
0
  5
11DB
 10
-416.899
 20
-261.756
 30
5.53826e-012
  70
    32
  0
VERTEX
  8
0
  5
11DC
 10
-416.898
 20
-261.764
 30
5.53817e-012
  70
    32
  0
VERTEX
  8
0
  5
11DD
 10
-416.898
 20
-261.771
 30
5.53807e-012
  70
    32
  0
VERTEX
  8
0
  5
11DE
 10
-416.898
 20
-261.778
 30
5.53797e-012
  70
    32
  0
VERTEX
  8
0
  5
11DF
 10
-416.897
 20
-261.785
 30
5.53787e-012
  70
    32
  0
VERTEX
  8
0
  5
11E0
 10
-416.897
 20
-261.793
 30
5.53777e-012
  70
    32
  0
VERTEX
  8
0
  5
11E1
 10
-416.896
 20
-261.800
 30
5.53766e-012
  70
    32
  0
VERTEX
  8
0
  5
11E2
 10
-416.895
 20
-261.807
 30
5.53756e-012
  70
    32
  0
VERTEX
  8
0
  5
11E3
 10
-416.894
 20
-261.814
 30
5.53745e-012
  70
    32
  0
VERTEX
  8
0
  5
11E4
 10
-416.892
 20
-261.822
 30
5.53734e-012
  70
    32
  0
VERTEX
  8
0
  5
11E5
 10
-416.891
 20
-261.829
 30
5.53723e-012
  70
    32
  0
VERTEX
  8
0
  5
11E6
 10
-416.889
 20
-261.836
 30
5.53712e-012
  70
    32
  0
VERTEX
  8
0
  5
11E7
 10
-416.888
 20
-261.843
 30
5.53700e-012
  70
    32
  0
VERTEX
  8
0
  5
11E8
 10
-416.886
 20
-261.850
 30
5.53688e-012
  70
    32
  0
VERTEX
  8
0
  5
11E9
 10
-416.884
 20
-261.858
 30
5.53677e-012
  70
    32
  0
VERTEX
  8
0
  5
11EA
 10
-416.882
 20
-261.865
 30
5.53665e-012
  70
    32
  0
VERTEX
  8
0
  5
11EB
 10
-416.879
 20
-261.872
 30
5.53653e-012
  70
    32
  0
VERTEX
  8
0
  5
11EC
 10
-416.877
 20
-261.879
 30
5.53640e-012
  70
    32
  0
VERTEX
  8
0
  5
11ED
 10
-416.874
 20
-261.886
 30
5.53628e-012
  70
    32
  0
VERTEX
  8
0
  5
11EE
 10
-416.872
 20
-261.893
 30
5.53615e-012
  70
    32
  0
VERTEX
  8
0
  5
11EF
 10
-416.869
 20
-261.900
 30
5.53602e-012
  70
    32
  0
VERTEX
  8
0
  5
11F0
 10
-416.866
 20
-261.907
 30
5.53589e-012
  70
    32
  0
VERTEX
  8
0
  5
11F1
 10
-416.863
 20
-261.915
 30
5.53576e-012
  70
    32
  0
VERTEX
  8
0
  5
11F2
 10
-416.859
 20
-261.922
 30
5.53563e-012
  70
    32
  0
VERTEX
  8
0
  5
11F3
 10
-416.856
 20
-261.929
 30
5.53550e-012
  70
    32
  0
VERTEX
  8
0
  5
11F4
 10
-416.852
 20
-261.936
 30
5.53536e-012
  70
    32
  0
VERTEX
  8
0
  5
11F5
 10
-416.849
 20
-261.942
 30
5.53522e-012
  70
    32
  0
VERTEX
  8
0
  5
11F6
 10
-416.845
 20
-261.949
 30
5.53508e-012
  70
    32
  0
VERTEX
  8
0
  5
11F7
 10
-416.841
 20
-261.956
 30
5.53494e-012
  70
    32
  0
VERTEX
  8
0
  5
11F8
 10
-416.837
 20
-261.963
 30
5.53480e-012
  70
    32
  0
VERTEX
  8
0
  5
11F9
 10
-416.833
 20
-261.970
 30
5.53466e-012
  70
    32
  0
VERTEX
  8
0
  5
11FA
 10
-416.828
 20
-261.977
 30
5.53451e-012
  70
    32
  0
VERTEX
  8
0
  5
11FB
 10
-416.824
 20
-261.984
 30
5.53437e-012
  70
    32
  0
VERTEX
  8
0
  5
11FC
 10
-416.819
 20
-261.990
 30
5.53422e-012
  70
    32
  0
VERTEX
  8
0
  5
11FD
 10
-416.814
 20
-261.997
 30
5.53407e-012
  70
    32
  0
VERTEX
  8
0
  5
11FE
 10
-416.809
 20
-262.004
 30
5.53392e-012
  70
    32
  0
VERTEX
  8
0
  5
11FF
 10
-416.804
 20
-262.011
 30
5.53377e-012
  70
    32
  0
VERTEX
  8
0
  5
1200
 10
-416.799
 20
-262.017
 30
5.53362e-012
  70
    32
  0
VERTEX
  8
0
  5
1201
 10
-416.794
 20
-262.024
 30
5.53346e-012
  70
    32
  0
VERTEX
  8
0
  5
1202
 10
-416.788
 20
-262.030
 30
5.53331e-012
  70
    32
  0
VERTEX
  8
0
  5
1203
 10
-416.783
 20
-262.037
 30
5.53315e-012
  70
    32
  0
VERTEX
  8
0
  5
1204
 10
-416.777
 20
-262.043
 30
5.53299e-012
  70
    32
  0
VERTEX
  8
0
  5
1205
 10
-416.771
 20
-262.050
 30
5.53284e-012
  70
    32
  0
VERTEX
  8
0
  5
1206
 10
-416.765
 20
-262.056
 30
5.53268e-012
  70
    32
  0
VERTEX
  8
0
  5
1207
 10
-416.759
 20
-262.063
 30
5.53252e-012
  70
    32
  0
VERTEX
  8
0
  5
1208
 10
-416.753
 20
-262.069
 30
5.53235e-012
  70
    32
  0
VERTEX
  8
0
  5
1209
 10
-416.747
 20
-262.075
 30
5.53219e-012
  70
    32
  0
VERTEX
  8
0
  5
120A
 10
-416.740
 20
-262.081
 30
5.53203e-012
  70
    32
  0
VERTEX
  8
0
  5
120B
 10
-416.734
 20
-262.088
 30
5.53186e-012
  70
    32
  0
VERTEX
  8
0
  5
120C
 10
-416.727
 20
-262.094
 30
5.53169e-012
  70
    32
  0
VERTEX
  8
0
  5
120D
 10
-416.720
 20
-262.100
 30
5.53153e-012
  70
    32
  0
VERTEX
  8
0
  5
120E
 10
-416.713
 20
-262.106
 30
5.53136e-012
  70
    32
  0
VERTEX
  8
0
  5
120F
 10
-416.706
 20
-262.112
 30
5.53119e-012
  70
    32
  0
VERTEX
  8
0
  5
1210
 10
-416.699
 20
-262.118
 30
5.53102e-012
  70
    32
  0
VERTEX
  8
0
  5
1211
 10
-416.692
 20
-262.124
 30
5.53085e-012
  70
    32
  0
VERTEX
  8
0
  5
1212
 10
-416.684
 20
-262.130
 30
5.53067e-012
  70
    32
  0
VERTEX
  8
0
  5
1213
 10
-416.677
 20
-262.136
 30
5.53050e-012
  70
    32
  0
VERTEX
  8
0
  5
1214
 10
-416.669
 20
-262.141
 30
5.53033e-012
  70
    32
  0
VERTEX
  8
0
  5
1215
 10
-416.661
 20
-262.147
 30
5.53015e-012
  70
    32
  0
VERTEX
  8
0
  5
1216
 10
-416.653
 20
-262.153
 30
5.52998e-012
  70
    32
  0
SEQEND
  8
0
  5
1217
  0
LINE
  5
7AC
  8
0
  6
CONTINUOUS
 10
-395.89808553675391
 20
-521.89975944244918
 30
0.0000000000019807
 11
-396.22942815166323
 21
-521.66352269280992
 31
0.000000000002045
210
0.000000000000008
220
0.8164965809277113
230
0.5773502691896467
  0
LINE
  5
7AD
  8
0
  6
CONTINUOUS
 10
-416.65349466607381
 20
-429.53463744783988
 30
0.0000000000033838
 11
-416.65349466607381
 21
-262.15283835765757
 31
0.0000000000055302
210
0.000000000000008
220
0.8164965809277113
230
0.5773502691896467
  0
LINE
  5
7AE
  8
0
  6
CONTINUOUS
 10
-395.8980855367538
 20
-276.95078516413378
 30
0.0000000000050649
 11
-416.65349466607381
 21
-262.15283835765757
 31
0.0000000000055302
210
0.000000000000008
220
0.8164965809277113
230
0.5773502691896467
  0
POLYLINE
  5
7AF
  8
0
  6
CONTINUOUS
 10
-395.89808553675391
 20
-521.89975944244918
 30
0.0000000000019239
 66
     1
 70
     8
  0
VERTEX
  8
0
  5
1218
 10
-395.898
 20
-521.900
 30
1.92389e-012
  70
    32
  0
VERTEX
  8
0
  5
1219
 10
-395.889
 20
-521.906
 30
1.92369e-012
  70
    32
  0
VERTEX
  8
0
  5
121A
 10
-395.880
 20
-521.913
 30
1.92349e-012
  70
    32
  0
VERTEX
  8
0
  5
121B
 10
-395.870
 20
-521.919
 30
1.92328e-012
  70
    32
  0
VERTEX
  8
0
  5
121C
 10
-395.861
 20
-521.925
 30
1.92308e-012
  70
    32
  0
VERTEX
  8
0
  5
121D
 10
-395.851
 20
-521.931
 30
1.92287e-012
  70
    32
  0
VERTEX
  8
0
  5
121E
 10
-395.841
 20
-521.937
 30
1.92267e-012
  70
    32
  0
VERTEX
  8
0
  5
121F
 10
-395.831
 20
-521.943
 30
1.92246e-012
  70
    32
  0
VERTEX
  8
0
  5
1220
 10
-395.821
 20
-521.949
 30
1.92225e-012
  70
    32
  0
VERTEX
  8
0
  5
1221
 10
-395.811
 20
-521.955
 30
1.92204e-012
  70
    32
  0
VERTEX
  8
0
  5
1222
 10
-395.800
 20
-521.961
 30
1.92183e-012
  70
    32
  0
VERTEX
  8
0
  5
1223
 10
-395.790
 20
-521.966
 30
1.92162e-012
  70
    32
  0
VERTEX
  8
0
  5
1224
 10
-395.779
 20
-521.972
 30
1.92141e-012
  70
    32
  0
VERTEX
  8
0
  5
1225
 10
-395.769
 20
-521.978
 30
1.92120e-012
  70
    32
  0
VERTEX
  8
0
  5
1226
 10
-395.758
 20
-521.983
 30
1.92098e-012
  70
    32
  0
VERTEX
  8
0
  5
1227
 10
-395.747
 20
-521.988
 30
1.92077e-012
  70
    32
  0
VERTEX
  8
0
  5
1228
 10
-395.735
 20
-521.994
 30
1.92056e-012
  70
    32
  0
VERTEX
  8
0
  5
1229
 10
-395.724
 20
-521.999
 30
1.92034e-012
  70
    32
  0
VERTEX
  8
0
  5
122A
 10
-395.713
 20
-522.004
 30
1.92013e-012
  70
    32
  0
VERTEX
  8
0
  5
122B
 10
-395.701
 20
-522.009
 30
1.91991e-012
  70
    32
  0
VERTEX
  8
0
  5
122C
 10
-395.690
 20
-522.014
 30
1.91970e-012
  70
    32
  0
VERTEX
  8
0
  5
122D
 10
-395.678
 20
-522.019
 30
1.91948e-012
  70
    32
  0
VERTEX
  8
0
  5
122E
 10
-395.666
 20
-522.023
 30
1.91927e-012
  70
    32
  0
VERTEX
  8
0
  5
122F
 10
-395.654
 20
-522.028
 30
1.91905e-012
  70
    32
  0
VERTEX
  8
0
  5
1230
 10
-395.642
 20
-522.033
 30
1.91883e-012
  70
    32
  0
VERTEX
  8
0
  5
1231
 10
-395.630
 20
-522.037
 30
1.91862e-012
  70
    32
  0
VERTEX
  8
0
  5
1232
 10
-395.618
 20
-522.042
 30
1.91840e-012
  70
    32
  0
VERTEX
  8
0
  5
1233
 10
-395.606
 20
-522.046
 30
1.91818e-012
  70
    32
  0
VERTEX
  8
0
  5
1234
 10
-395.593
 20
-522.050
 30
1.91796e-012
  70
    32
  0
VERTEX
  8
0
  5
1235
 10
-395.581
 20
-522.054
 30
1.91775e-012
  70
    32
  0
VERTEX
  8
0
  5
1236
 10
-395.568
 20
-522.058
 30
1.91753e-012
  70
    32
  0
VERTEX
  8
0
  5
1237
 10
-395.555
 20
-522.062
 30
1.91731e-012
  70
    32
  0
VERTEX
  8
0
  5
1238
 10
-395.543
 20
-522.066
 30
1.91710e-012
  70
    32
  0
VERTEX
  8
0
  5
1239
 10
-395.530
 20
-522.070
 30
1.91688e-012
  70
    32
  0
VERTEX
  8
0
  5
123A
 10
-395.517
 20
-522.073
 30
1.91666e-012
  70
    32
  0
VERTEX
  8
0
  5
123B
 10
-395.504
 20
-522.077
 30
1.91645e-012
  70
    32
  0
VERTEX
  8
0
  5
123C
 10
-395.491
 20
-522.080
 30
1.91623e-012
  70
    32
  0
VERTEX
  8
0
  5
123D
 10
-395.477
 20
-522.084
 30
1.91601e-012
  70
    32
  0
VERTEX
  8
0
  5
123E
 10
-395.464
 20
-522.087
 30
1.91580e-012
  70
    32
  0
VERTEX
  8
0
  5
123F
 10
-395.451
 20
-522.090
 30
1.91558e-012
  70
    32
  0
VERTEX
  8
0
  5
1240
 10
-395.437
 20
-522.093
 30
1.91537e-012
  70
    32
  0
VERTEX
  8
0
  5
1241
 10
-395.424
 20
-522.096
 30
1.91515e-012
  70
    32
  0
VERTEX
  8
0
  5
1242
 10
-395.410
 20
-522.099
 30
1.91494e-012
  70
    32
  0
VERTEX
  8
0
  5
1243
 10
-395.397
 20
-522.101
 30
1.91472e-012
  70
    32
  0
VERTEX
  8
0
  5
1244
 10
-395.383
 20
-522.104
 30
1.91451e-012
  70
    32
  0
VERTEX
  8
0
  5
1245
 10
-395.369
 20
-522.107
 30
1.91430e-012
  70
    32
  0
VERTEX
  8
0
  5
1246
 10
-395.356
 20
-522.109
 30
1.91408e-012
  70
    32
  0
VERTEX
  8
0
  5
1247
 10
-395.342
 20
-522.111
 30
1.91387e-012
  70
    32
  0
VERTEX
  8
0
  5
1248
 10
-395.328
 20
-522.114
 30
1.91366e-012
  70
    32
  0
VERTEX
  8
0
  5
1249
 10
-395.314
 20
-522.116
 30
1.91345e-012
  70
    32
  0
VERTEX
  8
0
  5
124A
 10
-395.300
 20
-522.118
 30
1.91324e-012
  70
    32
  0
VERTEX
  8
0
  5
124B
 10
-395.286
 20
-522.120
 30
1.91303e-012
  70
    32
  0
VERTEX
  8
0
  5
124C
 10
-395.272
 20
-522.121
 30
1.91283e-012
  70
    32
  0
VERTEX
  8
0
  5
124D
 10
-395.258
 20
-522.123
 30
1.91262e-012
  70
    32
  0
VERTEX
  8
0
  5
124E
 10
-395.244
 20
-522.125
 30
1.91241e-012
  70
    32
  0
VERTEX
  8
0
  5
124F
 10
-395.230
 20
-522.126
 30
1.91221e-012
  70
    32
  0
VERTEX
  8
0
  5
1250
 10
-395.215
 20
-522.127
 30
1.91200e-012
  70
    32
  0
VERTEX
  8
0
  5
1251
 10
-395.201
 20
-522.129
 30
1.91180e-012
  70
    32
  0
VERTEX
  8
0
  5
1252
 10
-395.187
 20
-522.130
 30
1.91160e-012
  70
    32
  0
VERTEX
  8
0
  5
1253
 10
-395.173
 20
-522.131
 30
1.91139e-012
  70
    32
  0
VERTEX
  8
0
  5
1254
 10
-395.158
 20
-522.132
 30
1.91119e-012
  70
    32
  0
VERTEX
  8
0
  5
1255
 10
-395.144
 20
-522.133
 30
1.91100e-012
  70
    32
  0
VERTEX
  8
0
  5
1256
 10
-395.130
 20
-522.133
 30
1.91080e-012
  70
    32
  0
VERTEX
  8
0
  5
1257
 10
-395.115
 20
-522.134
 30
1.91060e-012
  70
    32
  0
VERTEX
  8
0
  5
1258
 10
-395.101
 20
-522.134
 30
1.91040e-012
  70
    32
  0
VERTEX
  8
0
  5
1259
 10
-395.086
 20
-522.135
 30
1.91021e-012
  70
    32
  0
VERTEX
  8
0
  5
125A
 10
-395.072
 20
-522.135
 30
1.91002e-012
  70
    32
  0
VERTEX
  8
0
  5
125B
 10
-395.058
 20
-522.135
 30
1.90982e-012
  70
    32
  0
VERTEX
  8
0
  5
125C
 10
-395.043
 20
-522.135
 30
1.90963e-012
  70
    32
  0
VERTEX
  8
0
  5
125D
 10
-395.029
 20
-522.135
 30
1.90945e-012
  70
    32
  0
VERTEX
  8
0
  5
125E
 10
-395.014
 20
-522.135
 30
1.90926e-012
  70
    32
  0
VERTEX
  8
0
  5
125F
 10
-395.000
 20
-522.135
 30
1.90907e-012
  70
    32
  0
VERTEX
  8
0
  5
1260
 10
-394.986
 20
-522.134
 30
1.90889e-012
  70
    32
  0
VERTEX
  8
0
  5
1261
 10
-394.971
 20
-522.134
 30
1.90870e-012
  70
    32
  0
VERTEX
  8
0
  5
1262
 10
-394.957
 20
-522.133
 30
1.90852e-012
  70
    32
  0
VERTEX
  8
0
  5
1263
 10
-394.943
 20
-522.133
 30
1.90834e-012
  70
    32
  0
VERTEX
  8
0
  5
1264
 10
-394.928
 20
-522.132
 30
1.90816e-012
  70
    32
  0
VERTEX
  8
0
  5
1265
 10
-394.914
 20
-522.131
 30
1.90799e-012
  70
    32
  0
VERTEX
  8
0
  5
1266
 10
-394.900
 20
-522.130
 30
1.90781e-012
  70
    32
  0
VERTEX
  8
0
  5
1267
 10
-394.885
 20
-522.129
 30
1.90764e-012
  70
    32
  0
VERTEX
  8
0
  5
1268
 10
-394.871
 20
-522.127
 30
1.90747e-012
  70
    32
  0
VERTEX
  8
0
  5
1269
 10
-394.857
 20
-522.126
 30
1.90730e-012
  70
    32
  0
VERTEX
  8
0
  5
126A
 10
-394.843
 20
-522.125
 30
1.90713e-012
  70
    32
  0
VERTEX
  8
0
  5
126B
 10
-394.829
 20
-522.123
 30
1.90696e-012
  70
    32
  0
VERTEX
  8
0
  5
126C
 10
-394.815
 20
-522.121
 30
1.90680e-012
  70
    32
  0
VERTEX
  8
0
  5
126D
 10
-394.800
 20
-522.120
 30
1.90663e-012
  70
    32
  0
VERTEX
  8
0
  5
126E
 10
-394.786
 20
-522.118
 30
1.90647e-012
  70
    32
  0
VERTEX
  8
0
  5
126F
 10
-394.772
 20
-522.116
 30
1.90631e-012
  70
    32
  0
VERTEX
  8
0
  5
1270
 10
-394.759
 20
-522.114
 30
1.90616e-012
  70
    32
  0
VERTEX
  8
0
  5
1271
 10
-394.745
 20
-522.111
 30
1.90600e-012
  70
    32
  0
VERTEX
  8
0
  5
1272
 10
-394.731
 20
-522.109
 30
1.90585e-012
  70
    32
  0
VERTEX
  8
0
  5
1273
 10
-394.717
 20
-522.107
 30
1.90570e-012
  70
    32
  0
VERTEX
  8
0
  5
1274
 10
-394.703
 20
-522.104
 30
1.90555e-012
  70
    32
  0
VERTEX
  8
0
  5
1275
 10
-394.690
 20
-522.101
 30
1.90540e-012
  70
    32
  0
VERTEX
  8
0
  5
1276
 10
-394.676
 20
-522.099
 30
1.90526e-012
  70
    32
  0
VERTEX
  8
0
  5
1277
 10
-394.662
 20
-522.096
 30
1.90511e-012
  70
    32
  0
VERTEX
  8
0
  5
1278
 10
-394.649
 20
-522.093
 30
1.90497e-012
  70
    32
  0
VERTEX
  8
0
  5
1279
 10
-394.636
 20
-522.090
 30
1.90484e-012
  70
    32
  0
VERTEX
  8
0
  5
127A
 10
-394.622
 20
-522.087
 30
1.90470e-012
  70
    32
  0
VERTEX
  8
0
  5
127B
 10
-394.609
 20
-522.084
 30
1.90457e-012
  70
    32
  0
VERTEX
  8
0
  5
127C
 10
-394.596
 20
-522.080
 30
1.90443e-012
  70
    32
  0
VERTEX
  8
0
  5
127D
 10
-394.583
 20
-522.077
 30
1.90430e-012
  70
    32
  0
VERTEX
  8
0
  5
127E
 10
-394.570
 20
-522.073
 30
1.90418e-012
  70
    32
  0
VERTEX
  8
0
  5
127F
 10
-394.557
 20
-522.070
 30
1.90405e-012
  70
    32
  0
VERTEX
  8
0
  5
1280
 10
-394.544
 20
-522.066
 30
1.90393e-012
  70
    32
  0
VERTEX
  8
0
  5
1281
 10
-394.531
 20
-522.062
 30
1.90381e-012
  70
    32
  0
VERTEX
  8
0
  5
1282
 10
-394.518
 20
-522.058
 30
1.90369e-012
  70
    32
  0
VERTEX
  8
0
  5
1283
 10
-394.506
 20
-522.054
 30
1.90358e-012
  70
    32
  0
VERTEX
  8
0
  5
1284
 10
-394.493
 20
-522.050
 30
1.90347e-012
  70
    32
  0
VERTEX
  8
0
  5
1285
 10
-394.481
 20
-522.046
 30
1.90335e-012
  70
    32
  0
VERTEX
  8
0
  5
1286
 10
-394.468
 20
-522.042
 30
1.90325e-012
  70
    32
  0
VERTEX
  8
0
  5
1287
 10
-394.456
 20
-522.037
 30
1.90314e-012
  70
    32
  0
VERTEX
  8
0
  5
1288
 10
-394.444
 20
-522.033
 30
1.90304e-012
  70
    32
  0
VERTEX
  8
0
  5
1289
 10
-394.432
 20
-522.028
 30
1.90294e-012
  70
    32
  0
VERTEX
  8
0
  5
128A
 10
-394.420
 20
-522.023
 30
1.90284e-012
  70
    32
  0
VERTEX
  8
0
  5
128B
 10
-394.408
 20
-522.019
 30
1.90274e-012
  70
    32
  0
VERTEX
  8
0
  5
128C
 10
-394.397
 20
-522.014
 30
1.90265e-012
  70
    32
  0
VERTEX
  8
0
  5
128D
 10
-394.385
 20
-522.009
 30
1.90256e-012
  70
    32
  0
VERTEX
  8
0
  5
128E
 10
-394.374
 20
-522.004
 30
1.90247e-012
  70
    32
  0
VERTEX
  8
0
  5
128F
 10
-394.362
 20
-521.999
 30
1.90239e-012
  70
    32
  0
VERTEX
  8
0
  5
1290
 10
-394.351
 20
-521.994
 30
1.90231e-012
  70
    32
  0
VERTEX
  8
0
  5
1291
 10
-394.340
 20
-521.988
 30
1.90223e-012
  70
    32
  0
VERTEX
  8
0
  5
1292
 10
-394.329
 20
-521.983
 30
1.90215e-012
  70
    32
  0
VERTEX
  8
0
  5
1293
 10
-394.318
 20
-521.978
 30
1.90208e-012
  70
    32
  0
VERTEX
  8
0
  5
1294
 10
-394.307
 20
-521.972
 30
1.90200e-012
  70
    32
  0
VERTEX
  8
0
  5
1295
 10
-394.297
 20
-521.966
 30
1.90193e-012
  70
    32
  0
VERTEX
  8
0
  5
1296
 10
-394.286
 20
-521.961
 30
1.90187e-012
  70
    32
  0
VERTEX
  8
0
  5
1297
 10
-394.276
 20
-521.955
 30
1.90180e-012
  70
    32
  0
VERTEX
  8
0
  5
1298
 10
-394.265
 20
-521.949
 30
1.90174e-012
  70
    32
  0
SEQEND
  8
0
  5
1299
  0
LINE
  5
7B0
  8
0
  6
CONTINUOUS
 10
-395.89808553675391
 20
-521.89975944244918
 30
0.0000000000019807
 11
-395.8980855367538
 21
-276.95078516413378
 31
0.0000000000050649
210
0.000000000000008
220
0.8164965809277113
230
0.5773502691896467
  0
POLYLINE
  5
7B1
  8
0
  6
CONTINUOUS
 10
-395.89808553675385
 20
-276.95078516413378
 30
0.0000000000050649
 66
     1
 70
     8
  0
VERTEX
  8
0
  5
129A
 10
-395.898
 20
-276.951
 30
5.06489e-012
  70
    32
  0
VERTEX
  8
0
  5
129B
 10
-395.889
 20
-276.957
 30
5.06469e-012
  70
    32
  0
VERTEX
  8
0
  5
129C
 10
-395.880
 20
-276.964
 30
5.06449e-012
  70
    32
  0
VERTEX
  8
0
  5
129D
 10
-395.870
 20
-276.970
 30
5.06428e-012
  70
    32
  0
VERTEX
  8
0
  5
129E
 10
-395.861
 20
-276.976
 30
5.06408e-012
  70
    32
  0
VERTEX
  8
0
  5
129F
 10
-395.851
 20
-276.982
 30
5.06387e-012
  70
    32
  0
VERTEX
  8
0
  5
12A0
 10
-395.841
 20
-276.988
 30
5.06367e-012
  70
    32
  0
VERTEX
  8
0
  5
12A1
 10
-395.831
 20
-276.994
 30
5.06346e-012
  70
    32
  0
VERTEX
  8
0
  5
12A2
 10
-395.821
 20
-277.000
 30
5.06325e-012
  70
    32
  0
VERTEX
  8
0
  5
12A3
 10
-395.811
 20
-277.006
 30
5.06304e-012
  70
    32
  0
VERTEX
  8
0
  5
12A4
 10
-395.800
 20
-277.012
 30
5.06283e-012
  70
    32
  0
VERTEX
  8
0
  5
12A5
 10
-395.790
 20
-277.017
 30
5.06262e-012
  70
    32
  0
VERTEX
  8
0
  5
12A6
 10
-395.779
 20
-277.023
 30
5.06241e-012
  70
    32
  0
VERTEX
  8
0
  5
12A7
 10
-395.769
 20
-277.029
 30
5.06220e-012
  70
    32
  0
VERTEX
  8
0
  5
12A8
 10
-395.758
 20
-277.034
 30
5.06198e-012
  70
    32
  0
VERTEX
  8
0
  5
12A9
 10
-395.747
 20
-277.039
 30
5.06177e-012
  70
    32
  0
VERTEX
  8
0
  5
12AA
 10
-395.735
 20
-277.045
 30
5.06156e-012
  70
    32
  0
VERTEX
  8
0
  5
12AB
 10
-395.724
 20
-277.050
 30
5.06134e-012
  70
    32
  0
VERTEX
  8
0
  5
12AC
 10
-395.713
 20
-277.055
 30
5.06113e-012
  70
    32
  0
VERTEX
  8
0
  5
12AD
 10
-395.701
 20
-277.060
 30
5.06091e-012
  70
    32
  0
VERTEX
  8
0
  5
12AE
 10
-395.690
 20
-277.065
 30
5.06070e-012
  70
    32
  0
VERTEX
  8
0
  5
12AF
 10
-395.678
 20
-277.070
 30
5.06048e-012
  70
    32
  0
VERTEX
  8
0
  5
12B0
 10
-395.666
 20
-277.075
 30
5.06027e-012
  70
    32
  0
VERTEX
  8
0
  5
12B1
 10
-395.654
 20
-277.079
 30
5.06005e-012
  70
    32
  0
VERTEX
  8
0
  5
12B2
 10
-395.642
 20
-277.084
 30
5.05983e-012
  70
    32
  0
VERTEX
  8
0
  5
12B3
 10
-395.630
 20
-277.088
 30
5.05962e-012
  70
    32
  0
VERTEX
  8
0
  5
12B4
 10
-395.618
 20
-277.093
 30
5.05940e-012
  70
    32
  0
VERTEX
  8
0
  5
12B5
 10
-395.606
 20
-277.097
 30
5.05918e-012
  70
    32
  0
VERTEX
  8
0
  5
12B6
 10
-395.593
 20
-277.101
 30
5.05896e-012
  70
    32
  0
VERTEX
  8
0
  5
12B7
 10
-395.581
 20
-277.105
 30
5.05875e-012
  70
    32
  0
VERTEX
  8
0
  5
12B8
 10
-395.568
 20
-277.109
 30
5.05853e-012
  70
    32
  0
VERTEX
  8
0
  5
12B9
 10
-395.555
 20
-277.113
 30
5.05831e-012
  70
    32
  0
VERTEX
  8
0
  5
12BA
 10
-395.543
 20
-277.117
 30
5.05810e-012
  70
    32
  0
VERTEX
  8
0
  5
12BB
 10
-395.530
 20
-277.121
 30
5.05788e-012
  70
    32
  0
VERTEX
  8
0
  5
12BC
 10
-395.517
 20
-277.124
 30
5.05766e-012
  70
    32
  0
VERTEX
  8
0
  5
12BD
 10
-395.504
 20
-277.128
 30
5.05745e-012
  70
    32
  0
VERTEX
  8
0
  5
12BE
 10
-395.491
 20
-277.131
 30
5.05723e-012
  70
    32
  0
VERTEX
  8
0
  5
12BF
 10
-395.477
 20
-277.135
 30
5.05701e-012
  70
    32
  0
VERTEX
  8
0
  5
12C0
 10
-395.464
 20
-277.138
 30
5.05680e-012
  70
    32
  0
VERTEX
  8
0
  5
12C1
 10
-395.451
 20
-277.141
 30
5.05658e-012
  70
    32
  0
VERTEX
  8
0
  5
12C2
 10
-395.437
 20
-277.144
 30
5.05637e-012
  70
    32
  0
VERTEX
  8
0
  5
12C3
 10
-395.424
 20
-277.147
 30
5.05615e-012
  70
    32
  0
VERTEX
  8
0
  5
12C4
 10
-395.410
 20
-277.150
 30
5.05594e-012
  70
    32
  0
VERTEX
  8
0
  5
12C5
 10
-395.397
 20
-277.152
 30
5.05572e-012
  70
    32
  0
VERTEX
  8
0
  5
12C6
 10
-395.383
 20
-277.155
 30
5.05551e-012
  70
    32
  0
VERTEX
  8
0
  5
12C7
 10
-395.369
 20
-277.158
 30
5.05530e-012
  70
    32
  0
VERTEX
  8
0
  5
12C8
 10
-395.356
 20
-277.160
 30
5.05508e-012
  70
    32
  0
VERTEX
  8
0
  5
12C9
 10
-395.342
 20
-277.162
 30
5.05487e-012
  70
    32
  0
VERTEX
  8
0
  5
12CA
 10
-395.328
 20
-277.165
 30
5.05466e-012
  70
    32
  0
VERTEX
  8
0
  5
12CB
 10
-395.314
 20
-277.167
 30
5.05445e-012
  70
    32
  0
VERTEX
  8
0
  5
12CC
 10
-395.300
 20
-277.169
 30
5.05424e-012
  70
    32
  0
VERTEX
  8
0
  5
12CD
 10
-395.286
 20
-277.171
 30
5.05403e-012
  70
    32
  0
VERTEX
  8
0
  5
12CE
 10
-395.272
 20
-277.172
 30
5.05383e-012
  70
    32
  0
VERTEX
  8
0
  5
12CF
 10
-395.258
 20
-277.174
 30
5.05362e-012
  70
    32
  0
VERTEX
  8
0
  5
12D0
 10
-395.244
 20
-277.176
 30
5.05341e-012
  70
    32
  0
VERTEX
  8
0
  5
12D1
 10
-395.230
 20
-277.177
 30
5.05321e-012
  70
    32
  0
VERTEX
  8
0
  5
12D2
 10
-395.215
 20
-277.178
 30
5.05300e-012
  70
    32
  0
VERTEX
  8
0
  5
12D3
 10
-395.201
 20
-277.180
 30
5.05280e-012
  70
    32
  0
VERTEX
  8
0
  5
12D4
 10
-395.187
 20
-277.181
 30
5.05260e-012
  70
    32
  0
VERTEX
  8
0
  5
12D5
 10
-395.173
 20
-277.182
 30
5.05239e-012
  70
    32
  0
VERTEX
  8
0
  5
12D6
 10
-395.158
 20
-277.183
 30
5.05219e-012
  70
    32
  0
VERTEX
  8
0
  5
12D7
 10
-395.144
 20
-277.184
 30
5.05200e-012
  70
    32
  0
VERTEX
  8
0
  5
12D8
 10
-395.130
 20
-277.184
 30
5.05180e-012
  70
    32
  0
VERTEX
  8
0
  5
12D9
 10
-395.115
 20
-277.185
 30
5.05160e-012
  70
    32
  0
VERTEX
  8
0
  5
12DA
 10
-395.101
 20
-277.185
 30
5.05140e-012
  70
    32
  0
VERTEX
  8
0
  5
12DB
 10
-395.086
 20
-277.186
 30
5.05121e-012
  70
    32
  0
VERTEX
  8
0
  5
12DC
 10
-395.072
 20
-277.186
 30
5.05102e-012
  70
    32
  0
VERTEX
  8
0
  5
12DD
 10
-395.058
 20
-277.186
 30
5.05082e-012
  70
    32
  0
VERTEX
  8
0
  5
12DE
 10
-395.043
 20
-277.186
 30
5.05063e-012
  70
    32
  0
VERTEX
  8
0
  5
12DF
 10
-395.029
 20
-277.186
 30
5.05045e-012
  70
    32
  0
VERTEX
  8
0
  5
12E0
 10
-395.014
 20
-277.186
 30
5.05026e-012
  70
    32
  0
VERTEX
  8
0
  5
12E1
 10
-395.000
 20
-277.186
 30
5.05007e-012
  70
    32
  0
VERTEX
  8
0
  5
12E2
 10
-394.986
 20
-277.185
 30
5.04989e-012
  70
    32
  0
VERTEX
  8
0
  5
12E3
 10
-394.971
 20
-277.185
 30
5.04970e-012
  70
    32
  0
VERTEX
  8
0
  5
12E4
 10
-394.957
 20
-277.184
 30
5.04952e-012
  70
    32
  0
VERTEX
  8
0
  5
12E5
 10
-394.943
 20
-277.184
 30
5.04934e-012
  70
    32
  0
VERTEX
  8
0
  5
12E6
 10
-394.928
 20
-277.183
 30
5.04916e-012
  70
    32
  0
VERTEX
  8
0
  5
12E7
 10
-394.914
 20
-277.182
 30
5.04899e-012
  70
    32
  0
VERTEX
  8
0
  5
12E8
 10
-394.900
 20
-277.181
 30
5.04881e-012
  70
    32
  0
VERTEX
  8
0
  5
12E9
 10
-394.885
 20
-277.180
 30
5.04864e-012
  70
    32
  0
VERTEX
  8
0
  5
12EA
 10
-394.871
 20
-277.178
 30
5.04847e-012
  70
    32
  0
VERTEX
  8
0
  5
12EB
 10
-394.857
 20
-277.177
 30
5.04830e-012
  70
    32
  0
VERTEX
  8
0
  5
12EC
 10
-394.843
 20
-277.176
 30
5.04813e-012
  70
    32
  0
VERTEX
  8
0
  5
12ED
 10
-394.829
 20
-277.174
 30
5.04796e-012
  70
    32
  0
VERTEX
  8
0
  5
12EE
 10
-394.815
 20
-277.172
 30
5.04780e-012
  70
    32
  0
VERTEX
  8
0
  5
12EF
 10
-394.800
 20
-277.171
 30
5.04763e-012
  70
    32
  0
VERTEX
  8
0
  5
12F0
 10
-394.786
 20
-277.169
 30
5.04747e-012
  70
    32
  0
VERTEX
  8
0
  5
12F1
 10
-394.772
 20
-277.167
 30
5.04731e-012
  70
    32
  0
VERTEX
  8
0
  5
12F2
 10
-394.759
 20
-277.165
 30
5.04716e-012
  70
    32
  0
VERTEX
  8
0
  5
12F3
 10
-394.745
 20
-277.162
 30
5.04700e-012
  70
    32
  0
VERTEX
  8
0
  5
12F4
 10
-394.731
 20
-277.160
 30
5.04685e-012
  70
    32
  0
VERTEX
  8
0
  5
12F5
 10
-394.717
 20
-277.158
 30
5.04670e-012
  70
    32
  0
VERTEX
  8
0
  5
12F6
 10
-394.703
 20
-277.155
 30
5.04655e-012
  70
    32
  0
VERTEX
  8
0
  5
12F7
 10
-394.690
 20
-277.152
 30
5.04640e-012
  70
    32
  0
VERTEX
  8
0
  5
12F8
 10
-394.676
 20
-277.150
 30
5.04626e-012
  70
    32
  0
VERTEX
  8
0
  5
12F9
 10
-394.662
 20
-277.147
 30
5.04611e-012
  70
    32
  0
VERTEX
  8
0
  5
12FA
 10
-394.649
 20
-277.144
 30
5.04597e-012
  70
    32
  0
VERTEX
  8
0
  5
12FB
 10
-394.636
 20
-277.141
 30
5.04584e-012
  70
    32
  0
VERTEX
  8
0
  5
12FC
 10
-394.622
 20
-277.138
 30
5.04570e-012
  70
    32
  0
VERTEX
  8
0
  5
12FD
 10
-394.609
 20
-277.135
 30
5.04557e-012
  70
    32
  0
VERTEX
  8
0
  5
12FE
 10
-394.596
 20
-277.131
 30
5.04543e-012
  70
    32
  0
VERTEX
  8
0
  5
12FF
 10
-394.583
 20
-277.128
 30
5.04530e-012
  70
    32
  0
VERTEX
  8
0
  5
1300
 10
-394.570
 20
-277.124
 30
5.04518e-012
  70
    32
  0
VERTEX
  8
0
  5
1301
 10
-394.557
 20
-277.121
 30
5.04505e-012
  70
    32
  0
VERTEX
  8
0
  5
1302
 10
-394.544
 20
-277.117
 30
5.04493e-012
  70
    32
  0
VERTEX
  8
0
  5
1303
 10
-394.531
 20
-277.113
 30
5.04481e-012
  70
    32
  0
VERTEX
  8
0
  5
1304
 10
-394.518
 20
-277.109
 30
5.04469e-012
  70
    32
  0
VERTEX
  8
0
  5
1305
 10
-394.506
 20
-277.105
 30
5.04458e-012
  70
    32
  0
VERTEX
  8
0
  5
1306
 10
-394.493
 20
-277.101
 30
5.04447e-012
  70
    32
  0
VERTEX
  8
0
  5
1307
 10
-394.481
 20
-277.097
 30
5.04435e-012
  70
    32
  0
VERTEX
  8
0
  5
1308
 10
-394.468
 20
-277.093
 30
5.04425e-012
  70
    32
  0
VERTEX
  8
0
  5
1309
 10
-394.456
 20
-277.088
 30
5.04414e-012
  70
    32
  0
VERTEX
  8
0
  5
130A
 10
-394.444
 20
-277.084
 30
5.04404e-012
  70
    32
  0
VERTEX
  8
0
  5
130B
 10
-394.432
 20
-277.079
 30
5.04394e-012
  70
    32
  0
VERTEX
  8
0
  5
130C
 10
-394.420
 20
-277.075
 30
5.04384e-012
  70
    32
  0
VERTEX
  8
0
  5
130D
 10
-394.408
 20
-277.070
 30
5.04374e-012
  70
    32
  0
VERTEX
  8
0
  5
130E
 10
-394.397
 20
-277.065
 30
5.04365e-012
  70
    32
  0
VERTEX
  8
0
  5
130F
 10
-394.385
 20
-277.060
 30
5.04356e-012
  70
    32
  0
VERTEX
  8
0
  5
1310
 10
-394.374
 20
-277.055
 30
5.04347e-012
  70
    32
  0
VERTEX
  8
0
  5
1311
 10
-394.362
 20
-277.050
 30
5.04339e-012
  70
    32
  0
VERTEX
  8
0
  5
1312
 10
-394.351
 20
-277.045
 30
5.04331e-012
  70
    32
  0
VERTEX
  8
0
  5
1313
 10
-394.340
 20
-277.039
 30
5.04323e-012
  70
    32
  0
VERTEX
  8
0
  5
1314
 10
-394.329
 20
-277.034
 30
5.04315e-012
  70
    32
  0
VERTEX
  8
0
  5
1315
 10
-394.318
 20
-277.029
 30
5.04308e-012
  70
    32
  0
VERTEX
  8
0
  5
1316
 10
-394.307
 20
-277.023
 30
5.04300e-012
  70
    32
  0
VERTEX
  8
0
  5
1317
 10
-394.297
 20
-277.017
 30
5.04293e-012
  70
    32
  0
VERTEX
  8
0
  5
1318
 10
-394.286
 20
-277.012
 30
5.04287e-012
  70
    32
  0
VERTEX
  8
0
  5
1319
 10
-394.276
 20
-277.006
 30
5.04280e-012
  70
    32
  0
VERTEX
  8
0
  5
131A
 10
-394.265
 20
-277.000
 30
5.04274e-012
  70
    32
  0
SEQEND
  8
0
  5
131B
  0
LINE
  5
7B2
  8
0
  6
CONTINUOUS
 10
-390.17951385609712
 20
-519.59016862841656
 30
0.0000000000018776
 11
-394.26540751984658
 21
-521.94916043506282
 31
0.0000000000019584
210
0.000000000000008
220
0.8164965809277113
230
0.5773502691896467
  0
LINE
  5
7B3
  8
0
  6
CONTINUOUS
 10
-394.26540751984658
 20
-521.94916043506282
 30
0.0000000000019584
 11
-394.26540751984641
 21
-277.00018615674719
 31
0.0000000000049857
210
0.000000000000008
220
0.8164965809277113
230
0.5773502691896467
  0
LINE
  5
7B4
  8
0
  6
CONTINUOUS
 10
-388.7653002937239
 20
-273.82469776917333
 30
0.0000000000050103
 11
-394.26540751984641
 21
-277.00018615674719
 31
0.0000000000049857
210
0.000000000000008
220
0.8164965809277113
230
0.5773502691896467
  0
LINE
  5
7B5
  8
0
  6
CONTINUOUS
 10
-388.76530029372401
 20
-274.55954469200827
 30
0.0000000000050009
 11
-388.7653002937239
 21
-273.82469776917333
 31
0.0000000000050103
210
0.000000000000008
220
0.8164965809277113
230
0.5773502691896467
  0
POLYLINE
  5
7B6
  8
0
  6
CONTINUOUS
 10
-388.12890419065616
 20
-274.19212123059083
 30
0.000000000005054
 66
     1
 70
     8
  0
VERTEX
  8
0
  5
131C
 10
-388.129
 20
-274.192
 30
5.05399e-012
  70
    32
  0
VERTEX
  8
0
  5
131D
 10
-388.121
 20
-274.188
 30
5.05395e-012
  70
    32
  0
VERTEX
  8
0
  5
131E
 10
-388.114
 20
-274.183
 30
5.05391e-012
  70
    32
  0
VERTEX
  8
0
  5
131F
 10
-388.106
 20
-274.178
 30
5.05388e-012
  70
    32
  0
VERTEX
  8
0
  5
1320
 10
-388.099
 20
-274.173
 30
5.05385e-012
  70
    32
  0
VERTEX
  8
0
  5
1321
 10
-388.092
 20
-274.168
 30
5.05382e-012
  70
    32
  0
VERTEX
  8
0
  5
1322
 10
-388.086
 20
-274.163
 30
5.05380e-012
  70
    32
  0
VERTEX
  8
0
  5
1323
 10
-388.079
 20
-274.158
 30
5.05378e-012
  70
    32
  0
VERTEX
  8
0
  5
1324
 10
-388.073
 20
-274.153
 30
5.05376e-012
  70
    32
  0
VERTEX
  8
0
  5
1325
 10
-388.067
 20
-274.147
 30
5.05375e-012
  70
    32
  0
VERTEX
  8
0
  5
1326
 10
-388.061
 20
-274.142
 30
5.05374e-012
  70
    32
  0
VERTEX
  8
0
  5
1327
 10
-388.056
 20
-274.136
 30
5.05374e-012
  70
    32
  0
VERTEX
  8
0
  5
1328
 10
-388.050
 20
-274.131
 30
5.05374e-012
  70
    32
  0
VERTEX
  8
0
  5
1329
 10
-388.045
 20
-274.125
 30
5.05375e-012
  70
    32
  0
VERTEX
  8
0
  5
132A
 10
-388.040
 20
-274.119
 30
5.05376e-012
  70
    32
  0
VERTEX
  8
0
  5
132B
 10
-388.036
 20
-274.114
 30
5.05377e-012
  70
    32
  0
VERTEX
  8
0
  5
132C
 10
-388.031
 20
-274.108
 30
5.05379e-012
  70
    32
  0
VERTEX
  8
0
  5
132D
 10
-388.027
 20
-274.102
 30
5.05381e-012
  70
    32
  0
VERTEX
  8
0
  5
132E
 10
-388.023
 20
-274.096
 30
5.05383e-012
  70
    32
  0
VERTEX
  8
0
  5
132F
 10
-388.020
 20
-274.090
 30
5.05386e-012
  70
    32
  0
VERTEX
  8
0
  5
1330
 10
-388.016
 20
-274.084
 30
5.05390e-012
  70
    32
  0
VERTEX
  8
0
  5
1331
 10
-388.013
 20
-274.078
 30
5.05393e-012
  70
    32
  0
VERTEX
  8
0
  5
1332
 10
-388.011
 20
-274.072
 30
5.05398e-012
  70
    32
  0
VERTEX
  8
0
  5
1333
 10
-388.008
 20
-274.065
 30
5.05402e-012
  70
    32
  0
VERTEX
  8
0
  5
1334
 10
-388.006
 20
-274.059
 30
5.05407e-012
  70
    32
  0
VERTEX
  8
0
  5
1335
 10
-388.004
 20
-274.053
 30
5.05412e-012
  70
    32
  0
VERTEX
  8
0
  5
1336
 10
-388.002
 20
-274.047
 30
5.05418e-012
  70
    32
  0
VERTEX
  8
0
  5
1337
 10
-388.000
 20
-274.040
 30
5.05424e-012
  70
    32
  0
VERTEX
  8
0
  5
1338
 10
-387.999
 20
-274.034
 30
5.05430e-012
  70
    32
  0
VERTEX
  8
0
  5
1339
 10
-387.998
 20
-274.028
 30
5.05437e-012
  70
    32
  0
VERTEX
  8
0
  5
133A
 10
-387.998
 20
-274.021
 30
5.05445e-012
  70
    32
  0
VERTEX
  8
0
  5
133B
 10
-387.997
 20
-274.015
 30
5.05452e-012
  70
    32
  0
VERTEX
  8
0
  5
133C
 10
-387.997
 20
-274.008
 30
5.05460e-012
  70
    32
  0
VERTEX
  8
0
  5
133D
 10
-387.997
 20
-274.002
 30
5.05468e-012
  70
    32
  0
VERTEX
  8
0
  5
133E
 10
-387.998
 20
-273.996
 30
5.05477e-012
  70
    32
  0
VERTEX
  8
0
  5
133F
 10
-387.998
 20
-273.989
 30
5.05486e-012
  70
    32
  0
VERTEX
  8
0
  5
1340
 10
-387.999
 20
-273.983
 30
5.05495e-012
  70
    32
  0
VERTEX
  8
0
  5
1341
 10
-388.000
 20
-273.977
 30
5.05505e-012
  70
    32
  0
VERTEX
  8
0
  5
1342
 10
-388.002
 20
-273.970
 30
5.05515e-012
  70
    32
  0
VERTEX
  8
0
  5
1343
 10
-388.004
 20
-273.964
 30
5.05525e-012
  70
    32
  0
VERTEX
  8
0
  5
1344
 10
-388.006
 20
-273.958
 30
5.05536e-012
  70
    32
  0
VERTEX
  8
0
  5
1345
 10
-388.008
 20
-273.951
 30
5.05547e-012
  70
    32
  0
VERTEX
  8
0
  5
1346
 10
-388.011
 20
-273.945
 30
5.05558e-012
  70
    32
  0
VERTEX
  8
0
  5
1347
 10
-388.013
 20
-273.939
 30
5.05569e-012
  70
    32
  0
VERTEX
  8
0
  5
1348
 10
-388.016
 20
-273.933
 30
5.05581e-012
  70
    32
  0
VERTEX
  8
0
  5
1349
 10
-388.020
 20
-273.927
 30
5.05593e-012
  70
    32
  0
VERTEX
  8
0
  5
134A
 10
-388.023
 20
-273.921
 30
5.05606e-012
  70
    32
  0
VERTEX
  8
0
  5
134B
 10
-388.027
 20
-273.915
 30
5.05618e-012
  70
    32
  0
VERTEX
  8
0
  5
134C
 10
-388.031
 20
-273.909
 30
5.05631e-012
  70
    32
  0
VERTEX
  8
0
  5
134D
 10
-388.036
 20
-273.903
 30
5.05644e-012
  70
    32
  0
VERTEX
  8
0
  5
134E
 10
-388.040
 20
-273.897
 30
5.05658e-012
  70
    32
  0
VERTEX
  8
0
  5
134F
 10
-388.045
 20
-273.892
 30
5.05671e-012
  70
    32
  0
VERTEX
  8
0
  5
1350
 10
-388.050
 20
-273.886
 30
5.05685e-012
  70
    32
  0
VERTEX
  8
0
  5
1351
 10
-388.056
 20
-273.880
 30
5.05699e-012
  70
    32
  0
VERTEX
  8
0
  5
1352
 10
-388.061
 20
-273.875
 30
5.05714e-012
  70
    32
  0
VERTEX
  8
0
  5
1353
 10
-388.067
 20
-273.869
 30
5.05728e-012
  70
    32
  0
VERTEX
  8
0
  5
1354
 10
-388.073
 20
-273.864
 30
5.05743e-012
  70
    32
  0
VERTEX
  8
0
  5
1355
 10
-388.079
 20
-273.859
 30
5.05758e-012
  70
    32
  0
VERTEX
  8
0
  5
1356
 10
-388.086
 20
-273.854
 30
5.05773e-012
  70
    32
  0
VERTEX
  8
0
  5
1357
 10
-388.092
 20
-273.849
 30
5.05788e-012
  70
    32
  0
VERTEX
  8
0
  5
1358
 10
-388.099
 20
-273.844
 30
5.05803e-012
  70
    32
  0
VERTEX
  8
0
  5
1359
 10
-388.106
 20
-273.839
 30
5.05819e-012
  70
    32
  0
VERTEX
  8
0
  5
135A
 10
-388.114
 20
-273.834
 30
5.05834e-012
  70
    32
  0
VERTEX
  8
0
  5
135B
 10
-388.121
 20
-273.829
 30
5.05850e-012
  70
    32
  0
VERTEX
  8
0
  5
135C
 10
-388.129
 20
-273.825
 30
5.05866e-012
  70
    32
  0
VERTEX
  8
0
  5
135D
 10
-388.137
 20
-273.820
 30
5.05882e-012
  70
    32
  0
VERTEX
  8
0
  5
135E
 10
-388.145
 20
-273.816
 30
5.05898e-012
  70
    32
  0
VERTEX
  8
0
  5
135F
 10
-388.153
 20
-273.812
 30
5.05914e-012
  70
    32
  0
VERTEX
  8
0
  5
1360
 10
-388.162
 20
-273.808
 30
5.05931e-012
  70
    32
  0
VERTEX
  8
0
  5
1361
 10
-388.170
 20
-273.804
 30
5.05947e-012
  70
    32
  0
VERTEX
  8
0
  5
1362
 10
-388.179
 20
-273.800
 30
5.05964e-012
  70
    32
  0
VERTEX
  8
0
  5
1363
 10
-388.188
 20
-273.796
 30
5.05980e-012
  70
    32
  0
VERTEX
  8
0
  5
1364
 10
-388.197
 20
-273.792
 30
5.05997e-012
  70
    32
  0
VERTEX
  8
0
  5
1365
 10
-388.206
 20
-273.789
 30
5.06013e-012
  70
    32
  0
VERTEX
  8
0
  5
1366
 10
-388.216
 20
-273.786
 30
5.06030e-012
  70
    32
  0
VERTEX
  8
0
  5
1367
 10
-388.225
 20
-273.782
 30
5.06046e-012
  70
    32
  0
VERTEX
  8
0
  5
1368
 10
-388.235
 20
-273.779
 30
5.06063e-012
  70
    32
  0
VERTEX
  8
0
  5
1369
 10
-388.245
 20
-273.776
 30
5.06079e-012
  70
    32
  0
VERTEX
  8
0
  5
136A
 10
-388.255
 20
-273.774
 30
5.06096e-012
  70
    32
  0
VERTEX
  8
0
  5
136B
 10
-388.265
 20
-273.771
 30
5.06113e-012
  70
    32
  0
VERTEX
  8
0
  5
136C
 10
-388.275
 20
-273.768
 30
5.06129e-012
  70
    32
  0
VERTEX
  8
0
  5
136D
 10
-388.285
 20
-273.766
 30
5.06146e-012
  70
    32
  0
VERTEX
  8
0
  5
136E
 10
-388.296
 20
-273.764
 30
5.06162e-012
  70
    32
  0
VERTEX
  8
0
  5
136F
 10
-388.306
 20
-273.762
 30
5.06178e-012
  70
    32
  0
VERTEX
  8
0
  5
1370
 10
-388.316
 20
-273.760
 30
5.06194e-012
  70
    32
  0
VERTEX
  8
0
  5
1371
 10
-388.327
 20
-273.758
 30
5.06211e-012
  70
    32
  0
VERTEX
  8
0
  5
1372
 10
-388.338
 20
-273.756
 30
5.06227e-012
  70
    32
  0
VERTEX
  8
0
  5
1373
 10
-388.349
 20
-273.755
 30
5.06243e-012
  70
    32
  0
VERTEX
  8
0
  5
1374
 10
-388.359
 20
-273.754
 30
5.06259e-012
  70
    32
  0
VERTEX
  8
0
  5
1375
 10
-388.370
 20
-273.752
 30
5.06274e-012
  70
    32
  0
VERTEX
  8
0
  5
1376
 10
-388.381
 20
-273.751
 30
5.06290e-012
  70
    32
  0
VERTEX
  8
0
  5
1377
 10
-388.392
 20
-273.751
 30
5.06305e-012
  70
    32
  0
VERTEX
  8
0
  5
1378
 10
-388.403
 20
-273.750
 30
5.06321e-012
  70
    32
  0
VERTEX
  8
0
  5
1379
 10
-388.414
 20
-273.749
 30
5.06336e-012
  70
    32
  0
VERTEX
  8
0
  5
137A
 10
-388.425
 20
-273.749
 30
5.06351e-012
  70
    32
  0
VERTEX
  8
0
  5
137B
 10
-388.436
 20
-273.749
 30
5.06365e-012
  70
    32
  0
VERTEX
  8
0
  5
137C
 10
-388.447
 20
-273.749
 30
5.06380e-012
  70
    32
  0
VERTEX
  8
0
  5
137D
 10
-388.458
 20
-273.749
 30
5.06394e-012
  70
    32
  0
VERTEX
  8
0
  5
137E
 10
-388.469
 20
-273.749
 30
5.06409e-012
  70
    32
  0
VERTEX
  8
0
  5
137F
 10
-388.480
 20
-273.749
 30
5.06422e-012
  70
    32
  0
VERTEX
  8
0
  5
1380
 10
-388.491
 20
-273.750
 30
5.06436e-012
  70
    32
  0
VERTEX
  8
0
  5
1381
 10
-388.502
 20
-273.751
 30
5.06450e-012
  70
    32
  0
VERTEX
  8
0
  5
1382
 10
-388.513
 20
-273.751
 30
5.06463e-012
  70
    32
  0
VERTEX
  8
0
  5
1383
 10
-388.524
 20
-273.752
 30
5.06476e-012
  70
    32
  0
VERTEX
  8
0
  5
1384
 10
-388.535
 20
-273.754
 30
5.06489e-012
  70
    32
  0
VERTEX
  8
0
  5
1385
 10
-388.546
 20
-273.755
 30
5.06501e-012
  70
    32
  0
VERTEX
  8
0
  5
1386
 10
-388.556
 20
-273.756
 30
5.06513e-012
  70
    32
  0
VERTEX
  8
0
  5
1387
 10
-388.567
 20
-273.758
 30
5.06525e-012
  70
    32
  0
VERTEX
  8
0
  5
1388
 10
-388.578
 20
-273.760
 30
5.06537e-012
  70
    32
  0
VERTEX
  8
0
  5
1389
 10
-388.588
 20
-273.762
 30
5.06548e-012
  70
    32
  0
VERTEX
  8
0
  5
138A
 10
-388.599
 20
-273.764
 30
5.06559e-012
  70
    32
  0
VERTEX
  8
0
  5
138B
 10
-388.609
 20
-273.766
 30
5.06570e-012
  70
    32
  0
VERTEX
  8
0
  5
138C
 10
-388.619
 20
-273.768
 30
5.06581e-012
  70
    32
  0
VERTEX
  8
0
  5
138D
 10
-388.629
 20
-273.771
 30
5.06591e-012
  70
    32
  0
VERTEX
  8
0
  5
138E
 10
-388.640
 20
-273.774
 30
5.06601e-012
  70
    32
  0
VERTEX
  8
0
  5
138F
 10
-388.649
 20
-273.776
 30
5.06610e-012
  70
    32
  0
VERTEX
  8
0
  5
1390
 10
-388.659
 20
-273.779
 30
5.06619e-012
  70
    32
  0
VERTEX
  8
0
  5
1391
 10
-388.669
 20
-273.782
 30
5.06628e-012
  70
    32
  0
VERTEX
  8
0
  5
1392
 10
-388.678
 20
-273.786
 30
5.06636e-012
  70
    32
  0
VERTEX
  8
0
  5
1393
 10
-388.688
 20
-273.789
 30
5.06644e-012
  70
    32
  0
VERTEX
  8
0
  5
1394
 10
-388.697
 20
-273.792
 30
5.06652e-012
  70
    32
  0
VERTEX
  8
0
  5
1395
 10
-388.706
 20
-273.796
 30
5.06659e-012
  70
    32
  0
VERTEX
  8
0
  5
1396
 10
-388.715
 20
-273.800
 30
5.06666e-012
  70
    32
  0
VERTEX
  8
0
  5
1397
 10
-388.724
 20
-273.804
 30
5.06673e-012
  70
    32
  0
VERTEX
  8
0
  5
1398
 10
-388.733
 20
-273.808
 30
5.06679e-012
  70
    32
  0
VERTEX
  8
0
  5
1399
 10
-388.741
 20
-273.812
 30
5.06685e-012
  70
    32
  0
VERTEX
  8
0
  5
139A
 10
-388.749
 20
-273.816
 30
5.06691e-012
  70
    32
  0
VERTEX
  8
0
  5
139B
 10
-388.757
 20
-273.820
 30
5.06696e-012
  70
    32
  0
VERTEX
  8
0
  5
139C
 10
-388.765
 20
-273.825
 30
5.06701e-012
  70
    32
  0
SEQEND
  8
0
  5
139D
  0
LINE
  5
7B7
  8
0
  6
CONTINUOUS
 10
-389.54311775302921
 20
-275.0086178115186
 30
0.0000000000050054
 11
-388.1289041906561
 21
-274.19212123059083
 31
0.0000000000049971
210
0.000000000000008
220
0.8164965809277113
230
0.5773502691896467
  0
LINE
  5
7B8
  8
0
  6
CONTINUOUS
 10
-389.15420902337672
 20
-520.18212864958923
 30
0.0000000000019132
 11
-389.54311775302921
 21
-519.95759208983407
 31
0.0000000000018644
210
0.000000000000008
220
0.8164965809277113
230
0.5773502691896467
  0
LINE
  5
7B9
  8
0
  6
CONTINUOUS
 10
-389.54311775302921
 20
-519.95759208983407
 30
0.0000000000018644
 11
-389.54311775302921
 21
-275.0086178115186
 31
0.0000000000050054
210
0.000000000000008
220
0.8164965809277113
230
0.5773502691896467
  0
LINE
  5
7BA
  8
0
  6
CONTINUOUS
 10
-389.15420902337661
 20
-275.23315437127371
 30
0.0000000000049405
 11
-389.54311775302921
 21
-275.0086178115186
 31
0.0000000000050054
210
0.000000000000008
220
0.8164965809277113
230
0.5773502691896467
  0
LINE
  5
7BB
  8
0
  6
CONTINUOUS
 10
-387.73999546100367
 20
-519.3656320686614
 30
0.0000000000020186
 11
-389.15420902337672
 21
-520.18212864958923
 31
0.0000000000019132
210
0.000000000000008
220
0.8164965809277113
230
0.5773502691896467
  0
LINE
  5
7BC
  8
0
  6
CONTINUOUS
 10
-389.15420902337672
 20
-520.18212864958923
 30
0.0000000000019132
 11
-389.15420902337661
 21
-275.23315437127371
 31
0.0000000000049405
210
0.000000000000008
220
0.8164965809277113
230
0.5773502691896467
  0
LINE
  5
7BD
  8
0
  6
CONTINUOUS
 10
-387.7399954610035
 20
-274.41665779034588
 30
0.0000000000050459
 11
-389.15420902337661
 21
-275.23315437127371
 31
0.0000000000049405
210
0.000000000000008
220
0.8164965809277113
230
0.5773502691896467
  0
POLYLINE
  5
7BE
  8
0
  6
CONTINUOUS
 10
-387.73999546100373
 20
-519.36563206866151
 30
0.000000000001905
 66
     1
 70
     8
  0
VERTEX
  8
0
  5
139E
 10
-387.740
 20
-519.366
 30
1.90501e-012
  70
    32
  0
VERTEX
  8
0
  5
139F
 10
-387.736
 20
-519.363
 30
1.90499e-012
  70
    32
  0
VERTEX
  8
0
  5
13A0
 10
-387.731
 20
-519.361
 30
1.90496e-012
  70
    32
  0
VERTEX
  8
0
  5
13A1
 10
-387.727
 20
-519.358
 30
1.90494e-012
  70
    32
  0
VERTEX
  8
0
  5
13A2
 10
-387.723
 20
-519.355
 30
1.90492e-012
  70
    32
  0
VERTEX
  8
0
  5
13A3
 10
-387.719
 20
-519.353
 30
1.90489e-012
  70
    32
  0
VERTEX
  8
0
  5
13A4
 10
-387.714
 20
-519.350
 30
1.90487e-012
  70
    32
  0
VERTEX
  8
0
  5
13A5
 10
-387.710
 20
-519.348
 30
1.90485e-012
  70
    32
  0
VERTEX
  8
0
  5
13A6
 10
-387.706
 20
-519.345
 30
1.90483e-012
  70
    32
  0
VERTEX
  8
0
  5
13A7
 10
-387.702
 20
-519.342
 30
1.90481e-012
  70
    32
  0
VERTEX
  8
0
  5
13A8
 10
-387.698
 20
-519.340
 30
1.90479e-012
  70
    32
  0
VERTEX
  8
0
  5
13A9
 10
-387.694
 20
-519.337
 30
1.90477e-012
  70
    32
  0
VERTEX
  8
0
  5
13AA
 10
-387.690
 20
-519.334
 30
1.90475e-012
  70
    32
  0
VERTEX
  8
0
  5
13AB
 10
-387.686
 20
-519.332
 30
1.90474e-012
  70
    32
  0
VERTEX
  8
0
  5
13AC
 10
-387.682
 20
-519.329
 30
1.90472e-012
  70
    32
  0
VERTEX
  8
0
  5
13AD
 10
-387.678
 20
-519.326
 30
1.90470e-012
  70
    32
  0
VERTEX
  8
0
  5
13AE
 10
-387.674
 20
-519.324
 30
1.90469e-012
  70
    32
  0
VERTEX
  8
0
  5
13AF
 10
-387.670
 20
-519.321
 30
1.90467e-012
  70
    32
  0
VERTEX
  8
0
  5
13B0
 10
-387.666
 20
-519.318
 30
1.90465e-012
  70
    32
  0
VERTEX
  8
0
  5
13B1
 10
-387.663
 20
-519.315
 30
1.90464e-012
  70
    32
  0
VERTEX
  8
0
  5
13B2
 10
-387.659
 20
-519.313
 30
1.90463e-012
  70
    32
  0
VERTEX
  8
0
  5
13B3
 10
-387.655
 20
-519.310
 30
1.90461e-012
  70
    32
  0
VERTEX
  8
0
  5
13B4
 10
-387.651
 20
-519.307
 30
1.90460e-012
  70
    32
  0
VERTEX
  8
0
  5
13B5
 10
-387.648
 20
-519.304
 30
1.90459e-012
  70
    32
  0
VERTEX
  8
0
  5
13B6
 10
-387.644
 20
-519.301
 30
1.90458e-012
  70
    32
  0
VERTEX
  8
0
  5
13B7
 10
-387.640
 20
-519.298
 30
1.90456e-012
  70
    32
  0
VERTEX
  8
0
  5
13B8
 10
-387.637
 20
-519.296
 30
1.90455e-012
  70
    32
  0
VERTEX
  8
0
  5
13B9
 10
-387.633
 20
-519.293
 30
1.90454e-012
  70
    32
  0
VERTEX
  8
0
  5
13BA
 10
-387.630
 20
-519.290
 30
1.90453e-012
  70
    32
  0
VERTEX
  8
0
  5
13BB
 10
-387.626
 20
-519.287
 30
1.90453e-012
  70
    32
  0
VERTEX
  8
0
  5
13BC
 10
-387.623
 20
-519.284
 30
1.90452e-012
  70
    32
  0
VERTEX
  8
0
  5
13BD
 10
-387.619
 20
-519.281
 30
1.90451e-012
  70
    32
  0
VERTEX
  8
0
  5
13BE
 10
-387.616
 20
-519.278
 30
1.90450e-012
  70
    32
  0
VERTEX
  8
0
  5
13BF
 10
-387.612
 20
-519.275
 30
1.90450e-012
  70
    32
  0
VERTEX
  8
0
  5
13C0
 10
-387.609
 20
-519.272
 30
1.90449e-012
  70
    32
  0
VERTEX
  8
0
  5
13C1
 10
-387.606
 20
-519.269
 30
1.90448e-012
  70
    32
  0
VERTEX
  8
0
  5
13C2
 10
-387.602
 20
-519.266
 30
1.90448e-012
  70
    32
  0
VERTEX
  8
0
  5
13C3
 10
-387.599
 20
-519.263
 30
1.90447e-012
  70
    32
  0
VERTEX
  8
0
  5
13C4
 10
-387.596
 20
-519.260
 30
1.90447e-012
  70
    32
  0
VERTEX
  8
0
  5
13C5
 10
-387.593
 20
-519.257
 30
1.90447e-012
  70
    32
  0
VERTEX
  8
0
  5
13C6
 10
-387.589
 20
-519.254
 30
1.90446e-012
  70
    32
  0
VERTEX
  8
0
  5
13C7
 10
-387.586
 20
-519.251
 30
1.90446e-012
  70
    32
  0
VERTEX
  8
0
  5
13C8
 10
-387.583
 20
-519.248
 30
1.90446e-012
  70
    32
  0
VERTEX
  8
0
  5
13C9
 10
-387.580
 20
-519.245
 30
1.90446e-012
  70
    32
  0
VERTEX
  8
0
  5
13CA
 10
-387.577
 20
-519.242
 30
1.90446e-012
  70
    32
  0
VERTEX
  8
0
  5
13CB
 10
-387.574
 20
-519.239
 30
1.90446e-012
  70
    32
  0
VERTEX
  8
0
  5
13CC
 10
-387.571
 20
-519.236
 30
1.90446e-012
  70
    32
  0
VERTEX
  8
0
  5
13CD
 10
-387.568
 20
-519.233
 30
1.90446e-012
  70
    32
  0
VERTEX
  8
0
  5
13CE
 10
-387.565
 20
-519.230
 30
1.90446e-012
  70
    32
  0
VERTEX
  8
0
  5
13CF
 10
-387.562
 20
-519.226
 30
1.90447e-012
  70
    32
  0
VERTEX
  8
0
  5
13D0
 10
-387.559
 20
-519.223
 30
1.90447e-012
  70
    32
  0
VERTEX
  8
0
  5
13D1
 10
-387.557
 20
-519.220
 30
1.90447e-012
  70
    32
  0
VERTEX
  8
0
  5
13D2
 10
-387.554
 20
-519.217
 30
1.90448e-012
  70
    32
  0
VERTEX
  8
0
  5
13D3
 10
-387.551
 20
-519.214
 30
1.90448e-012
  70
    32
  0
VERTEX
  8
0
  5
13D4
 10
-387.548
 20
-519.211
 30
1.90449e-012
  70
    32
  0
VERTEX
  8
0
  5
13D5
 10
-387.546
 20
-519.207
 30
1.90449e-012
  70
    32
  0
VERTEX
  8
0
  5
13D6
 10
-387.543
 20
-519.204
 30
1.90450e-012
  70
    32
  0
VERTEX
  8
0
  5
13D7
 10
-387.541
 20
-519.201
 30
1.90450e-012
  70
    32
  0
VERTEX
  8
0
  5
13D8
 10
-387.538
 20
-519.198
 30
1.90451e-012
  70
    32
  0
VERTEX
  8
0
  5
13D9
 10
-387.535
 20
-519.195
 30
1.90452e-012
  70
    32
  0
VERTEX
  8
0
  5
13DA
 10
-387.533
 20
-519.191
 30
1.90453e-012
  70
    32
  0
VERTEX
  8
0
  5
13DB
 10
-387.530
 20
-519.188
 30
1.90454e-012
  70
    32
  0
VERTEX
  8
0
  5
13DC
 10
-387.528
 20
-519.185
 30
1.90455e-012
  70
    32
  0
VERTEX
  8
0
  5
13DD
 10
-387.526
 20
-519.182
 30
1.90456e-012
  70
    32
  0
VERTEX
  8
0
  5
13DE
 10
-387.523
 20
-519.178
 30
1.90457e-012
  70
    32
  0
VERTEX
  8
0
  5
13DF
 10
-387.521
 20
-519.175
 30
1.90458e-012
  70
    32
  0
VERTEX
  8
0
  5
13E0
 10
-387.519
 20
-519.172
 30
1.90459e-012
  70
    32
  0
VERTEX
  8
0
  5
13E1
 10
-387.516
 20
-519.168
 30
1.90461e-012
  70
    32
  0
VERTEX
  8
0
  5
13E2
 10
-387.514
 20
-519.165
 30
1.90462e-012
  70
    32
  0
VERTEX
  8
0
  5
13E3
 10
-387.512
 20
-519.162
 30
1.90463e-012
  70
    32
  0
VERTEX
  8
0
  5
13E4
 10
-387.510
 20
-519.159
 30
1.90465e-012
  70
    32
  0
VERTEX
  8
0
  5
13E5
 10
-387.508
 20
-519.155
 30
1.90466e-012
  70
    32
  0
VERTEX
  8
0
  5
13E6
 10
-387.506
 20
-519.152
 30
1.90468e-012
  70
    32
  0
VERTEX
  8
0
  5
13E7
 10
-387.504
 20
-519.149
 30
1.90469e-012
  70
    32
  0
VERTEX
  8
0
  5
13E8
 10
-387.501
 20
-519.145
 30
1.90471e-012
  70
    32
  0
VERTEX
  8
0
  5
13E9
 10
-387.500
 20
-519.142
 30
1.90473e-012
  70
    32
  0
VERTEX
  8
0
  5
13EA
 10
-387.498
 20
-519.138
 30
1.90474e-012
  70
    32
  0
VERTEX
  8
0
  5
13EB
 10
-387.496
 20
-519.135
 30
1.90476e-012
  70
    32
  0
VERTEX
  8
0
  5
13EC
 10
-387.494
 20
-519.132
 30
1.90478e-012
  70
    32
  0
VERTEX
  8
0
  5
13ED
 10
-387.492
 20
-519.128
 30
1.90480e-012
  70
    32
  0
VERTEX
  8
0
  5
13EE
 10
-387.490
 20
-519.125
 30
1.90482e-012
  70
    32
  0
VERTEX
  8
0
  5
13EF
 10
-387.488
 20
-519.122
 30
1.90484e-012
  70
    32
  0
VERTEX
  8
0
  5
13F0
 10
-387.487
 20
-519.118
 30
1.90486e-012
  70
    32
  0
VERTEX
  8
0
  5
13F1
 10
-387.485
 20
-519.115
 30
1.90488e-012
  70
    32
  0
VERTEX
  8
0
  5
13F2
 10
-387.483
 20
-519.111
 30
1.90490e-012
  70
    32
  0
VERTEX
  8
0
  5
13F3
 10
-387.482
 20
-519.108
 30
1.90493e-012
  70
    32
  0
VERTEX
  8
0
  5
13F4
 10
-387.480
 20
-519.105
 30
1.90495e-012
  70
    32
  0
VERTEX
  8
0
  5
13F5
 10
-387.479
 20
-519.101
 30
1.90497e-012
  70
    32
  0
VERTEX
  8
0
  5
13F6
 10
-387.477
 20
-519.098
 30
1.90500e-012
  70
    32
  0
VERTEX
  8
0
  5
13F7
 10
-387.476
 20
-519.094
 30
1.90502e-012
  70
    32
  0
VERTEX
  8
0
  5
13F8
 10
-387.474
 20
-519.091
 30
1.90505e-012
  70
    32
  0
VERTEX
  8
0
  5
13F9
 10
-387.473
 20
-519.087
 30
1.90507e-012
  70
    32
  0
VERTEX
  8
0
  5
13FA
 10
-387.471
 20
-519.084
 30
1.90510e-012
  70
    32
  0
VERTEX
  8
0
  5
13FB
 10
-387.470
 20
-519.080
 30
1.90513e-012
  70
    32
  0
VERTEX
  8
0
  5
13FC
 10
-387.469
 20
-519.077
 30
1.90515e-012
  70
    32
  0
VERTEX
  8
0
  5
13FD
 10
-387.468
 20
-519.073
 30
1.90518e-012
  70
    32
  0
VERTEX
  8
0
  5
13FE
 10
-387.466
 20
-519.070
 30
1.90521e-012
  70
    32
  0
VERTEX
  8
0
  5
13FF
 10
-387.465
 20
-519.067
 30
1.90524e-012
  70
    32
  0
VERTEX
  8
0
  5
1400
 10
-387.464
 20
-519.063
 30
1.90527e-012
  70
    32
  0
VERTEX
  8
0
  5
1401
 10
-387.463
 20
-519.060
 30
1.90530e-012
  70
    32
  0
VERTEX
  8
0
  5
1402
 10
-387.462
 20
-519.056
 30
1.90533e-012
  70
    32
  0
VERTEX
  8
0
  5
1403
 10
-387.461
 20
-519.053
 30
1.90536e-012
  70
    32
  0
VERTEX
  8
0
  5
1404
 10
-387.460
 20
-519.049
 30
1.90539e-012
  70
    32
  0
VERTEX
  8
0
  5
1405
 10
-387.459
 20
-519.046
 30
1.90542e-012
  70
    32
  0
VERTEX
  8
0
  5
1406
 10
-387.458
 20
-519.042
 30
1.90546e-012
  70
    32
  0
VERTEX
  8
0
  5
1407
 10
-387.457
 20
-519.039
 30
1.90549e-012
  70
    32
  0
VERTEX
  8
0
  5
1408
 10
-387.456
 20
-519.035
 30
1.90552e-012
  70
    32
  0
VERTEX
  8
0
  5
1409
 10
-387.455
 20
-519.032
 30
1.90556e-012
  70
    32
  0
VERTEX
  8
0
  5
140A
 10
-387.455
 20
-519.028
 30
1.90559e-012
  70
    32
  0
VERTEX
  8
0
  5
140B
 10
-387.454
 20
-519.025
 30
1.90563e-012
  70
    32
  0
VERTEX
  8
0
  5
140C
 10
-387.453
 20
-519.021
 30
1.90567e-012
  70
    32
  0
VERTEX
  8
0
  5
140D
 10
-387.453
 20
-519.017
 30
1.90570e-012
  70
    32
  0
VERTEX
  8
0
  5
140E
 10
-387.452
 20
-519.014
 30
1.90574e-012
  70
    32
  0
VERTEX
  8
0
  5
140F
 10
-387.451
 20
-519.010
 30
1.90578e-012
  70
    32
  0
VERTEX
  8
0
  5
1410
 10
-387.451
 20
-519.007
 30
1.90581e-012
  70
    32
  0
VERTEX
  8
0
  5
1411
 10
-387.450
 20
-519.003
 30
1.90585e-012
  70
    32
  0
VERTEX
  8
0
  5
1412
 10
-387.450
 20
-519.000
 30
1.90589e-012
  70
    32
  0
VERTEX
  8
0
  5
1413
 10
-387.449
 20
-518.996
 30
1.90593e-012
  70
    32
  0
VERTEX
  8
0
  5
1414
 10
-387.449
 20
-518.993
 30
1.90597e-012
  70
    32
  0
VERTEX
  8
0
  5
1415
 10
-387.449
 20
-518.989
 30
1.90601e-012
  70
    32
  0
VERTEX
  8
0
  5
1416
 10
-387.448
 20
-518.986
 30
1.90605e-012
  70
    32
  0
VERTEX
  8
0
  5
1417
 10
-387.448
 20
-518.982
 30
1.90609e-012
  70
    32
  0
VERTEX
  8
0
  5
1418
 10
-387.448
 20
-518.979
 30
1.90614e-012
  70
    32
  0
VERTEX
  8
0
  5
1419
 10
-387.448
 20
-518.975
 30
1.90618e-012
  70
    32
  0
VERTEX
  8
0
  5
141A
 10
-387.447
 20
-518.972
 30
1.90622e-012
  70
    32
  0
VERTEX
  8
0
  5
141B
 10
-387.447
 20
-518.968
 30
1.90627e-012
  70
    32
  0
VERTEX
  8
0
  5
141C
 10
-387.447
 20
-518.964
 30
1.90631e-012
  70
    32
  0
VERTEX
  8
0
  5
141D
 10
-387.447
 20
-518.961
 30
1.90635e-012
  70
    32
  0
VERTEX
  8
0
  5
141E
 10
-387.447
 20
-518.957
 30
1.90640e-012
  70
    32
  0
SEQEND
  8
0
  5
141F
  0
LINE
  5
7BF
  8
0
  6
CONTINUOUS
 10
-387.73999546100367
 20
-519.3656320686614
 30
0.0000000000020186
 11
-387.7399954610035
 21
-274.41665779034588
 31
0.0000000000050459
210
0.000000000000008
220
0.8164965809277113
230
0.5773502691896467
  0
POLYLINE
  5
7C0
  8
0
  6
CONTINUOUS
 10
-387.73999546100356
 20
-274.41665779034588
 30
0.0000000000049892
 66
     1
 70
     8
  0
VERTEX
  8
0
  5
1420
 10
-387.740
 20
-274.417
 30
4.98921e-012
  70
    32
  0
VERTEX
  8
0
  5
1421
 10
-387.723
 20
-274.407
 30
4.98912e-012
  70
    32
  0
VERTEX
  8
0
  5
1422
 10
-387.706
 20
-274.396
 30
4.98903e-012
  70
    32
  0
VERTEX
  8
0
  5
1423
 10
-387.690
 20
-274.386
 30
4.98895e-012
  70
    32
  0
VERTEX
  8
0
  5
1424
 10
-387.674
 20
-274.375
 30
4.98889e-012
  70
    32
  0
VERTEX
  8
0
  5
1425
 10
-387.659
 20
-274.364
 30
4.98883e-012
  70
    32
  0
VERTEX
  8
0
  5
1426
 10
-387.644
 20
-274.352
 30
4.98878e-012
  70
    32
  0
VERTEX
  8
0
  5
1427
 10
-387.630
 20
-274.341
 30
4.98873e-012
  70
    32
  0
VERTEX
  8
0
  5
1428
 10
-387.616
 20
-274.329
 30
4.98870e-012
  70
    32
  0
VERTEX
  8
0
  5
1429
 10
-387.602
 20
-274.317
 30
4.98868e-012
  70
    32
  0
VERTEX
  8
0
  5
142A
 10
-387.589
 20
-274.305
 30
4.98866e-012
  70
    32
  0
VERTEX
  8
0
  5
142B
 10
-387.577
 20
-274.293
 30
4.98866e-012
  70
    32
  0
VERTEX
  8
0
  5
142C
 10
-387.565
 20
-274.281
 30
4.98866e-012
  70
    32
  0
VERTEX
  8
0
  5
142D
 10
-387.554
 20
-274.268
 30
4.98868e-012
  70
    32
  0
VERTEX
  8
0
  5
142E
 10
-387.543
 20
-274.255
 30
4.98870e-012
  70
    32
  0
VERTEX
  8
0
  5
142F
 10
-387.533
 20
-274.242
 30
4.98873e-012
  70
    32
  0
VERTEX
  8
0
  5
1430
 10
-387.523
 20
-274.229
 30
4.98877e-012
  70
    32
  0
VERTEX
  8
0
  5
1431
 10
-387.514
 20
-274.216
 30
4.98882e-012
  70
    32
  0
VERTEX
  8
0
  5
1432
 10
-387.506
 20
-274.203
 30
4.98888e-012
  70
    32
  0
VERTEX
  8
0
  5
1433
 10
-387.498
 20
-274.190
 30
4.98894e-012
  70
    32
  0
VERTEX
  8
0
  5
1434
 10
-387.490
 20
-274.176
 30
4.98902e-012
  70
    32
  0
VERTEX
  8
0
  5
1435
 10
-387.483
 20
-274.162
 30
4.98910e-012
  70
    32
  0
VERTEX
  8
0
  5
1436
 10
-387.477
 20
-274.149
 30
4.98920e-012
  70
    32
  0
VERTEX
  8
0
  5
1437
 10
-387.471
 20
-274.135
 30
4.98930e-012
  70
    32
  0
VERTEX
  8
0
  5
1438
 10
-387.466
 20
-274.121
 30
4.98941e-012
  70
    32
  0
VERTEX
  8
0
  5
1439
 10
-387.462
 20
-274.107
 30
4.98953e-012
  70
    32
  0
VERTEX
  8
0
  5
143A
 10
-387.458
 20
-274.093
 30
4.98966e-012
  70
    32
  0
VERTEX
  8
0
  5
143B
 10
-387.455
 20
-274.079
 30
4.98979e-012
  70
    32
  0
VERTEX
  8
0
  5
143C
 10
-387.452
 20
-274.065
 30
4.98994e-012
  70
    32
  0
VERTEX
  8
0
  5
143D
 10
-387.450
 20
-274.051
 30
4.99009e-012
  70
    32
  0
VERTEX
  8
0
  5
143E
 10
-387.448
 20
-274.037
 30
4.99025e-012
  70
    32
  0
VERTEX
  8
0
  5
143F
 10
-387.447
 20
-274.023
 30
4.99042e-012
  70
    32
  0
VERTEX
  8
0
  5
1440
 10
-387.447
 20
-274.008
 30
4.99060e-012
  70
    32
  0
VERTEX
  8
0
  5
1441
 10
-387.447
 20
-273.994
 30
4.99079e-012
  70
    32
  0
VERTEX
  8
0
  5
1442
 10
-387.448
 20
-273.980
 30
4.99098e-012
  70
    32
  0
VERTEX
  8
0
  5
1443
 10
-387.450
 20
-273.966
 30
4.99118e-012
  70
    32
  0
VERTEX
  8
0
  5
1444
 10
-387.452
 20
-273.952
 30
4.99139e-012
  70
    32
  0
VERTEX
  8
0
  5
1445
 10
-387.455
 20
-273.938
 30
4.99160e-012
  70
    32
  0
VERTEX
  8
0
  5
1446
 10
-387.458
 20
-273.924
 30
4.99183e-012
  70
    32
  0
VERTEX
  8
0
  5
1447
 10
-387.462
 20
-273.910
 30
4.99206e-012
  70
    32
  0
VERTEX
  8
0
  5
1448
 10
-387.466
 20
-273.896
 30
4.99229e-012
  70
    32
  0
VERTEX
  8
0
  5
1449
 10
-387.471
 20
-273.882
 30
4.99254e-012
  70
    32
  0
VERTEX
  8
0
  5
144A
 10
-387.477
 20
-273.868
 30
4.99279e-012
  70
    32
  0
VERTEX
  8
0
  5
144B
 10
-387.483
 20
-273.854
 30
4.99305e-012
  70
    32
  0
VERTEX
  8
0
  5
144C
 10
-387.490
 20
-273.841
 30
4.99331e-012
  70
    32
  0
VERTEX
  8
0
  5
144D
 10
-387.498
 20
-273.827
 30
4.99358e-012
  70
    32
  0
VERTEX
  8
0
  5
144E
 10
-387.506
 20
-273.814
 30
4.99386e-012
  70
    32
  0
VERTEX
  8
0
  5
144F
 10
-387.514
 20
-273.801
 30
4.99414e-012
  70
    32
  0
VERTEX
  8
0
  5
1450
 10
-387.523
 20
-273.787
 30
4.99443e-012
  70
    32
  0
VERTEX
  8
0
  5
1451
 10
-387.533
 20
-273.774
 30
4.99472e-012
  70
    32
  0
VERTEX
  8
0
  5
1452
 10
-387.543
 20
-273.762
 30
4.99502e-012
  70
    32
  0
VERTEX
  8
0
  5
1453
 10
-387.554
 20
-273.749
 30
4.99532e-012
  70
    32
  0
VERTEX
  8
0
  5
1454
 10
-387.565
 20
-273.736
 30
4.99563e-012
  70
    32
  0
VERTEX
  8
0
  5
1455
 10
-387.577
 20
-273.724
 30
4.99594e-012
  70
    32
  0
VERTEX
  8
0
  5
1456
 10
-387.589
 20
-273.712
 30
4.99626e-012
  70
    32
  0
VERTEX
  8
0
  5
1457
 10
-387.602
 20
-273.700
 30
4.99659e-012
  70
    32
  0
VERTEX
  8
0
  5
1458
 10
-387.616
 20
-273.688
 30
4.99691e-012
  70
    32
  0
VERTEX
  8
0
  5
1459
 10
-387.630
 20
-273.676
 30
4.99724e-012
  70
    32
  0
VERTEX
  8
0
  5
145A
 10
-387.644
 20
-273.664
 30
4.99758e-012
  70
    32
  0
VERTEX
  8
0
  5
145B
 10
-387.659
 20
-273.653
 30
4.99792e-012
  70
    32
  0
VERTEX
  8
0
  5
145C
 10
-387.674
 20
-273.642
 30
4.99826e-012
  70
    32
  0
VERTEX
  8
0
  5
145D
 10
-387.690
 20
-273.631
 30
4.99861e-012
  70
    32
  0
VERTEX
  8
0
  5
145E
 10
-387.706
 20
-273.621
 30
4.99896e-012
  70
    32
  0
VERTEX
  8
0
  5
145F
 10
-387.723
 20
-273.610
 30
4.99931e-012
  70
    32
  0
VERTEX
  8
0
  5
1460
 10
-387.740
 20
-273.600
 30
4.99966e-012
  70
    32
  0
VERTEX
  8
0
  5
1461
 10
-387.758
 20
-273.590
 30
5.00002e-012
  70
    32
  0
VERTEX
  8
0
  5
1462
 10
-387.776
 20
-273.581
 30
5.00038e-012
  70
    32
  0
VERTEX
  8
0
  5
1463
 10
-387.794
 20
-273.571
 30
5.00074e-012
  70
    32
  0
VERTEX
  8
0
  5
1464
 10
-387.813
 20
-273.562
 30
5.00110e-012
  70
    32
  0
VERTEX
  8
0
  5
1465
 10
-387.832
 20
-273.553
 30
5.00147e-012
  70
    32
  0
VERTEX
  8
0
  5
1466
 10
-387.851
 20
-273.545
 30
5.00183e-012
  70
    32
  0
VERTEX
  8
0
  5
1467
 10
-387.871
 20
-273.536
 30
5.00220e-012
  70
    32
  0
VERTEX
  8
0
  5
1468
 10
-387.892
 20
-273.528
 30
5.00257e-012
  70
    32
  0
VERTEX
  8
0
  5
1469
 10
-387.912
 20
-273.521
 30
5.00294e-012
  70
    32
  0
VERTEX
  8
0
  5
146A
 10
-387.933
 20
-273.513
 30
5.00330e-012
  70
    32
  0
VERTEX
  8
0
  5
146B
 10
-387.954
 20
-273.506
 30
5.00367e-012
  70
    32
  0
VERTEX
  8
0
  5
146C
 10
-387.976
 20
-273.499
 30
5.00404e-012
  70
    32
  0
VERTEX
  8
0
  5
146D
 10
-387.997
 20
-273.493
 30
5.00441e-012
  70
    32
  0
VERTEX
  8
0
  5
146E
 10
-388.020
 20
-273.486
 30
5.00478e-012
  70
    32
  0
VERTEX
  8
0
  5
146F
 10
-388.042
 20
-273.481
 30
5.00515e-012
  70
    32
  0
VERTEX
  8
0
  5
1470
 10
-388.064
 20
-273.475
 30
5.00551e-012
  70
    32
  0
VERTEX
  8
0
  5
1471
 10
-388.087
 20
-273.470
 30
5.00588e-012
  70
    32
  0
VERTEX
  8
0
  5
1472
 10
-388.110
 20
-273.465
 30
5.00624e-012
  70
    32
  0
VERTEX
  8
0
  5
1473
 10
-388.133
 20
-273.460
 30
5.00661e-012
  70
    32
  0
VERTEX
  8
0
  5
1474
 10
-388.157
 20
-273.456
 30
5.00697e-012
  70
    32
  0
VERTEX
  8
0
  5
1475
 10
-388.180
 20
-273.452
 30
5.00733e-012
  70
    32
  0
VERTEX
  8
0
  5
1476
 10
-388.204
 20
-273.448
 30
5.00769e-012
  70
    32
  0
VERTEX
  8
0
  5
1477
 10
-388.228
 20
-273.445
 30
5.00804e-012
  70
    32
  0
VERTEX
  8
0
  5
1478
 10
-388.252
 20
-273.442
 30
5.00839e-012
  70
    32
  0
VERTEX
  8
0
  5
1479
 10
-388.276
 20
-273.440
 30
5.00874e-012
  70
    32
  0
VERTEX
  8
0
  5
147A
 10
-388.300
 20
-273.437
 30
5.00909e-012
  70
    32
  0
VERTEX
  8
0
  5
147B
 10
-388.325
 20
-273.435
 30
5.00943e-012
  70
    32
  0
VERTEX
  8
0
  5
147C
 10
-388.349
 20
-273.434
 30
5.00977e-012
  70
    32
  0
VERTEX
  8
0
  5
147D
 10
-388.374
 20
-273.433
 30
5.01011e-012
  70
    32
  0
VERTEX
  8
0
  5
147E
 10
-388.398
 20
-273.432
 30
5.01044e-012
  70
    32
  0
VERTEX
  8
0
  5
147F
 10
-388.423
 20
-273.431
 30
5.01077e-012
  70
    32
  0
VERTEX
  8
0
  5
1480
 10
-388.447
 20
-273.431
 30
5.01109e-012
  70
    32
  0
VERTEX
  8
0
  5
1481
 10
-388.472
 20
-273.431
 30
5.01141e-012
  70
    32
  0
VERTEX
  8
0
  5
1482
 10
-388.496
 20
-273.432
 30
5.01172e-012
  70
    32
  0
VERTEX
  8
0
  5
1483
 10
-388.521
 20
-273.433
 30
5.01203e-012
  70
    32
  0
VERTEX
  8
0
  5
1484
 10
-388.545
 20
-273.434
 30
5.01234e-012
  70
    32
  0
VERTEX
  8
0
  5
1485
 10
-388.570
 20
-273.435
 30
5.01264e-012
  70
    32
  0
VERTEX
  8
0
  5
1486
 10
-388.594
 20
-273.437
 30
5.01293e-012
  70
    32
  0
VERTEX
  8
0
  5
1487
 10
-388.618
 20
-273.440
 30
5.01322e-012
  70
    32
  0
VERTEX
  8
0
  5
1488
 10
-388.642
 20
-273.442
 30
5.01350e-012
  70
    32
  0
VERTEX
  8
0
  5
1489
 10
-388.666
 20
-273.445
 30
5.01378e-012
  70
    32
  0
VERTEX
  8
0
  5
148A
 10
-388.690
 20
-273.448
 30
5.01405e-012
  70
    32
  0
VERTEX
  8
0
  5
148B
 10
-388.714
 20
-273.452
 30
5.01432e-012
  70
    32
  0
VERTEX
  8
0
  5
148C
 10
-388.737
 20
-273.456
 30
5.01457e-012
  70
    32
  0
VERTEX
  8
0
  5
148D
 10
-388.761
 20
-273.460
 30
5.01483e-012
  70
    32
  0
VERTEX
  8
0
  5
148E
 10
-388.784
 20
-273.465
 30
5.01507e-012
  70
    32
  0
VERTEX
  8
0
  5
148F
 10
-388.807
 20
-273.470
 30
5.01531e-012
  70
    32
  0
VERTEX
  8
0
  5
1490
 10
-388.830
 20
-273.475
 30
5.01554e-012
  70
    32
  0
VERTEX
  8
0
  5
1491
 10
-388.852
 20
-273.481
 30
5.01576e-012
  70
    32
  0
VERTEX
  8
0
  5
1492
 10
-388.875
 20
-273.486
 30
5.01598e-012
  70
    32
  0
VERTEX
  8
0
  5
1493
 10
-388.897
 20
-273.493
 30
5.01619e-012
  70
    32
  0
VERTEX
  8
0
  5
1494
 10
-388.918
 20
-273.499
 30
5.01639e-012
  70
    32
  0
VERTEX
  8
0
  5
1495
 10
-388.940
 20
-273.506
 30
5.01659e-012
  70
    32
  0
VERTEX
  8
0
  5
1496
 10
-388.961
 20
-273.513
 30
5.01677e-012
  70
    32
  0
VERTEX
  8
0
  5
1497
 10
-388.982
 20
-273.521
 30
5.01695e-012
  70
    32
  0
VERTEX
  8
0
  5
1498
 10
-389.003
 20
-273.528
 30
5.01712e-012
  70
    32
  0
VERTEX
  8
0
  5
1499
 10
-389.023
 20
-273.536
 30
5.01729e-012
  70
    32
  0
VERTEX
  8
0
  5
149A
 10
-389.043
 20
-273.545
 30
5.01744e-012
  70
    32
  0
VERTEX
  8
0
  5
149B
 10
-389.062
 20
-273.553
 30
5.01759e-012
  70
    32
  0
VERTEX
  8
0
  5
149C
 10
-389.081
 20
-273.562
 30
5.01772e-012
  70
    32
  0
VERTEX
  8
0
  5
149D
 10
-389.100
 20
-273.571
 30
5.01785e-012
  70
    32
  0
VERTEX
  8
0
  5
149E
 10
-389.119
 20
-273.581
 30
5.01797e-012
  70
    32
  0
VERTEX
  8
0
  5
149F
 10
-389.137
 20
-273.590
 30
5.01809e-012
  70
    32
  0
VERTEX
  8
0
  5
14A0
 10
-389.154
 20
-273.600
 30
5.01819e-012
  70
    32
  0
SEQEND
  8
0
  5
14A1
  0
LINE
  5
7C1
  8
0
  6
CONTINUOUS
 10
-394.65431624949917
 20
-276.77564959699191
 30
0.0000000000049369
 11
-389.15420902337672
 21
-273.6001612094181
 31
0.0000000000050183
210
0.000000000000008
220
0.8164965809277113
230
0.5773502691896467
  0
POLYLINE
  5
7C2
  8
0
  6
CONTINUOUS
 10
-395.47065525795358
 20
-276.75094910068566
 30
0.0000000000050618
 66
     1
 70
     8
  0
VERTEX
  8
0
  5
14A2
 10
-395.471
 20
-276.751
 30
5.06184e-012
  70
    32
  0
VERTEX
  8
0
  5
14A3
 10
-395.466
 20
-276.754
 30
5.06173e-012
  70
    32
  0
VERTEX
  8
0
  5
14A4
 10
-395.461
 20
-276.757
 30
5.06163e-012
  70
    32
  0
VERTEX
  8
0
  5
14A5
 10
-395.457
 20
-276.760
 30
5.06153e-012
  70
    32
  0
VERTEX
  8
0
  5
14A6
 10
-395.452
 20
-276.764
 30
5.06143e-012
  70
    32
  0
VERTEX
  8
0
  5
14A7
 10
-395.447
 20
-276.767
 30
5.06132e-012
  70
    32
  0
VERTEX
  8
0
  5
14A8
 10
-395.442
 20
-276.770
 30
5.06122e-012
  70
    32
  0
VERTEX
  8
0
  5
14A9
 10
-395.437
 20
-276.773
 30
5.06111e-012
  70
    32
  0
VERTEX
  8
0
  5
14AA
 10
-395.432
 20
-276.776
 30
5.06101e-012
  70
    32
  0
VERTEX
  8
0
  5
14AB
 10
-395.427
 20
-276.779
 30
5.06091e-012
  70
    32
  0
VERTEX
  8
0
  5
14AC
 10
-395.422
 20
-276.781
 30
5.06080e-012
  70
    32
  0
VERTEX
  8
0
  5
14AD
 10
-395.417
 20
-276.784
 30
5.06069e-012
  70
    32
  0
VERTEX
  8
0
  5
14AE
 10
-395.411
 20
-276.787
 30
5.06059e-012
  70
    32
  0
VERTEX
  8
0
  5
14AF
 10
-395.406
 20
-276.790
 30
5.06048e-012
  70
    32
  0
VERTEX
  8
0
  5
14B0
 10
-395.400
 20
-276.793
 30
5.06037e-012
  70
    32
  0
VERTEX
  8
0
  5
14B1
 10
-395.395
 20
-276.795
 30
5.06027e-012
  70
    32
  0
VERTEX
  8
0
  5
14B2
 10
-395.389
 20
-276.798
 30
5.06016e-012
  70
    32
  0
VERTEX
  8
0
  5
14B3
 10
-395.384
 20
-276.800
 30
5.06005e-012
  70
    32
  0
VERTEX
  8
0
  5
14B4
 10
-395.378
 20
-276.803
 30
5.05994e-012
  70
    32
  0
VERTEX
  8
0
  5
14B5
 10
-395.372
 20
-276.806
 30
5.05984e-012
  70
    32
  0
VERTEX
  8
0
  5
14B6
 10
-395.367
 20
-276.808
 30
5.05973e-012
  70
    32
  0
VERTEX
  8
0
  5
14B7
 10
-395.361
 20
-276.810
 30
5.05962e-012
  70
    32
  0
VERTEX
  8
0
  5
14B8
 10
-395.355
 20
-276.813
 30
5.05951e-012
  70
    32
  0
VERTEX
  8
0
  5
14B9
 10
-395.349
 20
-276.815
 30
5.05940e-012
  70
    32
  0
VERTEX
  8
0
  5
14BA
 10
-395.343
 20
-276.817
 30
5.05929e-012
  70
    32
  0
VERTEX
  8
0
  5
14BB
 10
-395.337
 20
-276.820
 30
5.05918e-012
  70
    32
  0
VERTEX
  8
0
  5
14BC
 10
-395.331
 20
-276.822
 30
5.05908e-012
  70
    32
  0
VERTEX
  8
0
  5
14BD
 10
-395.324
 20
-276.824
 30
5.05897e-012
  70
    32
  0
VERTEX
  8
0
  5
14BE
 10
-395.318
 20
-276.826
 30
5.05886e-012
  70
    32
  0
VERTEX
  8
0
  5
14BF
 10
-395.312
 20
-276.828
 30
5.05875e-012
  70
    32
  0
VERTEX
  8
0
  5
14C0
 10
-395.306
 20
-276.830
 30
5.05864e-012
  70
    32
  0
VERTEX
  8
0
  5
14C1
 10
-395.299
 20
-276.832
 30
5.05853e-012
  70
    32
  0
VERTEX
  8
0
  5
14C2
 10
-395.293
 20
-276.834
 30
5.05842e-012
  70
    32
  0
VERTEX
  8
0
  5
14C3
 10
-395.286
 20
-276.836
 30
5.05831e-012
  70
    32
  0
VERTEX
  8
0
  5
14C4
 10
-395.280
 20
-276.838
 30
5.05820e-012
  70
    32
  0
VERTEX
  8
0
  5
14C5
 10
-395.273
 20
-276.839
 30
5.05809e-012
  70
    32
  0
VERTEX
  8
0
  5
14C6
 10
-395.267
 20
-276.841
 30
5.05799e-012
  70
    32
  0
VERTEX
  8
0
  5
14C7
 10
-395.260
 20
-276.843
 30
5.05788e-012
  70
    32
  0
VERTEX
  8
0
  5
14C8
 10
-395.254
 20
-276.844
 30
5.05777e-012
  70
    32
  0
VERTEX
  8
0
  5
14C9
 10
-395.247
 20
-276.846
 30
5.05766e-012
  70
    32
  0
VERTEX
  8
0
  5
14CA
 10
-395.240
 20
-276.848
 30
5.05755e-012
  70
    32
  0
VERTEX
  8
0
  5
14CB
 10
-395.234
 20
-276.849
 30
5.05744e-012
  70
    32
  0
VERTEX
  8
0
  5
14CC
 10
-395.227
 20
-276.850
 30
5.05734e-012
  70
    32
  0
VERTEX
  8
0
  5
14CD
 10
-395.220
 20
-276.852
 30
5.05723e-012
  70
    32
  0
VERTEX
  8
0
  5
14CE
 10
-395.213
 20
-276.853
 30
5.05712e-012
  70
    32
  0
VERTEX
  8
0
  5
14CF
 10
-395.206
 20
-276.854
 30
5.05701e-012
  70
    32
  0
VERTEX
  8
0
  5
14D0
 10
-395.199
 20
-276.856
 30
5.05691e-012
  70
    32
  0
VERTEX
  8
0
  5
14D1
 10
-395.193
 20
-276.857
 30
5.05680e-012
  70
    32
  0
VERTEX
  8
0
  5
14D2
 10
-395.186
 20
-276.858
 30
5.05669e-012
  70
    32
  0
VERTEX
  8
0
  5
14D3
 10
-395.179
 20
-276.859
 30
5.05659e-012
  70
    32
  0
VERTEX
  8
0
  5
14D4
 10
-395.172
 20
-276.860
 30
5.05648e-012
  70
    32
  0
VERTEX
  8
0
  5
14D5
 10
-395.165
 20
-276.861
 30
5.05638e-012
  70
    32
  0
VERTEX
  8
0
  5
14D6
 10
-395.158
 20
-276.862
 30
5.05627e-012
  70
    32
  0
VERTEX
  8
0
  5
14D7
 10
-395.151
 20
-276.863
 30
5.05617e-012
  70
    32
  0
VERTEX
  8
0
  5
14D8
 10
-395.143
 20
-276.863
 30
5.05607e-012
  70
    32
  0
VERTEX
  8
0
  5
14D9
 10
-395.136
 20
-276.864
 30
5.05596e-012
  70
    32
  0
VERTEX
  8
0
  5
14DA
 10
-395.129
 20
-276.865
 30
5.05586e-012
  70
    32
  0
VERTEX
  8
0
  5
14DB
 10
-395.122
 20
-276.865
 30
5.05576e-012
  70
    32
  0
VERTEX
  8
0
  5
14DC
 10
-395.115
 20
-276.866
 30
5.05565e-012
  70
    32
  0
VERTEX
  8
0
  5
14DD
 10
-395.108
 20
-276.866
 30
5.05555e-012
  70
    32
  0
VERTEX
  8
0
  5
14DE
 10
-395.101
 20
-276.867
 30
5.05545e-012
  70
    32
  0
VERTEX
  8
0
  5
14DF
 10
-395.094
 20
-276.867
 30
5.05535e-012
  70
    32
  0
VERTEX
  8
0
  5
14E0
 10
-395.086
 20
-276.868
 30
5.05525e-012
  70
    32
  0
VERTEX
  8
0
  5
14E1
 10
-395.079
 20
-276.868
 30
5.05515e-012
  70
    32
  0
VERTEX
  8
0
  5
14E2
 10
-395.072
 20
-276.868
 30
5.05505e-012
  70
    32
  0
VERTEX
  8
0
  5
14E3
 10
-395.065
 20
-276.868
 30
5.05496e-012
  70
    32
  0
VERTEX
  8
0
  5
14E4
 10
-395.058
 20
-276.869
 30
5.05486e-012
  70
    32
  0
VERTEX
  8
0
  5
14E5
 10
-395.050
 20
-276.869
 30
5.05476e-012
  70
    32
  0
VERTEX
  8
0
  5
14E6
 10
-395.043
 20
-276.869
 30
5.05467e-012
  70
    32
  0
VERTEX
  8
0
  5
14E7
 10
-395.036
 20
-276.869
 30
5.05457e-012
  70
    32
  0
VERTEX
  8
0
  5
14E8
 10
-395.029
 20
-276.869
 30
5.05448e-012
  70
    32
  0
VERTEX
  8
0
  5
14E9
 10
-395.022
 20
-276.868
 30
5.05438e-012
  70
    32
  0
VERTEX
  8
0
  5
14EA
 10
-395.014
 20
-276.868
 30
5.05429e-012
  70
    32
  0
VERTEX
  8
0
  5
14EB
 10
-395.007
 20
-276.868
 30
5.05420e-012
  70
    32
  0
VERTEX
  8
0
  5
14EC
 10
-395.000
 20
-276.868
 30
5.05411e-012
  70
    32
  0
VERTEX
  8
0
  5
14ED
 10
-394.993
 20
-276.867
 30
5.05402e-012
  70
    32
  0
VERTEX
  8
0
  5
14EE
 10
-394.986
 20
-276.867
 30
5.05393e-012
  70
    32
  0
VERTEX
  8
0
  5
14EF
 10
-394.979
 20
-276.866
 30
5.05384e-012
  70
    32
  0
VERTEX
  8
0
  5
14F0
 10
-394.971
 20
-276.866
 30
5.05375e-012
  70
    32
  0
VERTEX
  8
0
  5
14F1
 10
-394.964
 20
-276.865
 30
5.05366e-012
  70
    32
  0
VERTEX
  8
0
  5
14F2
 10
-394.957
 20
-276.865
 30
5.05357e-012
  70
    32
  0
VERTEX
  8
0
  5
14F3
 10
-394.950
 20
-276.864
 30
5.05349e-012
  70
    32
  0
VERTEX
  8
0
  5
14F4
 10
-394.943
 20
-276.863
 30
5.05340e-012
  70
    32
  0
VERTEX
  8
0
  5
14F5
 10
-394.936
 20
-276.863
 30
5.05332e-012
  70
    32
  0
VERTEX
  8
0
  5
14F6
 10
-394.929
 20
-276.862
 30
5.05324e-012
  70
    32
  0
VERTEX
  8
0
  5
14F7
 10
-394.922
 20
-276.861
 30
5.05316e-012
  70
    32
  0
VERTEX
  8
0
  5
14F8
 10
-394.915
 20
-276.860
 30
5.05307e-012
  70
    32
  0
VERTEX
  8
0
  5
14F9
 10
-394.908
 20
-276.859
 30
5.05299e-012
  70
    32
  0
VERTEX
  8
0
  5
14FA
 10
-394.901
 20
-276.858
 30
5.05292e-012
  70
    32
  0
VERTEX
  8
0
  5
14FB
 10
-394.894
 20
-276.857
 30
5.05284e-012
  70
    32
  0
VERTEX
  8
0
  5
14FC
 10
-394.887
 20
-276.856
 30
5.05276e-012
  70
    32
  0
VERTEX
  8
0
  5
14FD
 10
-394.880
 20
-276.854
 30
5.05268e-012
  70
    32
  0
VERTEX
  8
0
  5
14FE
 10
-394.873
 20
-276.853
 30
5.05261e-012
  70
    32
  0
VERTEX
  8
0
  5
14FF
 10
-394.866
 20
-276.852
 30
5.05253e-012
  70
    32
  0
VERTEX
  8
0
  5
1500
 10
-394.860
 20
-276.850
 30
5.05246e-012
  70
    32
  0
VERTEX
  8
0
  5
1501
 10
-394.853
 20
-276.849
 30
5.05239e-012
  70
    32
  0
VERTEX
  8
0
  5
1502
 10
-394.846
 20
-276.848
 30
5.05232e-012
  70
    32
  0
VERTEX
  8
0
  5
1503
 10
-394.839
 20
-276.846
 30
5.05225e-012
  70
    32
  0
VERTEX
  8
0
  5
1504
 10
-394.833
 20
-276.844
 30
5.05218e-012
  70
    32
  0
VERTEX
  8
0
  5
1505
 10
-394.826
 20
-276.843
 30
5.05211e-012
  70
    32
  0
VERTEX
  8
0
  5
1506
 10
-394.820
 20
-276.841
 30
5.05205e-012
  70
    32
  0
VERTEX
  8
0
  5
1507
 10
-394.813
 20
-276.839
 30
5.05198e-012
  70
    32
  0
VERTEX
  8
0
  5
1508
 10
-394.806
 20
-276.838
 30
5.05192e-012
  70
    32
  0
VERTEX
  8
0
  5
1509
 10
-394.800
 20
-276.836
 30
5.05185e-012
  70
    32
  0
VERTEX
  8
0
  5
150A
 10
-394.794
 20
-276.834
 30
5.05179e-012
  70
    32
  0
VERTEX
  8
0
  5
150B
 10
-394.787
 20
-276.832
 30
5.05173e-012
  70
    32
  0
VERTEX
  8
0
  5
150C
 10
-394.781
 20
-276.830
 30
5.05167e-012
  70
    32
  0
VERTEX
  8
0
  5
150D
 10
-394.774
 20
-276.828
 30
5.05161e-012
  70
    32
  0
VERTEX
  8
0
  5
150E
 10
-394.768
 20
-276.826
 30
5.05156e-012
  70
    32
  0
VERTEX
  8
0
  5
150F
 10
-394.762
 20
-276.824
 30
5.05150e-012
  70
    32
  0
VERTEX
  8
0
  5
1510
 10
-394.756
 20
-276.822
 30
5.05145e-012
  70
    32
  0
VERTEX
  8
0
  5
1511
 10
-394.750
 20
-276.820
 30
5.05139e-012
  70
    32
  0
VERTEX
  8
0
  5
1512
 10
-394.744
 20
-276.817
 30
5.05134e-012
  70
    32
  0
VERTEX
  8
0
  5
1513
 10
-394.738
 20
-276.815
 30
5.05129e-012
  70
    32
  0
VERTEX
  8
0
  5
1514
 10
-394.732
 20
-276.813
 30
5.05124e-012
  70
    32
  0
VERTEX
  8
0
  5
1515
 10
-394.726
 20
-276.810
 30
5.05119e-012
  70
    32
  0
VERTEX
  8
0
  5
1516
 10
-394.720
 20
-276.808
 30
5.05115e-012
  70
    32
  0
VERTEX
  8
0
  5
1517
 10
-394.714
 20
-276.806
 30
5.05110e-012
  70
    32
  0
VERTEX
  8
0
  5
1518
 10
-394.708
 20
-276.803
 30
5.05106e-012
  70
    32
  0
VERTEX
  8
0
  5
1519
 10
-394.703
 20
-276.800
 30
5.05101e-012
  70
    32
  0
VERTEX
  8
0
  5
151A
 10
-394.697
 20
-276.798
 30
5.05097e-012
  70
    32
  0
VERTEX
  8
0
  5
151B
 10
-394.692
 20
-276.795
 30
5.05093e-012
  70
    32
  0
VERTEX
  8
0
  5
151C
 10
-394.686
 20
-276.793
 30
5.05089e-012
  70
    32
  0
VERTEX
  8
0
  5
151D
 10
-394.681
 20
-276.790
 30
5.05085e-012
  70
    32
  0
VERTEX
  8
0
  5
151E
 10
-394.675
 20
-276.787
 30
5.05082e-012
  70
    32
  0
VERTEX
  8
0
  5
151F
 10
-394.670
 20
-276.784
 30
5.05078e-012
  70
    32
  0
VERTEX
  8
0
  5
1520
 10
-394.665
 20
-276.781
 30
5.05075e-012
  70
    32
  0
VERTEX
  8
0
  5
1521
 10
-394.659
 20
-276.779
 30
5.05072e-012
  70
    32
  0
VERTEX
  8
0
  5
1522
 10
-394.654
 20
-276.776
 30
5.05069e-012
  70
    32
  0
SEQEND
  8
0
  5
1523
  0
LINE
  5
7C3
  8
0
  6
CONTINUOUS
 10
-416.22606438727342
 20
-261.95300229420963
 30
0.0000000000055271
 11
-395.47065525795352
 21
-276.7509491006856
 31
0.0000000000050618
210
0.000000000000008
220
0.8164965809277113
230
0.5773502691896467
  0
LINE
  5
7C4
  8
0
  6
CONTINUOUS
 10
-416.18754283812399
 20
-261.98046693398919
 30
0.000000000005583
 11
-416.18754283812399
 21
-261.52862967100577
 31
0.000000000005532
210
0.000000000000008
220
0.8164965809277113
230
0.5773502691896467
  0
POLYLINE
  5
7C5
  8
0
  6
CONTINUOUS
 10
-416.18754283812399
 20
-261.52862967100583
 30
0.0000000000055319
 66
     1
 70
     8
  0
VERTEX
  8
0
  5
1524
 10
-416.188
 20
-261.529
 30
5.53191e-012
  70
    32
  0
VERTEX
  8
0
  5
1525
 10
-416.192
 20
-261.531
 30
5.53194e-012
  70
    32
  0
VERTEX
  8
0
  5
1526
 10
-416.196
 20
-261.534
 30
5.53196e-012
  70
    32
  0
VERTEX
  8
0
  5
1527
 10
-416.201
 20
-261.536
 30
5.53199e-012
  70
    32
  0
VERTEX
  8
0
  5
1528
 10
-416.205
 20
-261.539
 30
5.53201e-012
  70
    32
  0
VERTEX
  8
0
  5
1529
 10
-416.209
 20
-261.542
 30
5.53203e-012
  70
    32
  0
VERTEX
  8
0
  5
152A
 10
-416.213
 20
-261.545
 30
5.53205e-012
  70
    32
  0
VERTEX
  8
0
  5
152B
 10
-416.217
 20
-261.547
 30
5.53207e-012
  70
    32
  0
VERTEX
  8
0
  5
152C
 10
-416.221
 20
-261.550
 30
5.53209e-012
  70
    32
  0
VERTEX
  8
0
  5
152D
 10
-416.225
 20
-261.553
 30
5.53211e-012
  70
    32
  0
VERTEX
  8
0
  5
152E
 10
-416.229
 20
-261.556
 30
5.53213e-012
  70
    32
  0
VERTEX
  8
0
  5
152F
 10
-416.233
 20
-261.559
 30
5.53214e-012
  70
    32
  0
VERTEX
  8
0
  5
1530
 10
-416.237
 20
-261.562
 30
5.53215e-012
  70
    32
  0
VERTEX
  8
0
  5
1531
 10
-416.241
 20
-261.564
 30
5.53217e-012
  70
    32
  0
VERTEX
  8
0
  5
1532
 10
-416.245
 20
-261.567
 30
5.53218e-012
  70
    32
  0
VERTEX
  8
0
  5
1533
 10
-416.248
 20
-261.570
 30
5.53219e-012
  70
    32
  0
VERTEX
  8
0
  5
1534
 10
-416.252
 20
-261.573
 30
5.53220e-012
  70
    32
  0
VERTEX
  8
0
  5
1535
 10
-416.255
 20
-261.576
 30
5.53221e-012
  70
    32
  0
VERTEX
  8
0
  5
1536
 10
-416.259
 20
-261.579
 30
5.53222e-012
  70
    32
  0
VERTEX
  8
0
  5
1537
 10
-416.262
 20
-261.582
 30
5.53222e-012
  70
    32
  0
VERTEX
  8
0
  5
1538
 10
-416.266
 20
-261.585
 30
5.53223e-012
  70
    32
  0
VERTEX
  8
0
  5
1539
 10
-416.269
 20
-261.589
 30
5.53223e-012
  70
    32
  0
VERTEX
  8
0
  5
153A
 10
-416.272
 20
-261.592
 30
5.53224e-012
  70
    32
  0
VERTEX
  8
0
  5
153B
 10
-416.275
 20
-261.595
 30
5.53224e-012
  70
    32
  0
VERTEX
  8
0
  5
153C
 10
-416.279
 20
-261.598
 30
5.53224e-012
  70
    32
  0
VERTEX
  8
0
  5
153D
 10
-416.282
 20
-261.601
 30
5.53224e-012
  70
    32
  0
VERTEX
  8
0
  5
153E
 10
-416.285
 20
-261.604
 30
5.53224e-012
  70
    32
  0
VERTEX
  8
0
  5
153F
 10
-416.287
 20
-261.608
 30
5.53224e-012
  70
    32
  0
VERTEX
  8
0
  5
1540
 10
-416.290
 20
-261.611
 30
5.53223e-012
  70
    32
  0
VERTEX
  8
0
  5
1541
 10
-416.293
 20
-261.614
 30
5.53223e-012
  70
    32
  0
VERTEX
  8
0
  5
1542
 10
-416.296
 20
-261.617
 30
5.53222e-012
  70
    32
  0
VERTEX
  8
0
  5
1543
 10
-416.298
 20
-261.621
 30
5.53222e-012
  70
    32
  0
VERTEX
  8
0
  5
1544
 10
-416.301
 20
-261.624
 30
5.53221e-012
  70
    32
  0
VERTEX
  8
0
  5
1545
 10
-416.304
 20
-261.627
 30
5.53220e-012
  70
    32
  0
VERTEX
  8
0
  5
1546
 10
-416.306
 20
-261.631
 30
5.53219e-012
  70
    32
  0
VERTEX
  8
0
  5
1547
 10
-416.308
 20
-261.634
 30
5.53218e-012
  70
    32
  0
VERTEX
  8
0
  5
1548
 10
-416.311
 20
-261.637
 30
5.53217e-012
  70
    32
  0
VERTEX
  8
0
  5
1549
 10
-416.313
 20
-261.641
 30
5.53215e-012
  70
    32
  0
VERTEX
  8
0
  5
154A
 10
-416.315
 20
-261.644
 30
5.53214e-012
  70
    32
  0
VERTEX
  8
0
  5
154B
 10
-416.317
 20
-261.648
 30
5.53213e-012
  70
    32
  0
VERTEX
  8
0
  5
154C
 10
-416.319
 20
-261.651
 30
5.53211e-012
  70
    32
  0
VERTEX
  8
0
  5
154D
 10
-416.321
 20
-261.655
 30
5.53209e-012
  70
    32
  0
VERTEX
  8
0
  5
154E
 10
-416.323
 20
-261.658
 30
5.53207e-012
  70
    32
  0
VERTEX
  8
0
  5
154F
 10
-416.325
 20
-261.661
 30
5.53205e-012
  70
    32
  0
VERTEX
  8
0
  5
1550
 10
-416.327
 20
-261.665
 30
5.53203e-012
  70
    32
  0
VERTEX
  8
0
  5
1551
 10
-416.329
 20
-261.668
 30
5.53201e-012
  70
    32
  0
VERTEX
  8
0
  5
1552
 10
-416.330
 20
-261.672
 30
5.53199e-012
  70
    32
  0
VERTEX
  8
0
  5
1553
 10
-416.332
 20
-261.676
 30
5.53196e-012
  70
    32
  0
VERTEX
  8
0
  5
1554
 10
-416.333
 20
-261.679
 30
5.53194e-012
  70
    32
  0
VERTEX
  8
0
  5
1555
 10
-416.335
 20
-261.683
 30
5.53191e-012
  70
    32
  0
VERTEX
  8
0
  5
1556
 10
-416.336
 20
-261.686
 30
5.53189e-012
  70
    32
  0
VERTEX
  8
0
  5
1557
 10
-416.338
 20
-261.690
 30
5.53186e-012
  70
    32
  0
VERTEX
  8
0
  5
1558
 10
-416.339
 20
-261.693
 30
5.53183e-012
  70
    32
  0
VERTEX
  8
0
  5
1559
 10
-416.340
 20
-261.697
 30
5.53180e-012
  70
    32
  0
VERTEX
  8
0
  5
155A
 10
-416.341
 20
-261.700
 30
5.53177e-012
  70
    32
  0
VERTEX
  8
0
  5
155B
 10
-416.342
 20
-261.704
 30
5.53174e-012
  70
    32
  0
VERTEX
  8
0
  5
155C
 10
-416.343
 20
-261.708
 30
5.53170e-012
  70
    32
  0
VERTEX
  8
0
  5
155D
 10
-416.344
 20
-261.711
 30
5.53167e-012
  70
    32
  0
VERTEX
  8
0
  5
155E
 10
-416.345
 20
-261.715
 30
5.53163e-012
  70
    32
  0
VERTEX
  8
0
  5
155F
 10
-416.345
 20
-261.718
 30
5.53160e-012
  70
    32
  0
VERTEX
  8
0
  5
1560
 10
-416.346
 20
-261.722
 30
5.53156e-012
  70
    32
  0
VERTEX
  8
0
  5
1561
 10
-416.347
 20
-261.726
 30
5.53152e-012
  70
    32
  0
VERTEX
  8
0
  5
1562
 10
-416.347
 20
-261.729
 30
5.53148e-012
  70
    32
  0
VERTEX
  8
0
  5
1563
 10
-416.348
 20
-261.733
 30
5.53144e-012
  70
    32
  0
VERTEX
  8
0
  5
1564
 10
-416.348
 20
-261.737
 30
5.53140e-012
  70
    32
  0
VERTEX
  8
0
  5
1565
 10
-416.348
 20
-261.740
 30
5.53136e-012
  70
    32
  0
VERTEX
  8
0
  5
1566
 10
-416.348
 20
-261.744
 30
5.53132e-012
  70
    32
  0
VERTEX
  8
0
  5
1567
 10
-416.349
 20
-261.747
 30
5.53127e-012
  70
    32
  0
VERTEX
  8
0
  5
1568
 10
-416.349
 20
-261.751
 30
5.53123e-012
  70
    32
  0
VERTEX
  8
0
  5
1569
 10
-416.349
 20
-261.755
 30
5.53118e-012
  70
    32
  0
VERTEX
  8
0
  5
156A
 10
-416.349
 20
-261.758
 30
5.53113e-012
  70
    32
  0
VERTEX
  8
0
  5
156B
 10
-416.348
 20
-261.762
 30
5.53109e-012
  70
    32
  0
VERTEX
  8
0
  5
156C
 10
-416.348
 20
-261.766
 30
5.53104e-012
  70
    32
  0
VERTEX
  8
0
  5
156D
 10
-416.348
 20
-261.769
 30
5.53099e-012
  70
    32
  0
VERTEX
  8
0
  5
156E
 10
-416.348
 20
-261.773
 30
5.53094e-012
  70
    32
  0
VERTEX
  8
0
  5
156F
 10
-416.347
 20
-261.777
 30
5.53088e-012
  70
    32
  0
VERTEX
  8
0
  5
1570
 10
-416.347
 20
-261.780
 30
5.53083e-012
  70
    32
  0
VERTEX
  8
0
  5
1571
 10
-416.346
 20
-261.784
 30
5.53078e-012
  70
    32
  0
VERTEX
  8
0
  5
1572
 10
-416.345
 20
-261.787
 30
5.53072e-012
  70
    32
  0
VERTEX
  8
0
  5
1573
 10
-416.345
 20
-261.791
 30
5.53067e-012
  70
    32
  0
VERTEX
  8
0
  5
1574
 10
-416.344
 20
-261.795
 30
5.53061e-012
  70
    32
  0
VERTEX
  8
0
  5
1575
 10
-416.343
 20
-261.798
 30
5.53055e-012
  70
    32
  0
VERTEX
  8
0
  5
1576
 10
-416.342
 20
-261.802
 30
5.53050e-012
  70
    32
  0
VERTEX
  8
0
  5
1577
 10
-416.341
 20
-261.805
 30
5.53044e-012
  70
    32
  0
VERTEX
  8
0
  5
1578
 10
-416.340
 20
-261.809
 30
5.53038e-012
  70
    32
  0
VERTEX
  8
0
  5
1579
 10
-416.339
 20
-261.813
 30
5.53032e-012
  70
    32
  0
VERTEX
  8
0
  5
157A
 10
-416.338
 20
-261.816
 30
5.53026e-012
  70
    32
  0
VERTEX
  8
0
  5
157B
 10
-416.336
 20
-261.820
 30
5.53019e-012
  70
    32
  0
VERTEX
  8
0
  5
157C
 10
-416.335
 20
-261.823
 30
5.53013e-012
  70
    32
  0
VERTEX
  8
0
  5
157D
 10
-416.334
 20
-261.827
 30
5.53007e-012
  70
    32
  0
VERTEX
  8
0
  5
157E
 10
-416.332
 20
-261.830
 30
5.53000e-012
  70
    32
  0
VERTEX
  8
0
  5
157F
 10
-416.331
 20
-261.834
 30
5.52994e-012
  70
    32
  0
VERTEX
  8
0
  5
1580
 10
-416.329
 20
-261.837
 30
5.52987e-012
  70
    32
  0
VERTEX
  8
0
  5
1581
 10
-416.327
 20
-261.841
 30
5.52980e-012
  70
    32
  0
VERTEX
  8
0
  5
1582
 10
-416.325
 20
-261.844
 30
5.52973e-012
  70
    32
  0
VERTEX
  8
0
  5
1583
 10
-416.324
 20
-261.848
 30
5.52967e-012
  70
    32
  0
VERTEX
  8
0
  5
1584
 10
-416.322
 20
-261.851
 30
5.52960e-012
  70
    32
  0
VERTEX
  8
0
  5
1585
 10
-416.320
 20
-261.855
 30
5.52953e-012
  70
    32
  0
VERTEX
  8
0
  5
1586
 10
-416.318
 20
-261.858
 30
5.52946e-012
  70
    32
  0
VERTEX
  8
0
  5
1587
 10
-416.316
 20
-261.862
 30
5.52938e-012
  70
    32
  0
VERTEX
  8
0
  5
1588
 10
-416.313
 20
-261.865
 30
5.52931e-012
  70
    32
  0
VERTEX
  8
0
  5
1589
 10
-416.311
 20
-261.868
 30
5.52924e-012
  70
    32
  0
VERTEX
  8
0
  5
158A
 10
-416.309
 20
-261.872
 30
5.52916e-012
  70
    32
  0
VERTEX
  8
0
  5
158B
 10
-416.306
 20
-261.875
 30
5.52909e-012
  70
    32
  0
VERTEX
  8
0
  5
158C
 10
-416.304
 20
-261.879
 30
5.52902e-012
  70
    32
  0
VERTEX
  8
0
  5
158D
 10
-416.301
 20
-261.882
 30
5.52894e-012
  70
    32
  0
VERTEX
  8
0
  5
158E
 10
-416.299
 20
-261.885
 30
5.52886e-012
  70
    32
  0
VERTEX
  8
0
  5
158F
 10
-416.296
 20
-261.888
 30
5.52879e-012
  70
    32
  0
VERTEX
  8
0
  5
1590
 10
-416.293
 20
-261.892
 30
5.52871e-012
  70
    32
  0
VERTEX
  8
0
  5
1591
 10
-416.291
 20
-261.895
 30
5.52863e-012
  70
    32
  0
VERTEX
  8
0
  5
1592
 10
-416.288
 20
-261.898
 30
5.52855e-012
  70
    32
  0
VERTEX
  8
0
  5
1593
 10
-416.285
 20
-261.901
 30
5.52847e-012
  70
    32
  0
VERTEX
  8
0
  5
1594
 10
-416.282
 20
-261.905
 30
5.52839e-012
  70
    32
  0
VERTEX
  8
0
  5
1595
 10
-416.279
 20
-261.908
 30
5.52831e-012
  70
    32
  0
VERTEX
  8
0
  5
1596
 10
-416.276
 20
-261.911
 30
5.52823e-012
  70
    32
  0
VERTEX
  8
0
  5
1597
 10
-416.273
 20
-261.914
 30
5.52815e-012
  70
    32
  0
VERTEX
  8
0
  5
1598
 10
-416.269
 20
-261.917
 30
5.52806e-012
  70
    32
  0
VERTEX
  8
0
  5
1599
 10
-416.266
 20
-261.920
 30
5.52798e-012
  70
    32
  0
VERTEX
  8
0
  5
159A
 10
-416.263
 20
-261.923
 30
5.52790e-012
  70
    32
  0
VERTEX
  8
0
  5
159B
 10
-416.259
 20
-261.927
 30
5.52781e-012
  70
    32
  0
VERTEX
  8
0
  5
159C
 10
-416.256
 20
-261.930
 30
5.52773e-012
  70
    32
  0
VERTEX
  8
0
  5
159D
 10
-416.252
 20
-261.933
 30
5.52764e-012
  70
    32
  0
VERTEX
  8
0
  5
159E
 10
-416.249
 20
-261.936
 30
5.52756e-012
  70
    32
  0
VERTEX
  8
0
  5
159F
 10
-416.245
 20
-261.939
 30
5.52747e-012
  70
    32
  0
VERTEX
  8
0
  5
15A0
 10
-416.241
 20
-261.941
 30
5.52739e-012
  70
    32
  0
VERTEX
  8
0
  5
15A1
 10
-416.238
 20
-261.944
 30
5.52730e-012
  70
    32
  0
VERTEX
  8
0
  5
15A2
 10
-416.234
 20
-261.947
 30
5.52721e-012
  70
    32
  0
VERTEX
  8
0
  5
15A3
 10
-416.230
 20
-261.950
 30
5.52712e-012
  70
    32
  0
VERTEX
  8
0
  5
15A4
 10
-416.226
 20
-261.953
 30
5.52704e-012
  70
    32
  0
SEQEND
  8
0
  5
15A5
  0
LINE
  5
7C6
  8
0
  6
CONTINUOUS
 10
668.27772896215265
 20
-933.79739474760515
 30
-0.0000000000169166
 11
668.27772896215288
 21
89.652875716832
 31
-0.000000000004077
210
0.000000000000008
220
0.8164965809277113
230
0.5773502691896467
  0
LINE
  5
7C7
  8
0
  6
CONTINUOUS
 10
-417.60574088965859
 20
-1530.9971012828989
 30
-0.0000000000103866
 11
-417.60574088965808
 21
-428.72671703047871
 31
0.00000000000335
210
0.000000000000008
220
0.8164965809277113
230
0.5773502691896467
  0
LINE
  5
7C8
  8
0
  6
CONTINUOUS
 10
-388.15420902337718
 20
-1543.2523445520201
 30
-0.0000000000108211
 11
-388.15420902337672
 21
-519.60477838039969
 31
0.0000000000018505
210
0.000000000000008
220
0.8164965809277113
230
0.5773502691896467
  0
LINE
  5
7C9
  8
0
  6
CONTINUOUS
 10
668.98483574333977
 20
90.497566026218067
 30
-0.0000000000039477
 11
668.98483574333977
 21
335.4465403045337
 31
-0.0000000000009834
210
0.000000000000008
220
0.8164965809277113
230
0.5773502691896467
  0
LINE
  5
7CA
  8
0
  6
CONTINUOUS
 10
-416.89863410847153
 20
-429.13496532094251
 30
0.0000000000033922
 11
-416.89863410847153
 21
-261.75316623076043
 31
0.0000000000054817
210
0.000000000000008
220
0.8164965809277113
230
0.5773502691896467
  0
LINE
  5
7CB
  8
0
  6
CONTINUOUS
 10
-387.44710224219023
 20
-518.9573837781976
 30
0.0000000000019063
 11
-387.44710224219011
 21
-274.00840949988202
 31
0.0000000000049904
210
0.000000000000008
220
0.8164965809277113
230
0.5773502691896467
  0
ENDSEC
  0
EOF
