  0
SECTION
  2
HEADER
  9
$ACADVER
  1
AC1009
  9
$INSBASE
 10
0.0
 20
0.0
 30
0.0
  9
$EXTMIN
 10
-175.8549139463056
 20
-38.157372352574157
 30
-0.0015258207003583
  9
$EXTMAX
 10
166.26328130815719
 20
388.67511776705157
 30
0.0000000349246037
  9
$LIMMIN
 10
0.0
 20
0.0
  9
$LIMMAX
 10
12.0
 20
9.0
  9
$ORTHOMODE
 70
     0
  9
$REGENMODE
 70
     1
  9
$FILLMODE
 70
     1
  9
$QTEXTMODE
 70
     0
  9
$MIRRTEXT
 70
     0
  9
$DRAGMODE
 70
     2
  9
$LTSCALE
 40
0.2
  9
$OSMODE
 70
     0
  9
$ATTMODE
 70
     1
  9
$TEXTSIZE
 40
25.0
  9
$TRACEWID
 40
0.05
  9
$TEXTSTYLE
  7
ARIAL
  9
$CLAYER
  8
0
  9
$CELTYPE
  6
CONTINUOUS
  9
$CECOLOR
 62
   256
  9
$DIMSCALE
 40
2.0
  9
$DIMASZ
 40
2.0
  9
$DIMEXO
 40
2.0
  9
$DIMDLI
 40
6.0
  9
$DIMRND
 40
0.0
  9
$DIMDLE
 40
2.0
  9
$DIMEXE
 40
2.0
  9
$DIMTP
 40
0.0
  9
$DIMTM
 40
0.0
  9
$DIMTXT
 40
2.0
  9
$DIMCEN
 40
2.0
  9
$DIMTSZ
 40
0.0
  9
$DIMTOL
 70
     0
  9
$DIMLIM
 70
     0
  9
$DIMTIH
 70
     0
  9
$DIMTOH
 70
     0
  9
$DIMSE1
 70
     0
  9
$DIMSE2
 70
     0
  9
$DIMTAD
 70
     1
  9
$DIMZIN
 70
     0
  9
$DIMBLK
  1
ARCHTICK
  9
$DIMASO
 70
     1
  9
$DIMSHO
 70
     1
  9
$DIMPOST
  1

  9
$DIMAPOST
  1

  9
$DIMALT
 70
     0
  9
$DIMALTD
 70
     2
  9
$DIMALTF
 40
0.0394
  9
$DIMLFAC
 40
1.0
  9
$DIMTOFL
 70
     0
  9
$DIMTVP
 40
0.0
  9
$DIMTIX
 70
     0
  9
$DIMSOXD
 70
     0
  9
$DIMSAH
 70
     0
  9
$DIMBLK1
  1

  9
$DIMBLK2
  1

  9
$DIMSTYLE
  2
1_TO_2
  9
$DIMCLRD
 70
   256
  9
$DIMCLRE
 70
   256
  9
$DIMCLRT
 70
   256
  9
$DIMTFAC
 40
1.0
  9
$DIMGAP
 40
1.0
  9
$LUNITS
 70
     2
  9
$LUPREC
 70
     1
  9
$SKETCHINC
 40
0.1
  9
$FILLETRAD
 40
0.0
  9
$AUNITS
 70
     1
  9
$AUPREC
 70
     4
  9
$MENU
  1
.
  9
$ELEVATION
 40
0.0
  9
$PELEVATION
 40
0.0
  9
$THICKNESS
 40
0.0
  9
$LIMCHECK
 70
     0
  9
$BLIPMODE
 70
     0
  9
$CHAMFERA
 40
0.0
  9
$CHAMFERB
 40
0.0
  9
$SKPOLY
 70
     0
  9
$TDCREATE
 40
2452152.65359294
  9
$TDUPDATE
 40
2455419.5998422229
  9
$TDINDWG
 40
25.966769838000001
  9
$TDUSRTIMER
 40
25.966769838000001
  9
$USRTIMER
 70
     1
  9
$ANGBASE
 50
0.0
  9
$ANGDIR
 70
     0
  9
$PDMODE
 70
     0
  9
$PDSIZE
 40
0.0
  9
$PLINEWID
 40
0.0
  9
$COORDS
 70
     1
  9
$SPLFRAME
 70
     0
  9
$SPLINETYPE
 70
     6
  9
$SPLINESEGS
 70
     8
  9
$ATTDIA
 70
     0
  9
$ATTREQ
 70
     0
  9
$HANDLING
 70
     1
  9
$HANDSEED
  5
B10
  9
$SURFTAB1
 70
     6
  9
$SURFTAB2
 70
     6
  9
$SURFTYPE
 70
     6
  9
$SURFU
 70
     6
  9
$SURFV
 70
     6
  9
$UCSNAME
  2

  9
$UCSORG
 10
0.0
 20
0.0
 30
0.0
  9
$UCSXDIR
 10
1.0
 20
0.0
 30
0.0
  9
$UCSYDIR
 10
0.0
 20
1.0
 30
0.0
  9
$PUCSNAME
  2

  9
$PUCSORG
 10
0.0
 20
0.0
 30
0.0
  9
$PUCSXDIR
 10
1.0
 20
0.0
 30
0.0
  9
$PUCSYDIR
 10
0.0
 20
1.0
 30
0.0
  9
$USERI1
 70
     0
  9
$USERI2
 70
     0
  9
$USERI3
 70
     0
  9
$USERI4
 70
     0
  9
$USERI5
 70
     0
  9
$USERR1
 40
0.0
  9
$USERR2
 40
0.0
  9
$USERR3
 40
0.0
  9
$USERR4
 40
0.0
  9
$USERR5
 40
0.0
  9
$WORLDVIEW
 70
     1
  9
$SHADEDGE
 70
     3
  9
$SHADEDIF
 70
    70
  9
$TILEMODE
 70
     1
  9
$MAXACTVP
 70
    48
  9
$PLIMCHECK
 70
     0
  9
$PEXTMIN
 10
0.0010420625153245
 20
0.0014770624390508
 30
0.0
  9
$PEXTMAX
 10
208.41146100116339
 20
295.41101074245063
 30
0.0
  9
$PLIMMIN
 10
-0.793749988079071
 20
-0.793749988079071
  9
$PLIMMAX
 10
209.2062500119209
 20
296.20625001192087
  9
$UNITMODE
 70
     0
  9
$VISRETAIN
 70
     1
  9
$PLINEGEN
 70
     1
  9
$PSLTSCALE
 70
     1
  0
ENDSEC
  0
SECTION
  2
TABLES
  0
TABLE
  2
VPORT
 70
     1
  0
VPORT
  2
*ACTIVE
 70
     0
 10
0.0
 20
0.0
 11
1.0
 21
1.0
 12
-4.7958163190741914
 22
175.25887270723871
 13
0.0
 23
0.0
 14
1.0
 24
1.0
 15
50.0
 25
50.0
 16
0.0
 26
0.0
 36
1.0
 17
0.0
 27
0.0
 37
0.0
 40
430.41931776768968
 41
1.978962131837307
 42
50.0
 43
0.0
 44
0.0
 50
0.0
 51
0.0
 71
     0
 72
 20000
 73
     1
 74
     3
 75
     0
 76
     0
 77
     0
 78
     0
  0
ENDTAB
  0
TABLE
  2
LTYPE
 70
     2
  0
LTYPE
  2
CONTINUOUS
 70
     0
  3
Solid line
 72
    65
 73
     0
 40
0.0
  0
ENDTAB
  0
TABLE
  2
LAYER
 70
    12
  0
LAYER
  2
0
 70
     0
 62
     7
  6
CONTINUOUS
  0
LAYER
  2
EURO_COMMON_RF-WALL-JCTN$0
 70
     0
 62
    93
  6
CONTINUOUS
  0
ENDTAB
  0
TABLE
  2
STYLE
 70
     4
  0
STYLE
  2
STANDARD
 70
     0
 40
0.0
 41
1.0
 50
0.0
 71
     0
 42
1.5
  3
romans.shx
  4

  0
STYLE
  2
ARIAL
 70
     0
 40
0.0
 41
1.0
 50
0.0
 71
     0
 42
25.0
  3
txt
  4

  0
STYLE
  2
EURO_COMMON_RF-WALL-JCTN$0
 70
     0
 40
0.0
 41
1.0
 50
0.0
 71
     0
 42
25.0
  3
txt
  4

  0
ENDTAB
  0
TABLE
  2
VIEW
 70
     2
  0
VIEW
  2
09
 70
     0
 40
2970.0
 10
19050.0
 20
1485.0
 41
2100.0
 11
0.0
 21
0.0
 31
1.0
 12
0.0
 22
0.0
 32
0.0
 42
50.0
 43
0.0
 44
0.0
 50
0.0
 71
     0
  0
VIEW
  2
COMM-04
 70
     1
 40
477.26027331217421
 10
194.21746115522001
 20
180.60494410563541
 41
755.81685306636155
 11
0.0
 21
0.0
 31
1.0
 12
0.0
 22
0.0
 32
0.0
 42
50.0
 43
0.0
 44
0.0
 50
0.0
 71
     0
  0
ENDTAB
  0
TABLE
  2
UCS
 70
     0
  0
ENDTAB
  0
TABLE
  2
APPID
 70
    13
  0
APPID
  2
ACAD
 70
     0
  0
APPID
  2
ACAD_PSEXT
 70
     0
  0
APPID
  2
ACDBDYNAMICBLOCKGUID
 70
     0
  0
APPID
  2
ACDBBLOCKREPETAG
 70
     0
  0
APPID
  2
ACAD_MLEADERVER
 70
     0
  0
APPID
  2
ACAD_EXEMPT_FROM_CAD_STANDARDS
 70
     0
  0
APPID
  2
ACADANNOTATIVE
 70
     0
  0
APPID
  2
GENIUS_GENOREF_13
 70
     0
  0
APPID
  2
GENIUS_GENREC_14
 70
     0
  0
APPID
  2
GENIUS_GENOBJ-N-REC_13
 70
     0
  0
APPID
  2
GENIUS_GENODEF_13
 70
     0
  0
APPID
  2
ACDBDYNAMICBLOCKTRUENAME
 70
     0
  0
APPID
  2
CONTENTBLOCKICON
 70
     0
  0
ENDTAB
  0
TABLE
  2
DIMSTYLE
 70
     3
  0
DIMSTYLE
  2
1_TO_2
 70
     0
  3

  4

  5
ARCHTICK
  6

  7

 40
2.0
 41
2.0
 42
2.0
 43
6.0
 44
2.0
 45
0.0
 46
2.0
 47
0.0
 48
0.0
140
2.0
141
2.0
142
0.0
143
0.0394
144
1.0
145
0.0
146
1.0
147
1.0
 71
     0
 72
     0
 73
     0
 74
     0
 75
     0
 76
     0
 77
     1
 78
     0
170
     0
171
     2
172
     0
173
     0
174
     0
175
     0
176
   256
177
   256
178
   256
  0
DIMSTYLE
  2
EURO_COMMON_RF-WALL-JCTN$0
 70
     0
  3

  4

  5
EURO_COMMON_RF-WALL-JCTN$0
  6

  7

 40
2.0
 41
2.0
 42
2.0
 43
6.0
 44
1.5
 45
0.0
 46
1.5
 47
0.0
 48
0.0
140
2.0
141
2.0
142
0.0
143
0.0394
144
1.0
145
0.0
146
1.0
147
1.0
 71
     0
 72
     0
 73
     0
 74
     0
 75
     0
 76
     0
 77
     0
 78
     0
170
     0
171
     2
172
     1
173
     0
174
     1
175
     0
176
     0
177
     0
178
     0
  0
ENDTAB
  0
ENDSEC
  0
SECTION
  2
BLOCKS
  0
BLOCK
  8
0
  2
$MODEL_SPACE
 70
     0
 10
0.0
 20
0.0
 30
0.0
  3
$MODEL_SPACE
  1

  0
ENDBLK
  5
17
  8
0
  0
BLOCK
 67
     1
  8
0
  2
$PAPER_SPACE
 70
     0
 10
0.0
 20
0.0
 30
0.0
  3
$PAPER_SPACE
  1

  0
ENDBLK
  5
20
 67
     1
  8
0
  0
BLOCK
  8
0
  2
_ARCHTICK
 70
     0
 10
0.0
 20
0.0
 30
0.0
  3
_ARCHTICK
  1

  0
POLYLINE
  5
82
  8
0
  6
BYBLOCK
 62
     0
 66
     1
 10
0.0
 20
0.0
 30
0.0
 40
0.15
 41
0.15
  0
VERTEX
  5
9BE
  8
0
  6
BYBLOCK
 62
     0
 10
-0.5
 20
-0.5
 30
0.0
  0
VERTEX
  5
9BF
  8
0
  6
BYBLOCK
 62
     0
 10
0.5
 20
0.5
 30
0.0
  0
SEQEND
  5
9C0
  8
0
  6
BYBLOCK
 62
     0
  0
ENDBLK
  5
83
  8
0
  0
BLOCK
  8
0
  2
EURO_COMMON_RF-WALL-JCTN$0
 70
     0
 10
0.0
 20
0.0
 30
0.0
  3
EURO_COMMON_RF-WALL-JCTN$0
  1

  0
POLYLINE
  5
785
  8
0
  6
BYBLOCK
 62
     0
 66
     1
 10
0.0
 20
0.0
 30
0.0
 40
0.15
 41
0.15
  0
VERTEX
  5
9E4
  8
0
  6
BYBLOCK
 62
     0
 10
-0.5
 20
-0.5
 30
0.0
  0
VERTEX
  5
9E5
  8
0
  6
BYBLOCK
 62
     0
 10
0.5
 20
0.5
 30
0.0
  0
SEQEND
  5
9E6
  8
0
  6
BYBLOCK
 62
     0
  0
ENDBLK
  5
786
  8
0
  0
BLOCK
  8
0
  2
*U8
 70
     1
 10
0.0
 20
0.0
 30
0.0
  3
*U8
  1

  0
SOLID
  5
A04
  8
0
  6
CONTINUOUS
 10
87.131666167529104
 20
74.462964908689315
 30
0.0
 11
85.810778506325789
 21
78.296983718101359
 31
0.0
 12
88.303732394300397
 22
75.098605166885633
 32
0.0
 13
88.303732394300397
 23
75.098605166885633
 33
0.0
  0
POLYLINE
  5
A05
  8
0
  6
CONTINUOUS
 66
     1
 10
0.0
 20
0.0
 30
0.0
  0
VERTEX
  5
A06
  8
0
  6
CONTINUOUS
 10
87.717699280914744
 20
74.780785037787481
 30
0.0
  0
VERTEX
  5
A07
  8
0
  6
CONTINUOUS
 10
94.0
 20
63.196760262272498
 30
0.0
  0
VERTEX
  5
A08
  8
0
  6
CONTINUOUS
 10
98.0
 20
63.196760262272498
 30
0.0
  0
SEQEND
  5
A09
  8
0
  6
CONTINUOUS
  0
ENDBLK
  5
A0B
  8
0
  0
BLOCK
  8
0
  2
*U9
 70
     1
 10
0.0
 20
0.0
 30
0.0
  3
*U9
  1

  0
TEXT
  5
A0D
  8
0
  6
CONTINUOUS
 10
99.560709413369707
 20
61.19539600579229
 30
0.0
 40
4.0
  1
Rafter
  7
EURO_COMMON_RF-WALL-JCTN$0
  0
ENDBLK
  5
A0F
  8
0
  0
BLOCK
  8
0
  2
*U10
 70
     1
 10
0.0
 20
0.0
 30
0.0
  3
*U10
  1

  0
SOLID
  5
A11
  8
0
  6
CONTINUOUS
 10
-87.743003670752088
 20
168.57777438140201
 30
0.0
 11
-84.936304515403208
 21
171.5046984145481
 31
0.0
 12
-86.642017543496664
 22
167.82570568416159
 32
0.0
 13
-86.642017543496664
 23
167.82570568416159
 33
0.0
  0
POLYLINE
  5
A12
  8
0
  6
CONTINUOUS
 66
     1
 10
0.0
 20
0.0
 30
0.0
  0
VERTEX
  5
A13
  8
0
  6
CONTINUOUS
 10
-87.192510607124376
 20
168.2017400327818
 30
0.0
  0
VERTEX
  5
A14
  8
0
  6
CONTINUOUS
 10
-114.0
 20
128.95708853165789
 30
0.0
  0
VERTEX
  5
A15
  8
0
  6
CONTINUOUS
 10
-118.0
 20
128.95708853165789
 30
0.0
  0
SEQEND
  5
A16
  8
0
  6
CONTINUOUS
  0
ENDBLK
  5
A18
  8
0
  0
BLOCK
  8
0
  2
*U11
 70
     1
 10
0.0
 20
0.0
 30
0.0
  3
*U11
  1

  0
TEXT
  5
A1A
  8
0
  6
CONTINUOUS
 10
-175.8444747612551
 20
127.5109766626265
 30
0.0
 40
4.0
  1
Closure - grab flashing
  7
EURO_COMMON_RF-WALL-JCTN$0
  0
ENDBLK
  5
A1C
  8
0
  0
BLOCK
  8
0
  2
*U12
 70
     1
 10
0.0
 20
0.0
 30
0.0
  3
*U12
  1

  0
SOLID
  5
A1E
  8
0
  6
CONTINUOUS
 10
-95.344295749087365
 20
108.9963250982583
 30
0.0
 11
-91.965941969971439
 21
111.2393521127139
 31
0.0
 12
-94.434213810392791
 22
108.0218874950021
 32
0.0
 13
-94.434213810392791
 23
108.0218874950021
 33
0.0
  0
POLYLINE
  5
A1F
  8
0
  6
CONTINUOUS
 66
     1
 10
0.0
 20
0.0
 30
0.0
  0
VERTEX
  5
A20
  8
0
  6
CONTINUOUS
 10
-94.889254779740071
 20
108.50910629663019
 30
0.0
  0
VERTEX
  5
A21
  8
0
  6
CONTINUOUS
 10
-114.0
 20
90.660509319426808
 30
0.0
  0
VERTEX
  5
A22
  8
0
  6
CONTINUOUS
 10
-118.0
 20
90.660509319426808
 30
0.0
  0
SEQEND
  5
A23
  8
0
  6
CONTINUOUS
  0
ENDBLK
  5
A25
  8
0
  0
BLOCK
  8
0
  2
*U13
 70
     1
 10
0.0
 20
0.0
 30
0.0
  3
*U13
  1

  0
TEXT
  5
A27
  8
0
  6
CONTINUOUS
 10
-151.2878581173261
 20
92.581837195734224
 30
0.0
 40
4.0
  1
Euroline wall
  7
EURO_COMMON_RF-WALL-JCTN$0
  0
TEXT
  5
A28
  8
0
  6
CONTINUOUS
 10
-140.44201909959071
 20
85.915170529067566
 30
0.0
 40
4.0
  1
cladding
  7
EURO_COMMON_RF-WALL-JCTN$0
  0
ENDBLK
  5
A2A
  8
0
  0
BLOCK
  8
0
  2
*U14
 70
     1
 10
0.0
 20
0.0
 30
0.0
  3
*U14
  1

  0
SOLID
  5
A2C
  8
0
  6
CONTINUOUS
 10
-64.032384043568896
 20
63.126622598681379
 30
0.0
 11
-60.41483070940847
 21
61.294205528538981
 31
0.0
 12
-64.43113804825505
 22
61.854312486513543
 32
0.0
 13
-64.43113804825505
 23
61.854312486513543
 33
0.0
  0
POLYLINE
  5
A2D
  8
0
  6
CONTINUOUS
 66
     1
 10
0.0
 20
0.0
 30
0.0
  0
VERTEX
  5
A2E
  8
0
  6
CONTINUOUS
 10
-64.231761045911981
 20
62.490467542597457
 30
0.0
  0
VERTEX
  5
A2F
  8
0
  6
CONTINUOUS
 10
-114.0
 20
78.088303635644607
 30
0.0
  0
VERTEX
  5
A30
  8
0
  6
CONTINUOUS
 10
-118.0
 20
78.088303635644607
 30
0.0
  0
SEQEND
  5
A31
  8
0
  6
CONTINUOUS
  0
ENDBLK
  5
A33
  8
0
  0
BLOCK
  8
0
  2
*U15
 70
     1
 10
0.0
 20
0.0
 30
0.0
  3
*U15
  1

  0
TEXT
  5
A35
  8
0
  6
CONTINUOUS
 10
-142.3137789904502
 20
76.67629817861868
 30
0.0
 40
4.0
  1
Underlay
  7
EURO_COMMON_RF-WALL-JCTN$0
  0
ENDBLK
  5
A37
  8
0
  0
BLOCK
  8
0
  2
*U16
 70
     1
 10
0.0
 20
0.0
 30
0.0
  3
*U16
  1

  0
SOLID
  5
A39
  8
0
  6
CONTINUOUS
 10
-61.87730189525476
 20
47.371612267392862
 30
0.0
 11
-58.414830709407717
 21
45.26075042169488
 31
0.0
 12
-62.374745132462373
 22
46.134547999242578
 32
0.0
 13
-62.374745132462373
 23
46.134547999242578
 33
0.0
  0
POLYLINE
  5
A3A
  8
0
  6
CONTINUOUS
 66
     1
 10
0.0
 20
0.0
 30
0.0
  0
VERTEX
  5
A3B
  8
0
  6
CONTINUOUS
 10
-62.12602351385857
 20
46.753080133317717
 30
0.0
  0
VERTEX
  5
A3C
  8
0
  6
CONTINUOUS
 10
-114.0
 20
67.612431950731093
 30
0.0
  0
VERTEX
  5
A3D
  8
0
  6
CONTINUOUS
 10
-118.0
 20
67.612431950731093
 30
0.0
  0
SEQEND
  5
A3E
  8
0
  6
CONTINUOUS
  0
ENDBLK
  5
A40
  8
0
  0
BLOCK
  8
0
  2
*U17
 70
     1
 10
0.0
 20
0.0
 30
0.0
  3
*U17
  1

  0
TEXT
  5
A42
  8
0
  6
CONTINUOUS
 10
-127.71350613915411
 20
66.20042649370518
 30
0.0
 40
4.0
  1
Ply
  7
EURO_COMMON_RF-WALL-JCTN$0
  0
ENDBLK
  5
A44
  8
0
  0
BLOCK
  8
0
  2
*U18
 70
     1
 10
0.0
 20
0.0
 30
0.0
  3
*U18
  1

  0
SOLID
  5
A46
  8
0
  6
CONTINUOUS
 10
-41.536561147128488
 20
8.0233247465483402
 30
0.0
 11
-38.414830709408193
 21
5.4350350566845833
 31
0.0
 12
-42.207264266126451
 22
6.8709640808085783
 32
0.0
 13
-42.207264266126451
 23
6.8709640808085783
 33
0.0
  0
POLYLINE
  5
A47
  8
0
  6
CONTINUOUS
 66
     1
 10
0.0
 20
0.0
 30
0.0
  0
VERTEX
  5
A48
  8
0
  6
CONTINUOUS
 10
-41.871912706627462
 20
7.4471444136784593
 30
0.0
  0
VERTEX
  5
A49
  8
0
  6
CONTINUOUS
 10
-114.0
 20
49.427519615019158
 30
0.0
  0
VERTEX
  5
A4A
  8
0
  6
CONTINUOUS
 10
-118.0
 20
49.427519615019158
 30
0.0
  0
SEQEND
  5
A4B
  8
0
  6
CONTINUOUS
  0
ENDBLK
  5
A4D
  8
0
  0
BLOCK
  8
0
  2
*U19
 70
     1
 10
0.0
 20
0.0
 30
0.0
  3
*U19
  1

  0
TEXT
  5
A4F
  8
0
  6
CONTINUOUS
 10
-135.7708049113233
 20
47.460261770544399
 30
0.0
 40
4.0
  1
Batten
  7
EURO_COMMON_RF-WALL-JCTN$0
  0
ENDBLK
  5
A51
  8
0
  0
BLOCK
  8
0
  2
*U20
 70
     1
 10
0.0
 20
0.0
 30
0.0
  3
*U20
  1

  0
SOLID
  5
A53
  8
0
  6
CONTINUOUS
 10
83.556245468096407
 20
22.461678822739469
 30
0.0
 11
81.085169290593271
 21
19.24636748953689
 31
0.0
 12
82.379870107192687
 22
23.089308321756569
 32
0.0
 13
82.379870107192687
 23
23.089308321756569
 33
0.0
  0
POLYLINE
  5
A54
  8
0
  6
CONTINUOUS
 66
     1
 10
0.0
 20
0.0
 30
0.0
  0
VERTEX
  5
A55
  8
0
  6
CONTINUOUS
 10
82.968057787644554
 20
22.775493572248021
 30
0.0
  0
VERTEX
  5
A56
  8
0
  6
CONTINUOUS
 10
94.0
 20
43.452827926118289
 30
0.0
  0
VERTEX
  5
A57
  8
0
  6
CONTINUOUS
 10
98.0
 20
43.452827926118289
 30
0.0
  0
SEQEND
  5
A58
  8
0
  6
CONTINUOUS
  0
ENDBLK
  5
A5A
  8
0
  0
BLOCK
  8
0
  2
*U21
 70
     1
 10
0.0
 20
0.0
 30
0.0
  3
*U21
  1

  0
TEXT
  5
A5C
  8
0
  6
CONTINUOUS
 10
99.541609822646663
 20
42.040822469092369
 30
0.0
 40
4.0
  1
Framing
  7
EURO_COMMON_RF-WALL-JCTN$0
  0
ENDBLK
  5
A5E
  8
0
  0
BLOCK
  8
0
  2
*U22
 70
     1
 10
0.0
 20
0.0
 30
0.0
  3
*U22
  1

  0
SOLID
  5
A7C
  8
0
  6
CONTINUOUS
 10
-100.8011589961897
 20
169.3155294340564
 30
0.0
 11
-97.994459840840904
 21
172.24245346720249
 31
0.0
 12
-99.700172868934374
 22
168.56346073681601
 32
0.0
 13
-99.700172868934374
 23
168.56346073681601
 33
0.0
  0
POLYLINE
  5
A7D
  8
0
  6
CONTINUOUS
 66
     1
 10
0.0
 20
0.0
 30
0.0
  0
VERTEX
  5
A7E
  8
0
  6
CONTINUOUS
 10
-100.250665932562
 20
168.93949508543619
 30
0.0
  0
VERTEX
  5
A7F
  8
0
  6
CONTINUOUS
 10
-114.0
 20
148.81124600021849
 30
0.0
  0
VERTEX
  5
A80
  8
0
  6
CONTINUOUS
 10
-118.0
 20
148.81124600021849
 30
0.0
  0
SEQEND
  5
A81
  8
0
  6
CONTINUOUS
  0
ENDBLK
  5
A83
  8
0
  0
BLOCK
  8
0
  2
*U23
 70
     1
 10
0.0
 20
0.0
 30
0.0
  3
*U23
  1

  0
TEXT
  5
A85
  8
0
  6
CONTINUOUS
 10
-155.9699863574352
 20
150.73257387652589
 30
0.0
 40
4.0
  1
Eaves flashing
  7
EURO_COMMON_RF-WALL-JCTN$0
  0
TEXT
  5
A86
  8
0
  6
CONTINUOUS
 10
-166.37107776261939
 20
143.99769438584829
 30
0.0
 40
4.0
  1
(75mm min. cover)
  7
EURO_COMMON_RF-WALL-JCTN$0
  0
ENDBLK
  5
A88
  8
0
  0
BLOCK
  8
0
  2
*U24
 70
     1
 10
0.0
 20
0.0
 30
0.0
  3
*U24
  1

  0
SOLID
  5
A8A
  8
0
  6
CONTINUOUS
 10
-75.536042059647869
 20
261.73587874972679
 30
0.0
 11
-72.77470937644334
 21
258.76611676311728
 31
0.0
 12
-76.349946883239895
 22
260.67978371805998
 32
0.0
 13
-76.349946883239895
 23
260.67978371805998
 33
0.0
  0
POLYLINE
  5
A8B
  8
0
  6
CONTINUOUS
 66
     1
 10
0.0
 20
0.0
 30
0.0
  0
VERTEX
  5
A8C
  8
0
  6
CONTINUOUS
 10
-75.942994471443882
 20
261.20783123389339
 30
0.0
  0
VERTEX
  5
A8D
  8
0
  6
CONTINUOUS
 10
-114.0
 20
290.53737018861472
 30
0.0
  0
VERTEX
  5
A8E
  8
0
  6
CONTINUOUS
 10
-118.0
 20
290.53737018861472
 30
0.0
  0
SEQEND
  5
A8F
  8
0
  6
CONTINUOUS
  0
ENDBLK
  5
A91
  8
0
  0
BLOCK
  8
0
  2
*U25
 70
     1
 10
0.0
 20
0.0
 30
0.0
  3
*U25
  1

  0
TEXT
  5
A93
  8
0
  6
CONTINUOUS
 10
-152.862210095498
 20
289.09125831958329
 30
0.0
 40
4.0
  1
Grab flashing
  7
EURO_COMMON_RF-WALL-JCTN$0
  0
ENDBLK
  5
A95
  8
0
  0
BLOCK
  8
0
  2
*U26
 70
     1
 10
0.0
 20
0.0
 30
0.0
  3
*U26
  1

  0
SOLID
  5
A9A
  8
0
  6
CONTINUOUS
 10
77.270894843844374
 20
296.85892731472001
 30
0.0
 11
76.959724775664952
 21
292.81570859282118
 31
0.0
 12
75.942760660083678
 22
296.74129497348639
 32
0.0
 13
75.942760660083678
 23
296.74129497348639
 33
0.0
  0
POLYLINE
  5
A9B
  8
0
  6
CONTINUOUS
 66
     1
 10
0.0
 20
0.0
 30
0.0
  0
VERTEX
  5
A9C
  8
0
  6
CONTINUOUS
 10
76.606827751964033
 20
296.80011114410331
 30
0.0
  0
VERTEX
  5
A9D
  8
0
  6
CONTINUOUS
 10
72.693573252066031
 20
340.98291849592619
 30
0.0
  0
VERTEX
  5
A9E
  8
0
  6
CONTINUOUS
 10
68.693573252066031
 20
340.98291849592619
 30
0.0
  0
SEQEND
  5
A9F
  8
0
  6
CONTINUOUS
  0
ENDBLK
  5
AA1
  8
0
  0
BLOCK
  8
0
  2
*U27
 70
     1
 10
0.0
 20
0.0
 30
0.0
  3
*U27
  1

  0
TEXT
  5
AA3
  8
0
  6
CONTINUOUS
 10
58.980067112911883
 20
339.5709130389003
 30
0.0
 40
4.0
  1
Ply
  7
EURO_COMMON_RF-WALL-JCTN$0
  0
ENDBLK
  5
AA5
  8
0
  0
BLOCK
  8
0
  2
*U28
 70
     1
 10
0.0
 20
0.0
 30
0.0
  3
*U28
  1

  0
SOLID
  5
AA7
  8
0
  6
CONTINUOUS
 10
126.35180631183449
 20
311.89002985246361
 30
0.0
 11
128.89550442745349
 21
308.73185880879907
 31
0.0
 12
125.4650318174362
 22
310.89433473152422
 32
0.0
 13
125.4650318174362
 23
310.89433473152422
 33
0.0
  0
POLYLINE
  5
AA8
  8
0
  6
CONTINUOUS
 66
     1
 10
0.0
 20
0.0
 30
0.0
  0
VERTEX
  5
AA9
  8
0
  6
CONTINUOUS
 10
125.9084190646354
 20
311.392182291994
 30
0.0
  0
VERTEX
  5
AAA
  8
0
  6
CONTINUOUS
 10
72.693573252066017
 20
358.7857739623077
 30
0.0
  0
VERTEX
  5
AAB
  8
0
  6
CONTINUOUS
 10
68.693573252066017
 20
358.7857739623077
 30
0.0
  0
SEQEND
  5
AAC
  8
0
  6
CONTINUOUS
  0
ENDBLK
  5
AAE
  8
0
  0
BLOCK
  8
0
  2
*U29
 70
     1
 10
0.0
 20
0.0
 30
0.0
  3
*U29
  1

  0
TEXT
  5
AB0
  8
0
  6
CONTINUOUS
 10
44.379794261615807
 20
357.37376850528182
 30
0.0
 40
4.0
  1
Underlay
  7
EURO_COMMON_RF-WALL-JCTN$0
  0
ENDBLK
  5
AB2
  8
0
  0
BLOCK
  8
0
  2
*U30
 70
     1
 10
0.0
 20
0.0
 30
0.0
  3
*U30
  1

  0
SOLID
  5
AB4
  8
0
  6
CONTINUOUS
 10
136.35507652702009
 20
352.54690331953952
 30
0.0
 11
139.8381601291907
 21
350.47022976196359
 31
0.0
 12
135.8698355679237
 22
351.30500195896661
 32
0.0
 13
135.8698355679237
 23
351.30500195896661
 33
0.0
  0
POLYLINE
  5
AB5
  8
0
  6
CONTINUOUS
 66
     1
 10
0.0
 20
0.0
 30
0.0
  0
VERTEX
  5
AB6
  8
0
  6
CONTINUOUS
 10
136.11245604747191
 20
351.92595263925313
 30
0.0
  0
VERTEX
  5
AB7
  8
0
  6
CONTINUOUS
 10
72.693573252066017
 20
376.70524710614433
 30
0.0
  0
VERTEX
  5
AB8
  8
0
  6
CONTINUOUS
 10
68.693573252066017
 20
376.70524710614433
 30
0.0
  0
SEQEND
  5
AB9
  8
0
  6
CONTINUOUS
  0
ENDBLK
  5
ABB
  8
0
  0
BLOCK
  8
0
  2
*U31
 70
     1
 10
0.0
 20
0.0
 30
0.0
  3
*U31
  1

  0
TEXT
  5
ABD
  8
0
  6
CONTINUOUS
 10
22.920039827782261
 20
374.70524710614433
 30
0.0
 40
4.0
  1
Euroline Seamlok
  7
EURO_COMMON_RF-WALL-JCTN$0
  0
ENDBLK
  5
ABF
  8
0
  0
BLOCK
  8
0
  2
*X32
 70
     1
 10
0.0
 20
0.0
 30
0.0
  3
*X32
  1

  0
LINE
  5
AC1
  8
0
  6
CONTINUOUS
 62
     0
 10
-58.414830709407681
 20
-13.122545295771239
 30
0.0
 11
-47.934128108951647
 21
-31.27565469878029
 31
0.0
  0
LINE
  5
AC2
  8
0
  6
CONTINUOUS
 62
     0
 10
-58.414830709407511
 20
5.9274547042283947
 30
0.0
 11
-40.914830709404498
 21
-24.383434428232061
 31
0.0
  0
LINE
  5
AC3
  8
0
  6
CONTINUOUS
 62
     0
 10
-58.414830709407319
 20
24.97745470422803
 30
0.0
 11
-40.914830709404562
 21
-5.3334344282319961
 31
0.0
  0
LINE
  5
AC4
  8
0
  6
CONTINUOUS
 62
     0
 10
-58.414830709407141
 20
44.027454704227651
 30
0.0
 11
-40.914830709404619
 21
13.71656557176806
 31
0.0
  0
LINE
  5
AC5
  8
0
  6
CONTINUOUS
 62
     0
 10
-58.414830709406971
 20
63.077454704227293
 30
0.0
 11
-40.91483070940469
 21
32.766565571768133
 31
0.0
  0
LINE
  5
AC6
  8
0
  6
CONTINUOUS
 62
     0
 10
-58.414830709406793
 20
82.127454704226906
 30
0.0
 11
-40.914830709404761
 21
51.81656557176818
 31
0.0
  0
LINE
  5
AC7
  8
0
  6
CONTINUOUS
 62
     0
 10
-58.414830709406608
 20
101.17745470422651
 30
0.0
 11
-40.914830709404832
 21
70.866565571768248
 31
0.0
  0
LINE
  5
AC8
  8
0
  6
CONTINUOUS
 62
     0
 10
-58.414830709406431
 20
120.2274547042261
 30
0.0
 11
-40.91483070940491
 21
89.916565571768317
 31
0.0
  0
LINE
  5
AC9
  8
0
  6
CONTINUOUS
 62
     0
 10
-58.41483070940626
 20
139.27745470422579
 30
0.0
 11
-40.914830709404967
 21
108.9665655717684
 31
0.0
  0
LINE
  5
ACA
  8
0
  6
CONTINUOUS
 62
     0
 10
-58.414830709406083
 20
158.3274547042254
 30
0.0
 11
-40.914830709405038
 21
128.01656557176841
 31
0.0
  0
LINE
  5
ACB
  8
0
  6
CONTINUOUS
 62
     0
 10
-58.414830709405891
 20
177.3774547042251
 30
0.0
 11
-40.914830709405088
 21
147.06656557176839
 31
0.0
  0
LINE
  5
ACC
  8
0
  6
CONTINUOUS
 62
     0
 10
-58.414830709405699
 20
196.42745470422469
 30
0.0
 11
-40.914830709405138
 21
166.11656557176849
 31
0.0
  0
LINE
  5
ACD
  8
0
  6
CONTINUOUS
 62
     0
 10
-58.414830709405528
 20
215.47745470422441
 30
0.0
 11
-40.914830709405223
 21
185.16656557176859
 31
0.0
  0
LINE
  5
ACE
  8
0
  6
CONTINUOUS
 62
     0
 10
-54.279198335581299
 20
227.3643293113341
 30
0.0
 11
-40.914830709405287
 21
204.2165655717686
 31
0.0
  0
LINE
  5
ACF
  8
0
  6
CONTINUOUS
 62
     0
 10
-43.280675707518029
 20
227.36432931133251
 30
0.0
 11
-40.914830709405351
 21
223.26656557176869
 31
0.0
  0
ENDBLK
  5
AD1
  8
0
  0
BLOCK
  8
0
  2
*U33
 70
     1
 10
0.0
 20
0.0
 30
0.0
  3
*U33
  1

  0
SOLID
  5
AD3
  8
0
  6
CONTINUOUS
 10
-69.801450107943509
 20
176.2674341020207
 30
0.0
 11
-67.969061484402275
 21
172.6498663588041
 31
0.0
 12
-70.875667288254775
 22
175.4776016974551
 32
0.0
 13
-70.875667288254775
 23
175.4776016974551
 33
0.0
  0
POLYLINE
  5
AD4
  8
0
  6
CONTINUOUS
 66
     1
 10
0.0
 20
0.0
 30
0.0
  0
VERTEX
  5
AD5
  8
0
  6
CONTINUOUS
 10
-70.338558698099149
 20
175.87251789973789
 30
0.0
  0
VERTEX
  5
AD6
  8
0
  6
CONTINUOUS
 10
-114.0
 20
235.25457172854729
 30
0.0
  0
VERTEX
  5
AD7
  8
0
  6
CONTINUOUS
 10
-118.0
 20
235.25457172854729
 30
0.0
  0
SEQEND
  5
AD8
  8
0
  6
CONTINUOUS
  0
ENDBLK
  5
ADA
  8
0
  0
BLOCK
  8
0
  2
*U34
 70
     1
 10
0.0
 20
0.0
 30
0.0
  3
*U34
  1

  0
TEXT
  5
ADC
  8
0
  6
CONTINUOUS
 10
-151.7708049113233
 20
233.80982411599609
 30
0.0
 40
4.0
  1
Lapseal tape
  7
EURO_COMMON_RF-WALL-JCTN$0
  0
ENDBLK
  5
ADE
  8
0
  0
BLOCK
  8
0
  2
*U35
 70
     1
 10
0.0
 20
0.0
 30
0.0
  3
*U35
  1

  0
SOLID
  5
AE5
  8
0
  6
CONTINUOUS
 10
1.2372859548534829
 20
316.41187230495768
 30
0.0
 11
3.0424964921935098
 21
312.78066598194039
 31
0.0
 12
0.1571763656230019
 22
315.63011719430602
 32
0.0
 13
0.1571763656230019
 23
315.63011719430602
 33
0.0
  0
POLYLINE
  5
AE6
  8
0
  6
CONTINUOUS
 66
     1
 10
0.0
 20
0.0
 30
0.0
  0
VERTEX
  5
AE7
  8
0
  6
CONTINUOUS
 10
0.6972311602382426
 20
316.02099474963188
 30
0.0
  0
VERTEX
  5
AE8
  8
0
  6
CONTINUOUS
 10
-17.369557298021601
 20
340.98291849592619
 30
0.0
  0
VERTEX
  5
AE9
  8
0
  6
CONTINUOUS
 10
-21.369557298021601
 20
340.98291849592619
 30
0.0
  0
SEQEND
  5
AEA
  8
0
  6
CONTINUOUS
  0
ENDBLK
  5
AEC
  8
0
  0
BLOCK
  8
0
  2
*U36
 70
     1
 10
0.0
 20
0.0
 30
0.0
  3
*U36
  1

  0
TEXT
  5
AEE
  8
0
  6
CONTINUOUS
 10
-53.585109821896097
 20
339.53817088337507
 30
0.0
 40
4.0
  1
Euroline clip
  7
EURO_COMMON_RF-WALL-JCTN$0
  0
ENDBLK
  5
AF0
  8
0
  0
BLOCK
  8
0
  2
*U37
 70
     1
 10
0.0
 20
0.0
 30
0.0
  3
*U37
  1

  0
SOLID
  5
AF2
  8
0
  6
CONTINUOUS
 10
-22.869610941507911
 20
138.75576850344899
 30
0.0
 11
-25.539616194413881
 21
141.80790159260141
 31
0.0
 12
-22.024054547885839
 22
139.78669632002129
 32
0.0
 13
-22.024054547885839
 23
139.78669632002129
 33
0.0
  0
POLYLINE
  5
AF3
  8
0
  6
CONTINUOUS
 66
     1
 10
0.0
 20
0.0
 30
0.0
  0
VERTEX
  5
AF4
  8
0
  6
CONTINUOUS
 10
-22.446832744696881
 20
139.27123241173521
 30
0.0
  0
VERTEX
  5
AF5
  8
0
  6
CONTINUOUS
 10
-2.084074694877017
 20
122.5699076593862
 30
0.0
  0
VERTEX
  5
AF6
  8
0
  6
CONTINUOUS
 10
1.9159253051229821
 20
122.5699076593862
 30
0.0
  0
SEQEND
  5
AF7
  8
0
  6
CONTINUOUS
  0
ENDBLK
  5
AF9
  8
0
  0
BLOCK
  8
0
  2
*U38
 70
     1
 10
0.0
 20
0.0
 30
0.0
  3
*U38
  1

  0
TEXT
  5
AFB
  8
0
  6
CONTINUOUS
 10
3.6376169831584528
 20
120.5699076593862
 30
0.0
 40
4.0
  1
Cavibat horizontal drained
  7
EURO_COMMON_RF-WALL-JCTN$0
  0
ENDBLK
  5
AFD
  8
0
  0
ENDSEC
  0
SECTION
  2
ENTITIES
  0
LINE
  5
86F
  8
0
  6
CONTINUOUS
 10
-18.914830709405269
 20
-31.275654698780269
 30
0.0
 11
-18.91483070940529
 21
91.646888518292712
 31
0.0
  0
POLYLINE
  5
870
  8
0
  6
CONTINUOUS
 66
     1
 10
0.0
 20
0.0
 30
0.0
 70
   128
  0
VERTEX
  5
9E7
  8
0
  6
CONTINUOUS
 10
81.085169290593527
 20
-31.275654698780269
 30
0.0
  0
VERTEX
  5
9E8
  8
0
  6
CONTINUOUS
 10
81.085169290593043
 20
77.030760545000717
 30
0.0
  0
SEQEND
  5
9E9
  8
0
  6
CONTINUOUS
  0
POLYLINE
  5
871
  8
0
  6
CONTINUOUS
 66
     1
 10
0.0
 20
0.0
 30
0.0
  0
VERTEX
  5
872
  8
0
  6
CONTINUOUS
 10
-124.3612525672424
 20
-31.275654698780269
 30
0.0
  0
VERTEX
  5
873
  8
0
  6
CONTINUOUS
 10
-15.77334131341467
 20
-31.275654698780269
 30
0.0
  0
VERTEX
  5
874
  8
0
  6
CONTINUOUS
 10
-13.27334131341467
 20
-38.144348247420567
 30
0.0
  0
VERTEX
  5
875
  8
0
  6
CONTINUOUS
 10
-8.2733413134146758
 20
-24.406961150139981
 30
0.0
  0
VERTEX
  5
876
  8
0
  6
CONTINUOUS
 10
-5.7733413134146749
 20
-31.275654698780269
 30
0.0
  0
VERTEX
  5
877
  8
0
  6
CONTINUOUS
 10
116.936494083854
 20
-31.275654698780269
 30
0.0
  0
SEQEND
  5
878
  8
0
  6
CONTINUOUS
  0
LINE
  5
879
  8
0
  6
CONTINUOUS
 10
159.38414698145161
 20
253.3023354469596
 30
0.0
 11
-18.914830709405209
 21
205.52726836339971
 31
0.0
  0
POLYLINE
  5
87A
  8
0
  6
CONTINUOUS
 66
     1
 10
0.0
 20
0.0
 30
0.0
  0
VERTEX
  5
87B
  8
0
  6
CONTINUOUS
 10
159.38414698145161
 20
388.66209167442571
 30
0.0
  0
VERTEX
  5
87C
  8
0
  6
CONTINUOUS
 10
159.38414698145161
 20
228.3510659676565
 30
0.0
  0
VERTEX
  5
87D
  8
0
  6
CONTINUOUS
 10
166.2528405300919
 20
225.85106596765641
 30
0.0
  0
VERTEX
  5
87E
  8
0
  6
CONTINUOUS
 10
152.51545343281131
 20
220.85106596765641
 30
0.0
  0
VERTEX
  5
87F
  8
0
  6
CONTINUOUS
 10
159.38414698145161
 20
218.35106596765641
 30
0.0
  0
VERTEX
  5
880
  8
0
  6
CONTINUOUS
 10
159.38414698145161
 20
62.277549056920797
 30
0.0
  0
SEQEND
  5
881
  8
0
  6
CONTINUOUS
  0
POLYLINE
  5
882
  8
0
  6
CONTINUOUS
 66
     1
 10
0.0
 20
0.0
 30
0.0
 70
   128
  0
VERTEX
  5
9EA
  8
0
  6
CONTINUOUS
 10
-40.914830709404427
 20
-31.275654698780261
 30
0.0
  0
VERTEX
  5
9EB
  8
0
  6
CONTINUOUS
 10
-40.914830709405358
 20
227.36432931133211
 30
0.0
  0
VERTEX
  5
9EC
  8
0
  6
CONTINUOUS
 10
-58.414830709405379
 20
227.3643293113345
 30
0.0
  0
VERTEX
  5
9ED
  8
0
  6
CONTINUOUS
 10
-58.414830709407831
 20
-31.275654698780251
 30
0.0
  0
SEQEND
  5
9EE
  8
0
  6
CONTINUOUS
  0
POLYLINE
  5
884
  8
0
  6
CONTINUOUS
 66
     1
 10
0.0
 20
0.0
 30
0.0
 70
   128
  0
VERTEX
  5
9EF
  8
0
  6
CONTINUOUS
 10
159.38414698145161
 20
296.78393280228431
 30
0.0
  0
VERTEX
  5
9F0
  8
0
  6
CONTINUOUS
 10
-87.436608680674425
 20
230.64851064737971
 30
0.0
  0
VERTEX
  5
9F1
  8
0
  6
CONTINUOUS
 10
-91.965941969970913
 20
247.5522126074377
 30
0.0
  0
VERTEX
  5
9F2
  8
0
  6
CONTINUOUS
 10
159.38414698145161
 20
314.9012659594643
 30
0.0
  0
SEQEND
  5
9F3
  8
0
  6
CONTINUOUS
  0
POLYLINE
  5
885
  8
0
 66
     1
 10
0.0
 20
0.0
 30
0.0
 70
   128
  0
VERTEX
  5
9F4
  8
0
 10
-60.414830709410481
 20
227.3643293113353
 30
0.0
  0
VERTEX
  5
9F5
  8
0
 10
-60.414830709407951
 20
-31.275654698780301
 30
0.0
  0
SEQEND
  5
9F6
  8
0
  0
POLYLINE
  5
886
  8
0
  6
CONTINUOUS
 66
     1
 10
0.0
 20
0.0
 30
0.0
 70
   128
 40
0.5999999999999999
 41
0.5999999999999999
  0
VERTEX
  5
9F7
  8
0
  6
CONTINUOUS
 10
-70.082778321412164
 20
179.84110645305381
 30
0.0
  0
VERTEX
  5
9F8
  8
0
  6
CONTINUOUS
 10
-70.082778321412164
 20
150.4586262645544
 30
0.0
 42
-0.4142135623730922
  0
VERTEX
  5
9F9
  8
0
  6
CONTINUOUS
 10
-72.58277832141215
 20
147.9586262645544
 30
0.0
  0
VERTEX
  5
9FA
  8
0
  6
CONTINUOUS
 10
-94.289830709394138
 20
147.9586262645542
 30
0.0
 42
0.4142135623730949
  0
VERTEX
  5
9FB
  8
0
  6
CONTINUOUS
 10
-95.789830709394707
 20
146.4586262645563
 30
0.0
  0
VERTEX
  5
9FC
  8
0
  6
CONTINUOUS
 10
-95.78983070939546
 20
120.02364802970931
 30
0.0
  0
SEQEND
  5
9FD
  8
0
  6
CONTINUOUS
  0
POLYLINE
  5
888
  8
0
 66
     1
 10
0.0
 20
0.0
 30
0.0
 70
     1
  0
VERTEX
  5
9FE
  8
0
 10
-63.969061484402239
 20
172.6498663588041
 30
0.0
  0
VERTEX
  5
9FF
  8
0
 10
-63.969061484402552
 20
157.64986635880399
 30
0.0
  0
VERTEX
  5
A00
  8
0
 10
-67.969061484402573
 20
157.6498663588041
 30
0.0
  0
VERTEX
  5
A01
  8
0
 10
-67.969061484402275
 20
172.6498663588041
 30
0.0
  0
SEQEND
  5
A02
  8
0
  0
INSERT
  5
889
  8
0
  6
CONTINUOUS
  2
*U8
 10
0.0
 20
0.0
 30
0.0
  0
INSERT
  5
88A
  8
0
  6
CONTINUOUS
  2
*U9
 10
0.0
 20
0.0
 30
0.0
  0
INSERT
  5
88B
  8
0
  6
CONTINUOUS
  2
*U10
 10
0.0
 20
0.0
 30
0.0
  0
INSERT
  5
88C
  8
0
  6
CONTINUOUS
  2
*U11
 10
0.0
 20
0.0
 30
0.0
  0
INSERT
  5
88D
  8
0
  6
CONTINUOUS
  2
*U12
 10
0.0
 20
0.0
 30
0.0
  0
INSERT
  5
88E
  8
0
  6
CONTINUOUS
  2
*U13
 10
0.0
 20
0.0
 30
0.0
  0
INSERT
  5
88F
  8
0
  6
CONTINUOUS
  2
*U14
 10
0.0
 20
0.0
 30
0.0
  0
INSERT
  5
890
  8
0
  6
CONTINUOUS
  2
*U15
 10
0.0
 20
0.0
 30
0.0
  0
INSERT
  5
891
  8
0
  6
CONTINUOUS
  2
*U16
 10
0.0
 20
0.0
 30
0.0
  0
INSERT
  5
892
  8
0
  6
CONTINUOUS
  2
*U17
 10
0.0
 20
0.0
 30
0.0
  0
INSERT
  5
893
  8
0
  6
CONTINUOUS
  2
*U18
 10
0.0
 20
0.0
 30
0.0
  0
INSERT
  5
894
  8
0
  6
CONTINUOUS
  2
*U19
 10
0.0
 20
0.0
 30
0.0
  0
INSERT
  5
895
  8
0
  6
CONTINUOUS
  2
*U20
 10
0.0
 20
0.0
 30
0.0
  0
INSERT
  5
896
  8
0
  6
CONTINUOUS
  2
*U21
 10
0.0
 20
0.0
 30
0.0
  0
LINE
  5
897
  8
0
  6
CONTINUOUS
 10
159.38414698145161
 20
98.010908385448374
 30
0.0
 11
-18.914830709405319
 21
50.235841301889359
 31
0.0
  0
LINE
  5
898
  8
0
  6
CONTINUOUS
 10
-18.91483070940529
 20
91.646888518292712
 30
0.0
 11
-18.914830709405209
 21
205.52726836339971
 31
0.0
  0
POLYLINE
  5
899
  8
0
 66
     1
 10
0.0
 20
0.0
 30
0.0
 70
   128
 40
0.5
 41
0.5
  0
VERTEX
  5
A5F
  8
0
 10
-47.416764688081713
 20
265.5607575640766
 30
0.0
  0
VERTEX
  5
A60
  8
0
 10
-76.067434468412642
 20
257.88383373382652
 30
0.0
  0
VERTEX
  5
A61
  8
0
 10
-81.731700545078496
 20
258.20428866389148
 30
0.0
  0
VERTEX
  5
A62
  8
0
 10
-91.561641430950019
 20
255.57036394187659
 30
0.0
  0
SEQEND
  5
A63
  8
0
  0
POLYLINE
  5
89A
  8
0
  6
CONTINUOUS
 66
     1
 10
0.0
 20
0.0
 30
0.0
 70
   128
 40
0.5
 41
0.5
  0
VERTEX
  5
A64
  8
0
  6
CONTINUOUS
 10
-93.789830709395545
 20
130.0955445068378
 30
0.0
  0
VERTEX
  5
A65
  8
0
  6
CONTINUOUS
 10
-93.789830709395545
 20
120.0955445068378
 30
0.0
 42
-0.9999999999999998
  0
VERTEX
  5
A66
  8
0
  6
CONTINUOUS
 10
-97.994459840840165
 20
120.0955445068378
 30
0.0
  0
VERTEX
  5
A67
  8
0
  6
CONTINUOUS
 10
-97.994459840842879
 20
248.09018752291979
 30
0.0
  0
VERTEX
  5
A68
  8
0
  6
CONTINUOUS
 10
-97.994459840842936
 20
248.09018752291999
 30
0.0
 42
-0.3394542588633778
  0
VERTEX
  5
A69
  8
0
  6
CONTINUOUS
 10
-96.141507453599203
 20
250.50500208864261
 30
0.0
  0
VERTEX
  5
A6A
  8
0
  6
CONTINUOUS
 10
-10.842166958268789
 20
273.36089148927311
 30
0.0
 42
0.9999999999999923
  0
VERTEX
  5
A6B
  8
0
  6
CONTINUOUS
 10
-11.342166958268759
 20
275.22691689305742
 30
0.0
  0
VERTEX
  5
A6C
  8
0
  6
CONTINUOUS
 10
-20.711140706311848
 20
272.71650794336102
 30
0.0
  0
SEQEND
  5
A6D
  8
0
  6
CONTINUOUS
  0
POLYLINE
  5
89B
  8
0
  6
CONTINUOUS
 66
     1
 10
0.0
 20
0.0
 30
0.0
 70
   128
 40
0.5
 41
0.5
  0
VERTEX
  5
A6E
  8
0
  6
CONTINUOUS
 10
159.38414698145161
 20
324.64927574199282
 30
0.0
  0
VERTEX
  5
A6F
  8
0
  6
CONTINUOUS
 10
-92.021189043705704
 20
257.28541898117771
 30
0.0
 42
0.9999999999999959
  0
VERTEX
  5
A70
  8
0
  6
CONTINUOUS
 10
-91.102093818194348
 20
253.8553089025755
 30
0.0
  0
VERTEX
  5
A71
  8
0
  6
CONTINUOUS
 10
-81.731700545078496
 20
256.36609821286879
 30
0.0
  0
SEQEND
  5
A72
  8
0
  6
CONTINUOUS
  0
POLYLINE
  5
89C
  8
0
  6
CONTINUOUS
 66
     1
 10
0.0
 20
0.0
 30
0.0
 70
   128
  0
VERTEX
  5
A73
  8
0
  6
CONTINUOUS
 10
159.38414698145161
 20
355.7075611542964
 30
0.0
  0
VERTEX
  5
A74
  8
0
  6
CONTINUOUS
 10
-91.965941969970785
 20
288.3585078022715
 30
0.0
  0
VERTEX
  5
A75
  8
0
  6
CONTINUOUS
 10
-91.965941969970785
 20
257.30022238996912
 30
0.0
  0
SEQEND
  5
A76
  8
0
  6
CONTINUOUS
  0
POLYLINE
  5
89D
  8
0
  6
CONTINUOUS
 66
     1
 10
0.0
 20
0.0
 30
0.0
 70
   128
 40
0.5
 41
0.5
  0
VERTEX
  5
A77
  8
0
  6
CONTINUOUS
 10
-61.965941969970011
 20
-31.275654698780269
 30
0.0
  0
VERTEX
  5
A78
  8
0
  6
CONTINUOUS
 10
-61.965941969970856
 20
227.36432931133561
 30
0.0
  0
VERTEX
  5
A79
  8
0
  6
CONTINUOUS
 10
-91.965941969970913
 20
227.36432931133839
 30
0.0
  0
SEQEND
  5
A7A
  8
0
  6
CONTINUOUS
  0
INSERT
  5
89E
  8
0
  6
CONTINUOUS
  2
*U22
 10
0.0
 20
0.0
 30
0.0
  0
INSERT
  5
89F
  8
0
  6
CONTINUOUS
  2
*U23
 10
0.0
 20
0.0
 30
0.0
  0
INSERT
  5
8A0
  8
0
  6
CONTINUOUS
  2
*U24
 10
0.0
 20
0.0
 30
0.0
  0
INSERT
  5
8A1
  8
0
  6
CONTINUOUS
  2
*U25
 10
0.0
 20
0.0
 30
0.0
  0
POLYLINE
  5
8A2
  8
0
 66
     1
 10
0.0
 20
0.0
 30
0.0
 70
   128
  0
VERTEX
  5
A96
  8
0
 10
-92.465941969971183
 20
249.41823801122209
 30
0.0
  0
VERTEX
  5
A97
  8
0
 10
159.38414698145161
 20
316.90126595946418
 30
0.0
  0
SEQEND
  5
A98
  8
0
  0
INSERT
  5
8A3
  8
0
  6
CONTINUOUS
  2
*U26
 10
0.0
 20
0.0
 30
0.0
  0
INSERT
  5
8A4
  8
0
  6
CONTINUOUS
  2
*U27
 10
0.0
 20
0.0
 30
0.0
  0
INSERT
  5
8A5
  8
0
  6
CONTINUOUS
  2
*U28
 10
0.0
 20
0.0
 30
0.0
  0
INSERT
  5
8A6
  8
0
  6
CONTINUOUS
  2
*U29
 10
0.0
 20
0.0
 30
0.0
  0
INSERT
  5
8A7
  8
0
  6
CONTINUOUS
  2
*U30
 10
0.0
 20
0.0
 30
0.0
  0
INSERT
  5
8A8
  8
0
  6
CONTINUOUS
  2
*U31
 10
0.0
 20
0.0
 30
0.0
  0
INSERT
  5
8A9
  8
0
  6
CONTINUOUS
  2
*X32
 10
0.0
 20
0.0
 30
0.0
1001
ACAD
1000
HATCH
1002
{
1070
    19
1000
ANSI31
1040
3.0
1040
4.4505895925855423
1000
R14_HATCH_DATA
1000
8A9
1011
1.0
1021
0.0
1031
0.0
1021
0.0
1031
0.0
1011
0.0
1021
0.0
1031
0.0
1021
1.0
1031
0.0
1011
0.0
1021
0.0
1031
0.0
1021
0.0
1031
1.0
1040
0.0
1010
0.0
1020
0.0
1030
1.0
1000
ANSI31
1070
     0
1070
     0
1071
        1
1071
        1
1071
        4
1070
     1
1040
-58.414830709407823
1040
-31.275654698780269
1040
-40.914830709404441
1040
-31.275654698780269
1070
     1
1040
-40.914830709404441
1040
-31.275654698780269
1040
-40.914830709405358
1040
227.36432931133211
1070
     1
1040
-40.914830709405358
1040
227.36432931133211
1040
-58.4148307094054
1040
227.3643293113345
1070
     1
1040
-58.4148307094054
1040
227.3643293113345
1040
-58.414830709407823
1040
-31.275654698780301
1071
        0
1070
     0
1070
     1
1040
4.4505895925855423
1040
3.0
1070
     0
1070
     1
1040
5.2359877559829897
1040
0.0
1040
0.0
1040
8.2488919710467687
1040
4.7625000000000126
1070
     0
1071
        1
1040
-49.249163459641288
1040
47.903327535630517
1040
0.0
1002
}
  0
INSERT
  5
8AB
  8
0
  6
CONTINUOUS
  2
*U33
 10
0.0
 20
0.0
 30
0.0
  0
INSERT
  5
8AC
  8
0
  6
CONTINUOUS
  2
*U34
 10
0.0
 20
0.0
 30
0.0
  0
POLYLINE
  5
8B0
  8
0
  6
CONTINUOUS
 66
     1
 10
0.0
 20
0.0
 30
0.0
 70
     1
  0
VERTEX
  5
ADF
  8
0
  6
CONTINUOUS
 10
0.1020149569578166
 20
281.9697570973226
 30
0.0
  0
VERTEX
  5
AE0
  8
0
  6
CONTINUOUS
 10
19.4205314827392
 20
287.14613799937302
 30
0.0
  0
VERTEX
  5
AE1
  8
0
  6
CONTINUOUS
 10
11.91477917476597
 20
315.15798696175642
 30
0.0
  0
VERTEX
  5
AE2
  8
0
  6
CONTINUOUS
 10
-7.4037373510153648
 20
309.981606059706
 30
0.0
  0
SEQEND
  5
AE3
  8
0
  6
CONTINUOUS
  0
INSERT
  5
8B2
  8
0
  6
CONTINUOUS
  2
*U35
 10
0.0
 20
0.0
 30
0.0
  0
INSERT
  5
8B3
  8
0
  6
CONTINUOUS
  2
*U36
 10
0.0
 20
0.0
 30
0.0
  0
INSERT
  5
8B4
  8
0
  6
CONTINUOUS
  2
*U37
 10
0.0
 20
0.0
 30
0.0
  0
INSERT
  5
8B5
  8
0
  6
CONTINUOUS
  2
*U38
 10
0.0
 20
0.0
 30
0.0
  0
POLYLINE
  5
8B6
  8
0
  6
CONTINUOUS
 66
     1
 10
0.0
 20
0.0
 30
0.0
 70
   128
  0
VERTEX
  5
AFE
  8
0
  6
CONTINUOUS
 10
-91.965941969970913
 20
227.36432931133839
 30
0.0
  0
VERTEX
  5
AFF
  8
0
  6
CONTINUOUS
 10
-91.965941969971965
 20
-31.275654698780361
 30
0.0
  0
SEQEND
  5
B00
  8
0
  6
CONTINUOUS
  0
LINE
  5
8B7
  8
0
 10
-66.486573919907642
 20
167.59986635880409
 30
0.0
 11
-3.4527765517576081
 21
167.39653184570079
 31
0.0
1001
ACDBBLOCKREPETAG
1070
     1
1071
        0
1005
8B7
  0
LINE
  5
8B8
  8
0
 10
-66.48657391990784
 20
162.69986635880409
 30
0.0
 11
-3.4527765517571112
 21
162.90320087190739
 31
0.0
1001
ACDBBLOCKREPETAG
1070
     1
1071
        1
1005
8B8
  0
LINE
  5
8B9
  8
0
 10
-0.0827783214120785
 20
165.1498663588041
 30
0.0
 11
-3.4527765517571112
 21
162.90320087190739
 31
0.0
1001
ACDBBLOCKREPETAG
1070
     1
1071
        2
1005
8B9
  0
LINE
  5
8BA
  8
0
 10
-0.0827783214120785
 20
165.1498663588041
 30
0.0
 11
-3.4527765517576081
 21
167.39653184570079
 31
0.0
1001
ACDBBLOCKREPETAG
1070
     1
1071
        3
1005
8BA
  0
LINE
  5
8BB
  8
0
 10
-9.4591815641400032
 20
162.88382540208511
 30
0.0
 11
-10.18818024377623
 21
167.4182589204996
 31
0.0
1001
ACDBBLOCKREPETAG
1070
     1
1071
        6
1005
8BB
  0
LINE
  5
8BC
  8
0
 10
-1.437625433266603
 20
164.2466349509011
 30
0.0
 11
-1.6523738133251411
 21
165.58238805960019
 31
0.0
1001
ACDBBLOCKREPETAG
1070
     1
1071
        7
1005
8BC
  0
LINE
  5
8BD
  8
0
 10
-0.0827783214120785
 20
165.1498663588041
 30
0.0
 11
-8.2924479262314676
 21
167.41214366449631
 31
0.0
1001
ACDBBLOCKREPETAG
1070
     1
1071
        8
1005
8BD
  0
LINE
  5
8BE
  8
0
 10
-8.1085288990490252
 20
162.88818233937101
 30
0.0
 11
-8.8361259263806247
 21
167.41389746176159
 31
0.0
1001
ACDBBLOCKREPETAG
1070
     1
1071
       10
1005
8BE
  0
LINE
  5
8BF
  8
0
 10
-6.7578762339572691
 20
162.892539276657
 30
0.0
 11
-7.4470374195248183
 21
167.17918020855001
 31
0.0
1001
ACDBBLOCKREPETAG
1070
     1
1071
       12
1005
8BF
  0
LINE
  5
8C0
  8
0
 10
-5.4072235688675638
 20
162.89689621394291
 30
0.0
 11
-6.0330413620222174
 21
166.7895358811646
 31
0.0
1001
ACDBBLOCKREPETAG
1070
     1
1071
       14
1005
8C0
  0
LINE
  5
8C1
  8
0
 10
-4.0565709037761897
 20
162.90125315122879
 30
0.0
 11
-4.6190453045195019
 21
166.3998915537791
 31
0.0
1001
ACDBBLOCKREPETAG
1070
     1
1071
       16
1005
8C1
  0
LINE
  5
8C2
  8
0
 10
-2.777867449648368
 20
163.35314027331319
 30
0.0
 11
-3.205049247017171
 21
166.0102472263938
 31
0.0
1001
ACDBBLOCKREPETAG
1070
     1
1071
       18
1005
8C2
  0
LINE
  5
8C3
  8
0
 10
-66.48657391990784
 20
162.69986635880409
 30
0.0
 11
-67.162982019556367
 21
162.69986635880409
 31
0.0
1001
ACDBBLOCKREPETAG
1070
     1
1071
       20
1005
8C3
  0
LINE
  5
8C4
  8
0
 10
-67.162982019556367
 20
162.69986635880409
 30
0.0
 11
-70.082778321411965
 21
160.2498663588043
 31
0.0
1001
ACDBBLOCKREPETAG
1070
     1
1071
       22
1005
8C4
  0
LINE
  5
8C5
  8
0
 10
-70.082778321411965
 20
160.2498663588043
 30
0.0
 11
-70.397985729653854
 21
160.2498663588043
 31
0.0
1001
ACDBBLOCKREPETAG
1070
     1
1071
       23
1005
8C5
  0
LINE
  5
8C6
  8
0
 10
-70.397985729653854
 20
160.2498663588043
 30
0.0
 11
-70.397985729653811
 21
170.04986635880411
 31
0.0
1001
ACDBBLOCKREPETAG
1070
     1
1071
       24
1005
8C6
  0
LINE
  5
8C7
  8
0
 10
-70.082778321412164
 20
160.2498663588041
 30
0.0
 11
-70.082778321412221
 21
170.04986635880411
 31
0.0
1001
ACDBBLOCKREPETAG
1070
     1
1071
       25
1005
8C7
  0
LINE
  5
8C8
  8
0
 10
-70.082778321411908
 20
170.04986635880411
 30
0.0
 11
-70.397985729653811
 21
170.04986635880411
 31
0.0
1001
ACDBBLOCKREPETAG
1070
     1
1071
       27
1005
8C8
  0
LINE
  5
8C9
  8
0
 10
-67.162982019556367
 20
167.59986635880409
 30
0.0
 11
-67.162982019556367
 21
162.69986635880409
 31
0.0
1001
ACDBBLOCKREPETAG
1070
     1
1071
       28
1005
8C9
  0
LINE
  5
8CA
  8
0
 10
-16.212444889594941
 20
162.8620407156553
 30
0.0
 11
-16.94845183075288
 21
167.4400662141893
 31
0.0
1001
ACDBBLOCKREPETAG
1070
     1
1071
       30
1005
8CA
  0
LINE
  5
8CB
  8
0
 10
-14.86179222450413
 20
162.86639765294129
 30
0.0
 11
-15.596397513357219
 21
167.4357047554513
 31
0.0
1001
ACDBBLOCKREPETAG
1070
     1
1071
       32
1005
8CB
  0
LINE
  5
8CC
  8
0
 10
-13.511139559412239
 20
162.87075459022719
 30
0.0
 11
-14.244343195962699
 21
167.43134329671341
 31
0.0
1001
ACDBBLOCKREPETAG
1070
     1
1071
       34
1005
8CC
  0
LINE
  5
8CD
  8
0
 10
-12.16048689432245
 20
162.87511152751321
 30
0.0
 11
-12.892288878566831
 21
167.42698183797549
 31
0.0
1001
ACDBBLOCKREPETAG
1070
     1
1071
       36
1005
8CD
  0
LINE
  5
8CE
  8
0
 10
-10.809834229231461
 20
162.87946846479909
 30
0.0
 11
-11.54023456117096
 21
167.42262037923749
 31
0.0
1001
ACDBBLOCKREPETAG
1070
     1
1071
       38
1005
8CE
  0
LINE
  5
8CF
  8
0
 10
-22.922535012196011
 20
162.84039529740471
 30
0.0
 11
-23.665505411484769
 21
167.461734095173
 31
0.0
1001
ACDBBLOCKREPETAG
1070
     1
1071
       46
1005
8CF
  0
LINE
  5
8D0
  8
0
 10
-21.571882347105038
 20
162.8447522346907
 30
0.0
 11
-22.31345109408916
 21
167.45737263643511
 31
0.0
1001
ACDBBLOCKREPETAG
1070
     1
1071
       48
1005
8D0
  0
LINE
  5
8D1
  8
0
 10
-20.221229682013281
 20
162.84910917197661
 30
0.0
 11
-20.961396776694091
 21
167.45301117769719
 31
0.0
1001
ACDBBLOCKREPETAG
1070
     1
1071
       50
1005
8D1
  0
LINE
  5
8D2
  8
0
 10
-18.87057701692359
 20
162.85346610926251
 30
0.0
 11
-19.609342459298411
 21
167.44864971895919
 31
0.0
1001
ACDBBLOCKREPETAG
1070
     1
1071
       52
1005
8D2
  0
LINE
  5
8D3
  8
0
 10
-17.519924351832181
 20
162.8578230465485
 30
0.0
 11
-18.25728814190272
 21
167.4442882602213
 31
0.0
1001
ACDBBLOCKREPETAG
1070
     1
1071
       54
1005
8D3
  0
LINE
  5
8D4
  8
0
 10
-29.675798337650971
 20
162.81861061097501
 30
0.0
 11
-30.425776998461419
 21
167.4835413888627
 31
0.0
1001
ACDBBLOCKREPETAG
1070
     1
1071
       56
1005
8D4
  0
LINE
  5
8D5
  8
0
 10
-28.325145672560161
 20
162.82296754826089
 30
0.0
 11
-29.07372268106576
 21
167.47917993012479
 31
0.0
1001
ACDBBLOCKREPETAG
1070
     1
1071
       58
1005
8D5
  0
LINE
  5
8D6
  8
0
 10
-26.974493007468251
 20
162.82732448554691
 30
0.0
 11
-27.72166836367127
 21
167.4748184713869
 31
0.0
1001
ACDBBLOCKREPETAG
1070
     1
1071
       60
1005
8D6
  0
LINE
  5
8D7
  8
0
 10
-25.623840342378472
 20
162.8316814228329
 30
0.0
 11
-26.36961404627537
 21
167.47045701264889
 31
0.0
1001
ACDBBLOCKREPETAG
1070
     1
1071
       62
1005
8D7
  0
LINE
  5
8D8
  8
0
 10
-24.273187677287488
 20
162.83603836011881
 30
0.0
 11
-25.017559728879501
 21
167.466095553911
 31
0.0
1001
ACDBBLOCKREPETAG
1070
     1
1071
       64
1005
8D8
  0
LINE
  5
8D9
  8
0
 10
-36.422803861531683
 20
162.79684611097051
 30
0.0
 11
-37.179784289772343
 21
167.5053284751786
 31
0.0
1001
ACDBBLOCKREPETAG
1070
     1
1071
       77
1005
8D9
  0
LINE
  5
8DA
  8
0
 10
-35.072151196440871
 20
162.80120304825641
 30
0.0
 11
-35.827729972376673
 21
167.5009670164406
 31
0.0
1001
ACDBBLOCKREPETAG
1070
     1
1071
       79
1005
8DA
  0
LINE
  5
8DB
  8
0
 10
-33.721498531348978
 20
162.8055599855424
 30
0.0
 11
-34.475675654982183
 21
167.49660555770271
 31
0.0
1001
ACDBBLOCKREPETAG
1070
     1
1071
       81
1005
8DB
  0
LINE
  5
8DC
  8
0
 10
-32.370845866259188
 20
162.80991692282831
 30
0.0
 11
-33.123621337586272
 21
167.49224409896479
 31
0.0
1001
ACDBBLOCKREPETAG
1070
     1
1071
       83
1005
8DC
  0
LINE
  5
8DD
  8
0
 10
-31.020193201168219
 20
162.8142738601143
 30
0.0
 11
-31.7715670201904
 21
167.48788264022679
 31
0.0
1001
ACDBBLOCKREPETAG
1070
     1
1071
       85
1005
8DD
  0
LINE
  5
8DE
  8
0
 10
-41.854443721538658
 20
162.77932471939329
 30
0.0
 11
-42.617060884317361
 21
167.5228680497421
 31
0.0
1001
ACDBBLOCKREPETAG
1070
     1
1071
       88
1005
8DE
  0
LINE
  5
8DF
  8
0
 10
-40.50379105644911
 20
162.78368165667919
 30
0.0
 11
-41.265006566921912
 21
167.5185065910041
 31
0.0
1001
ACDBBLOCKREPETAG
1070
     1
1071
       90
1005
8DF
  0
LINE
  5
8E0
  8
0
 10
-39.15313839135743
 20
162.78803859396521
 30
0.0
 11
-39.912952249526882
 21
167.51414513226621
 31
0.0
1001
ACDBBLOCKREPETAG
1070
     1
1071
       92
1005
8E0
  0
LINE
  5
8E1
  8
0
 10
-37.80248572626688
 20
162.79239553125109
 30
0.0
 11
-38.560897932131297
 21
167.50978367352829
 31
0.0
1001
ACDBBLOCKREPETAG
1070
     1
1071
       94
1005
8E1
  0
LINE
  5
8E2
  8
0
 10
-45.900143915238161
 20
162.76627409396059
 30
0.0
 11
-46.666959540837787
 21
167.53593221858199
 31
0.0
1001
ACDBBLOCKREPETAG
1070
     1
1071
      105
1005
8E2
  0
LINE
  5
8E3
  8
0
 10
-44.549491250147597
 20
162.77063103124661
 30
0.0
 11
-45.314905223442203
 21
167.5315707598441
 31
0.0
1001
ACDBBLOCKREPETAG
1070
     1
1071
      107
1005
8E3
  0
LINE
  5
8E4
  8
0
 10
-43.198838585056528
 20
162.77498796853251
 30
0.0
 11
-43.962850906046839
 21
167.52720930110621
 31
0.0
1001
ACDBBLOCKREPETAG
1070
     1
1071
      109
1005
8E4
  0
LINE
  5
8E5
  8
0
 10
-49.911607299995339
 20
162.75333390967489
 30
0.0
 11
-50.682585858851603
 21
167.5488858316638
 31
0.0
1001
ACDBBLOCKREPETAG
1070
     1
1071
      112
1005
8E5
  0
LINE
  5
8E6
  8
0
 10
-48.560954634904533
 20
162.75769084696091
 30
0.0
 11
-49.330531541455947
 21
167.54452437292579
 31
0.0
1001
ACDBBLOCKREPETAG
1070
     1
1071
      114
1005
8E6
  0
LINE
  5
8E7
  8
0
 10
-47.204044168238347
 20
162.76206797067201
 30
0.0
 11
-47.972212928395223
 21
167.54014270681401
 31
0.0
1001
ACDBBLOCKREPETAG
1070
     1
1071
      123
1005
8E7
  0
LINE
  5
8E8
  8
0
 10
-55.307960158785249
 20
162.7359263469564
 30
0.0
 11
-56.084538832766853
 21
167.56631145924169
 31
0.0
1001
ACDBBLOCKREPETAG
1070
     1
1071
      125
1005
8E8
  0
LINE
  5
8E9
  8
0
 10
-53.957307493693342
 20
162.74028328424231
 30
0.0
 11
-54.732484515372391
 21
167.56195000050371
 31
0.0
1001
ACDBBLOCKREPETAG
1070
     1
1071
      127
1005
8E9
  0
LINE
  5
8EA
  8
0
 10
-52.606654828603581
 20
162.7446402215283
 30
0.0
 11
-53.380430197976459
 21
167.5575885417658
 31
0.0
1001
ACDBBLOCKREPETAG
1070
     1
1071
      129
1005
8EA
  0
LINE
  5
8EB
  8
0
 10
-51.256002163512598
 20
162.74899715881421
 30
0.0
 11
-52.02837588058059
 21
167.55322708302791
 31
0.0
1001
ACDBBLOCKREPETAG
1070
     1
1071
      131
1005
8EB
  0
LINE
  5
8EC
  8
0
 10
-66.48657391990784
 20
167.59986635880409
 30
0.0
 11
-67.162982019556367
 21
167.59986635880409
 31
0.0
1001
ACDBBLOCKREPETAG
1070
     1
1071
      132
1005
8EC
  0
LINE
  5
8ED
  8
0
 10
-67.162982019556367
 20
167.59986635880409
 30
0.0
 11
-70.082778321411965
 21
170.04986635880391
 31
0.0
1001
ACDBBLOCKREPETAG
1070
     1
1071
      133
1005
8ED
  0
LINE
  5
8EE
  8
0
 10
13.11864019116747
 20
281.73448656024419
 30
0.0
 11
26.650592942538619
 21
230.45163602873271
 31
0.0
1001
ACDBBLOCKREPETAG
1070
     1
1071
        0
1005
8EE
  0
LINE
  5
8EF
  8
0
 10
8.3856036423513416
 20
280.46627323924201
 30
0.0
 11
22.30495809270597
 21
229.2992791487691
 31
0.0
1001
ACDBBLOCKREPETAG
1070
     1
1071
        1
1005
8EF
  0
LINE
  5
8F0
  8
0
 10
25.35422537612941
 20
226.61949566163551
 30
0.0
 11
22.30495809270597
 21
229.2992791487691
 31
0.0
1001
ACDBBLOCKREPETAG
1070
     1
1071
        2
1005
8F0
  0
LINE
  5
8F1
  8
0
 10
25.35422537612941
 20
226.61949566163551
 30
0.0
 11
26.650592942538619
 21
230.45163602873271
 31
0.0
1001
ACDBBLOCKREPETAG
1070
     1
1071
        3
1005
8F1
  0
LINE
  5
8F2
  8
0
 10
20.73065643023569
 20
235.08634952962191
 30
0.0
 11
24.931070598267478
 21
236.96821268156771
 31
0.0
1001
ACDBBLOCKREPETAG
1070
     1
1071
        6
1005
8F2
  0
LINE
  5
8F3
  8
0
 10
24.131110596370348
 20
227.69440398714889
 30
0.0
 11
25.365768050944659
 21
228.24755333768741
 31
0.0
1001
ACDBBLOCKREPETAG
1070
     1
1071
        7
1005
8F3
  0
LINE
  5
8F4
  8
0
 10
25.35422537612941
 20
226.61949566163551
 30
0.0
 11
25.414604194450639
 21
235.1357364975585
 31
0.0
1001
ACDBBLOCKREPETAG
1070
     1
1071
        8
1005
8F4
  0
LINE
  5
8F5
  8
0
 10
21.085169411477811
 20
233.78317389163459
 30
0.0
 11
25.276063636808349
 21
235.6607719333644
 31
0.0
1001
ACDBBLOCKREPETAG
1070
     1
1071
       10
1005
8F5
  0
LINE
  5
8F6
  8
0
 10
21.439682392720151
 20
232.47999825364661
 30
0.0
 11
25.408381525584009
 21
234.2580487887914
 31
0.0
1001
ACDBBLOCKREPETAG
1070
     1
1071
       12
1005
8F6
  0
LINE
  5
8F7
  8
0
 10
21.794195373961941
 20
231.1768226156606
 30
0.0
 11
25.39798311607694
 21
232.79138610583519
 31
0.0
1001
ACDBBLOCKREPETAG
1070
     1
1071
       14
1005
8F7
  0
LINE
  5
8F8
  8
0
 10
22.148708355204182
 20
229.87364697767291
 30
0.0
 11
25.387584706569871
 21
231.32472342287889
 31
0.0
1001
ACDBBLOCKREPETAG
1070
     1
1071
       16
1005
8F8
  0
LINE
  5
8F9
  8
0
 10
22.921180852750229
 20
228.75772492499229
 30
0.0
 11
25.37718629706281
 21
229.85806073992299
 31
0.0
1001
ACDBBLOCKREPETAG
1070
     1
1071
       18
1005
8F9
  0
LINE
  5
8FA
  8
0
 10
8.3856036423513416
 20
280.46627323924201
 30
0.0
 11
8.2105363439006016
 21
281.11963329180401
 31
0.0
1001
ACDBBLOCKREPETAG
1070
     1
1071
       20
1005
8FA
  0
LINE
  5
8FB
  8
0
 10
8.2105363439006016
 20
281.11963329180401
 30
0.0
 11
5.08831917875239
 21
283.30583328676852
 31
0.0
1001
ACDBBLOCKREPETAG
1070
     1
1071
       22
1005
8FB
  0
LINE
  5
8FC
  8
0
 10
5.0883191787522817
 20
283.30583328676857
 30
0.0
 11
5.0067374983419306
 21
283.61030026302677
 31
0.0
1001
ACDBBLOCKREPETAG
1070
     1
1071
       23
1005
8FC
  0
LINE
  5
8FD
  8
0
 10
5.0067374983419306
 20
283.61030026302677
 30
0.0
 11
14.472810595974821
 21
286.14672690503181
 31
0.0
1001
ACDBBLOCKREPETAG
1070
     1
1071
       24
1005
8FD
  0
LINE
  5
8FE
  8
0
 10
5.08831917875239
 20
283.30583328676852
 30
0.0
 11
14.55439227638526
 21
285.84225992877322
 31
0.0
1001
ACDBBLOCKREPETAG
1070
     1
1071
       25
1005
8FE
  0
LINE
  5
8FF
  8
0
 10
14.554392276385229
 20
285.84225992877327
 30
0.0
 11
14.472810595974821
 21
286.14672690503181
 31
0.0
1001
ACDBBLOCKREPETAG
1070
     1
1071
       27
1005
8FF
  0
LINE
  5
900
  8
0
 10
12.943572892717009
 20
282.38784661280641
 30
0.0
 11
8.2105363439006016
 21
281.11963329180401
 31
0.0
1001
ACDBBLOCKREPETAG
1070
     1
1071
       28
1005
900
  0
LINE
  5
901
  8
0
 10
19.312604505267121
 20
240.2990520815712
 30
0.0
 11
23.551098444104341
 21
242.19797567437931
 31
0.0
1001
ACDBBLOCKREPETAG
1070
     1
1071
       32
1005
901
  0
LINE
  5
902
  8
0
 10
19.667117486509468
 20
238.99587644358309
 30
0.0
 11
23.896091482644941
 21
240.89053492617711
 31
0.0
1001
ACDBBLOCKREPETAG
1070
     1
1071
       34
1005
902
  0
LINE
  5
903
  8
0
 10
20.021630467751301
 20
237.6927008055969
 30
0.0
 11
24.241084521185879
 21
239.58309417797361
 31
0.0
1001
ACDBBLOCKREPETAG
1070
     1
1071
       36
1005
903
  0
LINE
  5
904
  8
0
 10
20.376143448993432
 20
236.38952516760969
 30
0.0
 11
24.586077559726832
 21
238.2756534297701
 31
0.0
1001
ACDBBLOCKREPETAG
1070
     1
1071
       38
1005
904
  0
LINE
  5
905
  8
0
 10
17.894552580298509
 20
245.5117546335207
 30
0.0
 11
22.171126289941039
 21
247.42773866719151
 31
0.0
1001
ACDBBLOCKREPETAG
1070
     1
1071
      112
1005
905
  0
LINE
  5
906
  8
0
 10
18.249065561540871
 20
244.20857899553249
 30
0.0
 11
22.51611932848164
 21
246.12029791898931
 31
0.0
1001
ACDBBLOCKREPETAG
1070
     1
1071
      114
1005
906
  0
LINE
  5
907
  8
0
 10
18.603578542782689
 20
242.90540335754639
 30
0.0
 11
22.861112367022589
 21
244.8128571707858
 31
0.0
1001
ACDBBLOCKREPETAG
1070
     1
1071
      116
1005
907
  0
LINE
  5
908
  8
0
 10
18.95809152402483
 20
241.6022277195591
 30
0.0
 11
23.20610540556353
 21
243.5054164225823
 31
0.0
1001
ACDBBLOCKREPETAG
1070
     1
1071
      118
1005
908
  0
LINE
  5
909
  8
0
 10
16.476500655329779
 20
250.7244571854705
 30
0.0
 11
20.791154135777859
 21
252.65750166000339
 31
0.0
1001
ACDBBLOCKREPETAG
1070
     1
1071
      119
1005
909
  0
LINE
  5
90A
  8
0
 10
16.831013636572091
 20
249.42128154748261
 30
0.0
 11
21.136147174318591
 21
251.3500609118006
 31
0.0
1001
ACDBBLOCKREPETAG
1070
     1
1071
      121
1005
90A
  0
LINE
  5
90B
  8
0
 10
17.185526617814109
 20
248.11810590949571
 30
0.0
 11
21.481140212859462
 21
250.04262016359741
 31
0.0
1001
ACDBBLOCKREPETAG
1070
     1
1071
      123
1005
90B
  0
LINE
  5
90C
  8
0
 10
17.540039599056271
 20
246.8149302715083
 30
0.0
 11
21.826133251400279
 21
248.73517941539441
 31
0.0
1001
ACDBBLOCKREPETAG
1070
     1
1071
      125
1005
90C
  0
LINE
  5
90D
  8
0
 10
15.05844873036118
 20
255.9371597374199
 30
0.0
 11
19.411181981614561
 21
257.88726465281547
 31
0.0
1001
ACDBBLOCKREPETAG
1070
     1
1071
      127
1005
90D
  0
LINE
  5
90E
  8
0
 10
15.41296171160349
 20
254.63398409943201
 30
0.0
 11
19.7561750201553
 21
256.57982390461279
 31
0.0
1001
ACDBBLOCKREPETAG
1070
     1
1071
      129
1005
90E
  0
LINE
  5
90F
  8
0
 10
15.767474692845511
 20
253.33080846144509
 30
0.0
 11
20.101168058696171
 21
255.2723831564096
 31
0.0
1001
ACDBBLOCKREPETAG
1070
     1
1071
      131
1005
90F
  0
LINE
  5
910
  8
0
 10
16.121987674087659
 20
252.02763282345779
 30
0.0
 11
20.446161097236981
 21
253.96494240820661
 31
0.0
1001
ACDBBLOCKREPETAG
1070
     1
1071
      133
1005
910
  0
LINE
  5
911
  8
0
 10
13.64039680539258
 20
261.14986228936942
 30
0.0
 11
18.03120982745126
 21
263.11702764562779
 31
0.0
1001
ACDBBLOCKREPETAG
1070
     1
1071
      135
1005
911
  0
LINE
  5
912
  8
0
 10
13.99490978663488
 20
259.8466866513815
 30
0.0
 11
18.376202865991999
 21
261.80958689742511
 31
0.0
1001
ACDBBLOCKREPETAG
1070
     1
1071
      137
1005
912
  0
LINE
  5
913
  8
0
 10
14.349422767876909
 20
258.54351101339449
 30
0.0
 11
18.72119590453287
 21
260.5021461492218
 31
0.0
1001
ACDBBLOCKREPETAG
1070
     1
1071
      139
1005
913
  0
LINE
  5
914
  8
0
 10
14.70393574911906
 20
257.2403353754072
 30
0.0
 11
19.06618894307368
 21
259.19470540101878
 31
0.0
1001
ACDBBLOCKREPETAG
1070
     1
1071
      141
1005
914
  0
LINE
  5
915
  8
0
 10
12.22234488042397
 20
266.36256484131877
 30
0.0
 11
16.651237673287959
 21
268.34679063843998
 31
0.0
1001
ACDBBLOCKREPETAG
1070
     1
1071
      143
1005
915
  0
LINE
  5
916
  8
0
 10
12.57685786166628
 20
265.05938920333091
 30
0.0
 11
16.996230711828701
 21
267.0393498902373
 31
0.0
1001
ACDBBLOCKREPETAG
1070
     1
1071
      145
1005
916
  0
LINE
  5
917
  8
0
 10
12.931370842908301
 20
263.75621356534401
 30
0.0
 11
17.341223750369569
 21
265.731909142034
 31
0.0
1001
ACDBBLOCKREPETAG
1070
     1
1071
      147
1005
917
  0
LINE
  5
918
  8
0
 10
13.28588382415046
 20
262.4530379273566
 30
0.0
 11
17.686216788910379
 21
264.42446839383098
 31
0.0
1001
ACDBBLOCKREPETAG
1070
     1
1071
      149
1005
918
  0
LINE
  5
919
  8
0
 10
10.80429295545537
 20
271.57526739326818
 30
0.0
 11
15.271265519124659
 21
273.5765536312523
 31
0.0
1001
ACDBBLOCKREPETAG
1070
     1
1071
      151
1005
919
  0
LINE
  5
91A
  8
0
 10
11.15880593669767
 20
270.27209175528031
 30
0.0
 11
15.6162585576654
 21
272.26911288304962
 31
0.0
1001
ACDBBLOCKREPETAG
1070
     1
1071
      153
1005
91A
  0
LINE
  5
91B
  8
0
 10
11.513318917939699
 20
268.96891611729342
 30
0.0
 11
15.961251596206271
 21
270.96167213484631
 31
0.0
1001
ACDBBLOCKREPETAG
1070
     1
1071
      155
1005
91B
  0
LINE
  5
91C
  8
0
 10
11.86783189918185
 20
267.66574047930612
 30
0.0
 11
16.306244634747081
 21
269.65423138664329
 31
0.0
1001
ACDBBLOCKREPETAG
1070
     1
1071
      157
1005
91C
  0
LINE
  5
91D
  8
0
 10
13.118640191168071
 20
281.73448656024442
 30
0.0
 11
12.943572892717331
 21
282.38784661280641
 31
0.0
1001
ACDBBLOCKREPETAG
1070
     1
1071
      159
1005
91D
  0
LINE
  5
91E
  8
0
 10
12.943572892717331
 20
282.38784661280641
 30
0.0
 11
14.55439227638526
 21
285.84225992877322
 31
0.0
1001
ACDBBLOCKREPETAG
1070
     1
1071
      160
1005
91E
  0
LINE
  5
91F
  8
0
 10
-60.668997287625423
 20
258.28676778435607
 30
0.0
 11
-55.766024035107328
 21
239.17671056111811
 31
0.0
1001
ACDBBLOCKREPETAG
1070
     1
1071
        0
1005
91F
  0
LINE
  5
920
  8
0
 10
-62.69877712934867
 20
257.74288991495342
 30
0.0
 11
-57.389847908485883
 21
238.7416082655958
 31
0.0
1001
ACDBBLOCKREPETAG
1070
     1
1071
        1
1005
920
  0
LINE
  5
921
  8
0
 10
-56.251609250154949
 20
237.74129150832289
 30
0.0
 11
-57.389847908485883
 21
238.7416082655958
 31
0.0
1001
ACDBBLOCKREPETAG
1070
     1
1071
        2
1005
921
  0
LINE
  5
922
  8
0
 10
-56.251609250154949
 20
237.74129150832289
 30
0.0
 11
-55.766024035107328
 21
239.17671056111811
 31
0.0
1001
ACDBBLOCKREPETAG
1070
     1
1071
        3
1005
922
  0
LINE
  5
923
  8
0
 10
-59.813165982868171
 20
247.41494847068989
 30
0.0
 11
-58.079003063212049
 21
248.1918854981881
 31
0.0
1001
ACDBBLOCKREPETAG
1070
     1
1071
        5
1005
923
  0
LINE
  5
924
  8
0
 10
-59.631646908179697
 20
246.76527036811191
 30
0.0
 11
-57.910788996483987
 21
247.53624650622729
 31
0.0
1001
ACDBBLOCKREPETAG
1070
     1
1071
        6
1005
924
  0
LINE
  5
925
  8
0
 10
-57.417812605621229
 20
238.84169720338531
 30
0.0
 11
-56.240066575339689
 21
239.36934918437481
 31
0.0
1001
ACDBBLOCKREPETAG
1070
     1
1071
        7
1005
925
  0
LINE
  5
926
  8
0
 10
-56.251609250154949
 20
237.74129150832289
 30
0.0
 11
-56.228648329221549
 21
240.9798565866104
 31
0.0
1001
ACDBBLOCKREPETAG
1070
     1
1071
        8
1005
926
  0
LINE
  5
927
  8
0
 10
-59.450127833486988
 20
246.11559226553581
 30
0.0
 11
-57.742574929758781
 21
246.88060751426539
 31
0.0
1001
ACDBBLOCKREPETAG
1070
     1
1071
        9
1005
927
  0
LINE
  5
928
  8
0
 10
-59.268608758797001
 20
245.46591416295809
 30
0.0
 11
-57.574360863032041
 21
246.22496852230361
 31
0.0
1001
ACDBBLOCKREPETAG
1070
     1
1071
       10
1005
928
  0
LINE
  5
929
  8
0
 10
-59.08708968410572
 20
244.8162360603815
 30
0.0
 11
-57.406146796306878
 21
245.5693295303418
 31
0.0
1001
ACDBBLOCKREPETAG
1070
     1
1071
       11
1005
929
  0
LINE
  5
92A
  8
0
 10
-58.905570609414191
 20
244.16655795780389
 30
0.0
 11
-57.237932729578723
 21
244.91369053838059
 31
0.0
1001
ACDBBLOCKREPETAG
1070
     1
1071
       12
1005
92A
  0
LINE
  5
92B
  8
0
 10
-58.724051534725909
 20
243.51687985522659
 30
0.0
 11
-57.069718662853511
 21
244.25805154641861
 31
0.0
1001
ACDBBLOCKREPETAG
1070
     1
1071
       13
1005
92B
  0
LINE
  5
92C
  8
0
 10
-58.542532460034529
 20
242.86720175264969
 30
0.0
 11
-56.901504596125449
 21
243.6024125544578
 31
0.0
1001
ACDBBLOCKREPETAG
1070
     1
1071
       14
1005
92C
  0
LINE
  5
92D
  8
0
 10
-58.361013385344592
 20
242.21752365007211
 30
0.0
 11
-56.733290529398758
 21
242.94677356249619
 31
0.0
1001
ACDBBLOCKREPETAG
1070
     1
1071
       15
1005
92D
  0
LINE
  5
92E
  8
0
 10
-58.179494310653162
 20
241.5678455474949
 30
0.0
 11
-56.565076462673453
 21
242.2911345705339
 31
0.0
1001
ACDBBLOCKREPETAG
1070
     1
1071
       16
1005
92E
  0
LINE
  5
92F
  8
0
 10
-57.99797523596326
 20
240.91816744491749
 30
0.0
 11
-56.396862395946862
 21
241.63549557857269
 31
0.0
1001
ACDBBLOCKREPETAG
1070
     1
1071
       17
1005
92F
  0
LINE
  5
930
  8
0
 10
-57.81645616127188
 20
240.2684893423405
 30
0.0
 11
-56.228648329221549
 21
240.9798565866104
 31
0.0
1001
ACDBBLOCKREPETAG
1070
     1
1071
       18
1005
930
  0
LINE
  5
931
  8
0
 10
-57.634937086582028
 20
239.6188112397632
 30
0.0
 11
-56.233847533975961
 21
240.24652524513269
 31
0.0
1001
ACDBBLOCKREPETAG
1070
     1
1071
       19
1005
931
  0
LINE
  5
932
  8
0
 10
-62.69877712934867
 20
257.74288991495342
 30
0.0
 11
-63.22288429169113
 21
259.69888447342618
 31
0.0
1001
ACDBBLOCKREPETAG
1070
     1
1071
       20
1005
932
  0
LINE
  5
933
  8
0
 10
-60.668997287625423
 20
258.28676778435607
 30
0.0
 11
-61.193104449967883
 21
260.242762342829
 31
0.0
1001
ACDBBLOCKREPETAG
1070
     1
1071
       21
1005
933
  0
LINE
  5
934
  8
0
 10
-63.222884291691088
 20
259.69888447342612
 30
0.0
 11
-64.771053072619381
 21
260.91069000622298
 31
0.0
1001
ACDBBLOCKREPETAG
1070
     1
1071
       22
1005
934
  0
LINE
  5
935
  8
0
 10
-64.771053072619381
 20
260.91069000622298
 30
0.0
 11
-64.852634753029776
 21
261.21515698248152
 31
0.0
1001
ACDBBLOCKREPETAG
1070
     1
1071
       23
1005
935
  0
LINE
  5
936
  8
0
 10
-64.852634753029776
 20
261.21515698248152
 30
0.0
 11
-60.539835403146867
 21
262.3707680854003
 31
0.0
1001
ACDBBLOCKREPETAG
1070
     1
1071
       24
1005
936
  0
LINE
  5
937
  8
0
 10
-64.771053072619381
 20
260.91069000622298
 30
0.0
 11
-60.458253722736472
 21
262.06630110914182
 31
0.0
1001
ACDBBLOCKREPETAG
1070
     1
1071
       25
1005
937
  0
LINE
  5
938
  8
0
 10
-61.193104449967826
 20
260.24276234282883
 30
0.0
 11
-60.458253722736409
 21
262.0663011091417
 31
0.0
1001
ACDBBLOCKREPETAG
1070
     1
1071
       26
1005
938
  0
LINE
  5
939
  8
0
 10
-60.458253722736409
 20
262.0663011091417
 30
0.0
 11
-60.539835403146817
 21
262.37076808540007
 31
0.0
1001
ACDBBLOCKREPETAG
1070
     1
1071
       27
1005
939
  0
LINE
  5
93A
  8
0
 10
-61.193104449967826
 20
260.24276234282883
 30
0.0
 11
-63.222884291691088
 21
259.69888447342612
 31
0.0
1001
ACDBBLOCKREPETAG
1070
     1
1071
       28
1005
93A
  0
LINE
  5
93B
  8
0
 10
-61.628356729773053
 20
253.9117294964621
 30
0.0
 11
-59.761143730475681
 21
254.7482754178036
 31
0.0
1001
ACDBBLOCKREPETAG
1070
     1
1071
       29
1005
93B
  0
LINE
  5
93C
  8
0
 10
-61.446837655083243
 20
253.26205139388509
 30
0.0
 11
-59.592929663749132
 21
254.0926364258425
 31
0.0
1001
ACDBBLOCKREPETAG
1070
     1
1071
       30
1005
93C
  0
LINE
  5
93D
  8
0
 10
-61.265318580393441
 20
252.6123732913081
 30
0.0
 11
-59.424715597022448
 21
253.436997433881
 31
0.0
1001
ACDBBLOCKREPETAG
1070
     1
1071
       31
1005
93D
  0
LINE
  5
93E
  8
0
 10
-61.083584221139411
 20
251.96279164019231
 30
0.0
 11
-59.256501530297193
 21
252.7813584419188
 31
0.0
1001
ACDBBLOCKREPETAG
1070
     1
1071
       32
1005
93E
  0
LINE
  5
93F
  8
0
 10
-60.902280431012059
 20
251.31301708615331
 30
0.0
 11
-59.088287463570552
 21
252.12571944995739
 31
0.0
1001
ACDBBLOCKREPETAG
1070
     1
1071
       33
1005
93F
  0
LINE
  5
940
  8
0
 10
-60.720761356322008
 20
250.6633389835753
 30
0.0
 11
-58.920073396843968
 21
251.47008045799629
 31
0.0
1001
ACDBBLOCKREPETAG
1070
     1
1071
       34
1005
940
  0
LINE
  5
941
  8
0
 10
-60.539242281632262
 20
250.01366088099849
 30
0.0
 11
-58.751859330117227
 21
250.81444146603451
 31
0.0
1001
ACDBBLOCKREPETAG
1070
     1
1071
       35
1005
941
  0
LINE
  5
942
  8
0
 10
-60.357723206939511
 20
249.36398277842221
 30
0.0
 11
-58.583645263390643
 21
250.1588024740733
 31
0.0
1001
ACDBBLOCKREPETAG
1070
     1
1071
       36
1005
942
  0
LINE
  5
943
  8
0
 10
-60.176204132249552
 20
248.7143046758446
 30
0.0
 11
-58.415431196663903
 21
249.50316348211149
 31
0.0
1001
ACDBBLOCKREPETAG
1070
     1
1071
       37
1005
943
  0
LINE
  5
944
  8
0
 10
-59.9946850575596
 20
248.06462657326711
 30
0.0
 11
-58.247217129938647
 21
248.84752449014931
 31
0.0
1001
ACDBBLOCKREPETAG
1070
     1
1071
       38
1005
944
  0
POLYLINE
  5
945
  8
0
 66
     1
 10
0.0
 20
0.0
 30
0.0
 70
     1
1001
ACDBBLOCKREPETAG
1070
     1
1071
        0
1005
945
  0
VERTEX
  5
B01
  8
0
 10
53.53294258867659
 20
266.35063792845722
 30
0.0
  0
VERTEX
  5
B02
  8
0
 10
-18.914830709405159
 20
246.93831557980309
 30
0.0
  0
VERTEX
  5
B03
  8
0
 10
-8.5620689053043542
 20
208.30128252824039
 30
0.0
  0
VERTEX
  5
B04
  8
0
 10
63.88570439277742
 20
227.71360487689441
 30
0.0
  0
SEQEND
  5
B05
  8
0
  0
POLYLINE
  5
946
  8
0
 66
     1
 10
0.0
 20
0.0
 30
0.0
 70
     1
 40
0.25
 41
0.25
1001
ACDBBLOCKREPETAG
1070
     1
1071
        0
1005
945
  0
VERTEX
  5
B06
  8
0
 10
53.444554241028293
 20
266.19754481953322
 30
0.0
  0
VERTEX
  5
B07
  8
0
 10
-18.761737600481201
 20
246.84992723215481
 30
0.0
  0
VERTEX
  5
B08
  8
0
 10
-8.4736805576560386
 20
208.45437563716439
 30
0.0
  0
VERTEX
  5
B09
  8
0
 10
63.732611283853473
 20
227.80199322454271
 30
0.0
  0
SEQEND
  5
B0A
  8
0
  0
LINE
  5
947
  8
0
 10
63.88570439277742
 20
227.71360487689441
 30
0.0
 11
-18.914830709405159
 21
246.93831557980309
 31
0.0
1001
ACDBBLOCKREPETAG
1070
     1
1071
        1
1005
947
  0
LINE
  5
948
  8
0
 10
-8.5620689053043542
 20
208.30128252824039
 30
0.0
 11
53.53294258867659
 21
266.35063792845722
 31
0.0
1001
ACDBBLOCKREPETAG
1070
     1
1071
        2
1005
948
  0
POLYLINE
  5
949
  8
0
 66
     1
 10
0.0
 20
0.0
 30
0.0
 70
     1
  0
VERTEX
  5
B0B
  8
0
 10
-38.914830709405202
 20
141.80790159260141
 30
0.0
  0
VERTEX
  5
B0C
  8
0
 10
-20.914830709405202
 20
141.80790159260141
 30
0.0
  0
VERTEX
  5
B0D
  8
0
 10
-20.914830709405202
 20
186.80790159260141
 30
0.0
  0
VERTEX
  5
B0E
  8
0
 10
-38.914830709405202
 20
186.80790159260141
 30
0.0
  0
SEQEND
  5
B0F
  8
0
  0
LINE
  5
94A
  8
0
 10
-30.414830709405202
 20
186.80790159260141
 30
0.0
 11
-30.414830709405202
 21
141.80790159260141
 31
0.0
  0
LINE
  5
94B
  8
0
 10
-29.414830709405202
 20
141.80790159260141
 30
0.0
 11
-29.414830709405202
 21
186.80790159260141
 31
0.0
  0
LINE
  5
94C
  8
0
 10
-37.914830709405202
 20
186.80790159260141
 30
0.0
 11
-37.914830709405202
 21
141.80790159260141
 31
0.0
  0
LINE
  5
94D
  8
0
 10
-21.914830709405202
 20
186.80790159260141
 30
0.0
 11
-21.914830709405202
 21
141.80790159260141
 31
0.0
  0
LINE
  5
94E
  8
0
  6
CONTINUOUS
 10
147.1942524644588
 20
311.6349935678154
 30
0.0
 11
159.38414698145161
 21
308.3687211761665
 31
0.0
1001
ACAD
1010
0.0
1020
0.0
1030
0.0
  0
LINE
  5
94F
  8
0
  6
CONTINUOUS
 10
128.7933654736525
 20
306.70449075861228
 30
0.0
 11
159.38414698145161
 21
298.50771555776038
 31
0.0
1001
ACAD
1010
0.0
1020
0.0
1030
0.0
  0
LINE
  5
950
  8
0
  6
CONTINUOUS
 10
110.3924784828462
 20
301.77398794940927
 30
0.0
 11
144.199882402969
 21
292.71532137081942
 31
0.0
1001
ACAD
1010
0.0
1020
0.0
1030
0.0
  0
LINE
  5
951
  8
0
  6
CONTINUOUS
 10
91.991591492039873
 20
296.84348514020621
 30
0.0
 11
125.7989954121622
 21
287.78481856161648
 31
0.0
1001
ACAD
1010
0.0
1020
0.0
1030
0.0
  0
LINE
  5
952
  8
0
  6
CONTINUOUS
 10
73.590704501233546
 20
291.91298233100309
 30
0.0
 11
107.3981084213554
 21
282.85431575241353
 31
0.0
1001
ACAD
1010
0.0
1020
0.0
1030
0.0
  0
LINE
  5
953
  8
0
  6
CONTINUOUS
 10
55.189817510427247
 20
286.9824795218002
 30
0.0
 11
88.997221430548635
 21
277.92381294321069
 31
0.0
1001
ACAD
1010
0.0
1020
0.0
1030
0.0
  0
LINE
  5
954
  8
0
  6
CONTINUOUS
 10
36.788930519620941
 20
282.05197671259708
 30
0.0
 11
70.596334439741824
 21
272.9933101340078
 31
0.0
1001
ACAD
1010
0.0
1020
0.0
1030
0.0
  0
LINE
  5
955
  8
0
  6
CONTINUOUS
 10
18.38804352881461
 20
277.12147390339408
 30
0.0
 11
52.195447448935049
 21
268.06280732480479
 31
0.0
1001
ACAD
1010
0.0
1020
0.0
1030
0.0
  0
LINE
  5
956
  8
0
  6
CONTINUOUS
 10
-0.0128434619917357
 20
272.19097109419101
 30
0.0
 11
33.794560458128231
 21
263.1323045156019
 31
0.0
1001
ACAD
1010
0.0
1020
0.0
1030
0.0
  0
LINE
  5
957
  8
0
  6
CONTINUOUS
 10
-18.413730452798049
 20
267.26046828498789
 30
0.0
 11
15.393673467321429
 21
258.20180170639901
 31
0.0
1001
ACAD
1010
0.0
1020
0.0
1030
0.0
  0
LINE
  5
958
  8
0
  6
CONTINUOUS
 10
-36.814617443604369
 20
262.32996547578489
 30
0.0
 11
-3.007213523485361
 21
253.27129889719609
 31
0.0
1001
ACAD
1010
0.0
1020
0.0
1030
0.0
  0
LINE
  5
959
  8
0
  6
CONTINUOUS
 10
-55.215504434410697
 20
257.39946266658188
 30
0.0
 11
-21.408100514292151
 21
248.3407960879932
 31
0.0
1001
ACAD
1010
0.0
1020
0.0
1030
0.0
  0
LINE
  5
95A
  8
0
  6
CONTINUOUS
 10
-73.616391425217017
 20
252.46895985737891
 30
0.0
 11
-39.808987505098969
 21
243.41029327879031
 31
0.0
1001
ACAD
1010
0.0
1020
0.0
1030
0.0
  0
LINE
  5
95B
  8
0
  6
CONTINUOUS
 10
-91.958000194128147
 20
247.5225734964902
 30
0.0
 11
-58.209874495905773
 21
238.4797904695873
 31
0.0
1001
ACAD
1010
0.0
1020
0.0
1030
0.0
  0
LINE
  5
95C
  8
0
  6
CONTINUOUS
 10
-89.111373069992837
 20
236.8988164390195
 30
0.0
 11
-76.610761486712562
 21
233.54928766038441
 31
0.0
1001
ACAD
1010
0.0
1020
0.0
1030
0.0
  0
LINE
  5
95D
  8
0
 10
-63.969061484402509
 20
159.7308485479692
 30
0.0
 11
-66.283594614265226
 21
157.69718230115831
 31
0.0
1001
ACAD
1010
0.0
1020
0.0
1030
0.0
  0
LINE
  5
95E
  8
0
 10
-63.96906148440241
 20
163.95732946144821
 30
0.0
 11
-67.969061484402516
 21
160.44272650230801
 31
0.0
1001
ACAD
1010
0.0
1020
0.0
1030
0.0
  0
LINE
  5
95F
  8
0
 10
-63.969061484402303
 20
168.18381037492719
 30
0.0
 11
-67.969061484402459
 21
164.6692074157869
 31
0.0
1001
ACAD
1010
0.0
1020
0.0
1030
0.0
  0
LINE
  5
960
  8
0
 10
-63.969061484402218
 20
172.4102912884062
 30
0.0
 11
-67.969061484402374
 21
168.89568832926591
 31
0.0
1001
ACAD
1010
0.0
1020
0.0
1030
0.0
  0
LINE
  5
961
  8
0
 10
-64.086684526350112
 20
157.75885593765571
 30
0.0
 11
-67.969061484402573
 21
162.17742270401641
 31
0.0
1001
ACAD
1010
0.0
1020
0.0
1030
0.0
  0
LINE
  5
962
  8
0
 10
-63.96906148440253
 20
162.4351825888306
 30
0.0
 11
-67.969061484402488
 21
166.9876171556968
 31
0.0
1001
ACAD
1010
0.0
1020
0.0
1030
0.0
  0
LINE
  5
963
  8
0
 10
-63.969061484402403
 20
167.2453770405109
 30
0.0
 11
-67.969061484402403
 21
171.79781160737721
 31
0.0
1001
ACAD
1010
0.0
1020
0.0
1030
0.0
  0
LINE
  5
964
  8
0
 10
-63.969061484402289
 20
172.05557149219121
 30
0.0
 11
-64.491239108602116
 21
172.6498663588041
 31
0.0
1001
ACAD
1010
0.0
1020
0.0
1030
0.0
  0
VIEWPORT
  5
4DF
 67
     1
  8
0
  6
CONTINUOUS
 10
266.2324939943519
 20
261.16886165688112
 30
0.0
 40
1274.7764851317261
 41
759.09020473863302
 68
     2
 69
     1
1001
ACAD
1000
MVIEW
1002
{
1070
    16
1010
0.0
1020
0.0
1030
0.0
1010
0.0
1020
0.0
1030
1.0
1040
0.0
1040
759.09020473863302
1040
266.2324939943519
1040
261.16886165688112
1040
50.0
1040
0.0
1040
0.0
1070
     0
1070
 20000
1070
     1
1070
     1
1070
     0
1070
     0
1070
     0
1070
     0
1040
0.0
1040
0.0
1040
0.0
1040
2.5
1040
2.5
1040
50.0
1040
50.0
1070
     0
1002
{
1002
}
1002
}
  0
VIEWPORT
  5
4E3
 67
     1
  8
0
  6
CONTINUOUS
 10
104.2062515318394
 20
147.70624390244481
 30
0.0
 40
208.41041893864809
 41
295.40953368001158
 68
     1
 69
     2
1001
ACAD
1000
MVIEW
1002
{
1070
    16
1010
0.0
1020
0.0
1030
0.0
1010
0.0
1020
0.0
1030
1.0
1040
0.0
1040
590.81906092952522
1040
-19.41769712996118
1040
80.261677226206217
1040
50.0
1040
0.0
1040
0.0
1070
     0
1070
 20000
1070
     1
1070
     1
1070
     0
1070
     0
1070
     0
1070
     0
1040
0.0
1040
0.0
1040
0.0
1040
2.5
1040
2.5
1040
50.0
1040
50.0
1070
     0
1002
{
1002
}
1002
}
  0
ENDSEC
  0
EOF
