  0
SECTION
  2
HEADER
  9
$ACADVER
  1
AC1009
  9
$INSBASE
 10
0.0
 20
0.0
 30
0.0
  9
$EXTMIN
 10
-129.59187889752749
 20
-132.2362203785288
 30
-0.0015258207003583
  9
$EXTMAX
 10
196.7116880661475
 20
227.38554741317381
 30
0.0000000349246037
  9
$LIMMIN
 10
0.0
 20
0.0
  9
$LIMMAX
 10
12.0
 20
9.0
  9
$ORTHOMODE
 70
     0
  9
$REGENMODE
 70
     1
  9
$FILLMODE
 70
     1
  9
$QTEXTMODE
 70
     0
  9
$MIRRTEXT
 70
     0
  9
$DRAGMODE
 70
     2
  9
$LTSCALE
 40
1.0
  9
$OSMODE
 70
     0
  9
$ATTMODE
 70
     1
  9
$TEXTSIZE
 40
35.0
  9
$TRACEWID
 40
0.05
  9
$TEXTSTYLE
  7
ARIAL
  9
$CLAYER
  8
0
  9
$CELTYPE
  6
CONTINUOUS
  9
$CECOLOR
 62
   256
  9
$DIMSCALE
 40
2.0
  9
$DIMASZ
 40
2.0
  9
$DIMEXO
 40
2.0
  9
$DIMDLI
 40
6.0
  9
$DIMRND
 40
0.0
  9
$DIMDLE
 40
2.0
  9
$DIMEXE
 40
2.0
  9
$DIMTP
 40
0.0
  9
$DIMTM
 40
0.0
  9
$DIMTXT
 40
2.0
  9
$DIMCEN
 40
2.0
  9
$DIMTSZ
 40
0.0
  9
$DIMTOL
 70
     0
  9
$DIMLIM
 70
     0
  9
$DIMTIH
 70
     0
  9
$DIMTOH
 70
     0
  9
$DIMSE1
 70
     0
  9
$DIMSE2
 70
     0
  9
$DIMTAD
 70
     1
  9
$DIMZIN
 70
     0
  9
$DIMBLK
  1
ARCHTICK
  9
$DIMASO
 70
     1
  9
$DIMSHO
 70
     1
  9
$DIMPOST
  1

  9
$DIMAPOST
  1

  9
$DIMALT
 70
     0
  9
$DIMALTD
 70
     2
  9
$DIMALTF
 40
0.0394
  9
$DIMLFAC
 40
1.0
  9
$DIMTOFL
 70
     0
  9
$DIMTVP
 40
0.0
  9
$DIMTIX
 70
     0
  9
$DIMSOXD
 70
     0
  9
$DIMSAH
 70
     0
  9
$DIMBLK1
  1

  9
$DIMBLK2
  1

  9
$DIMSTYLE
  2
1_TO_2
  9
$DIMCLRD
 70
   256
  9
$DIMCLRE
 70
   256
  9
$DIMCLRT
 70
   256
  9
$DIMTFAC
 40
1.0
  9
$DIMGAP
 40
1.0
  9
$LUNITS
 70
     2
  9
$LUPREC
 70
     1
  9
$SKETCHINC
 40
0.1
  9
$FILLETRAD
 40
0.0
  9
$AUNITS
 70
     1
  9
$AUPREC
 70
     4
  9
$MENU
  1
.
  9
$ELEVATION
 40
0.0
  9
$PELEVATION
 40
0.0
  9
$THICKNESS
 40
0.0
  9
$LIMCHECK
 70
     0
  9
$BLIPMODE
 70
     0
  9
$CHAMFERA
 40
0.0
  9
$CHAMFERB
 40
0.0
  9
$SKPOLY
 70
     0
  9
$TDCREATE
 40
2452152.65359294
  9
$TDUPDATE
 40
2455419.5995976971
  9
$TDINDWG
 40
25.853320891199999
  9
$TDUSRTIMER
 40
25.853320891199999
  9
$USRTIMER
 70
     1
  9
$ANGBASE
 50
0.0
  9
$ANGDIR
 70
     0
  9
$PDMODE
 70
     0
  9
$PDSIZE
 40
0.0
  9
$PLINEWID
 40
0.0
  9
$COORDS
 70
     1
  9
$SPLFRAME
 70
     0
  9
$SPLINETYPE
 70
     6
  9
$SPLINESEGS
 70
     8
  9
$ATTDIA
 70
     0
  9
$ATTREQ
 70
     0
  9
$HANDLING
 70
     1
  9
$HANDSEED
  5
841
  9
$SURFTAB1
 70
     6
  9
$SURFTAB2
 70
     6
  9
$SURFTYPE
 70
     6
  9
$SURFU
 70
     6
  9
$SURFV
 70
     6
  9
$UCSNAME
  2

  9
$UCSORG
 10
0.0
 20
0.0
 30
0.0
  9
$UCSXDIR
 10
1.0
 20
0.0
 30
0.0
  9
$UCSYDIR
 10
0.0
 20
1.0
 30
0.0
  9
$PUCSNAME
  2

  9
$PUCSORG
 10
0.0
 20
0.0
 30
0.0
  9
$PUCSXDIR
 10
1.0
 20
0.0
 30
0.0
  9
$PUCSYDIR
 10
0.0
 20
1.0
 30
0.0
  9
$USERI1
 70
     0
  9
$USERI2
 70
     0
  9
$USERI3
 70
     0
  9
$USERI4
 70
     0
  9
$USERI5
 70
     0
  9
$USERR1
 40
0.0
  9
$USERR2
 40
0.0
  9
$USERR3
 40
0.0
  9
$USERR4
 40
0.0
  9
$USERR5
 40
0.0
  9
$WORLDVIEW
 70
     1
  9
$SHADEDGE
 70
     3
  9
$SHADEDIF
 70
    70
  9
$TILEMODE
 70
     1
  9
$MAXACTVP
 70
    48
  9
$PLIMCHECK
 70
     0
  9
$PEXTMIN
 10
0.0
 20
0.0
 30
0.0
  9
$PEXTMAX
 10
208.41041893864801
 20
295.40953368001158
 30
0.0
  9
$PLIMMIN
 10
-0.793749988079071
 20
-0.793749988079071
  9
$PLIMMAX
 10
209.2062500119209
 20
296.20625001192087
  9
$UNITMODE
 70
     0
  9
$VISRETAIN
 70
     1
  9
$PLINEGEN
 70
     1
  9
$PSLTSCALE
 70
     1
  0
ENDSEC
  0
SECTION
  2
TABLES
  0
TABLE
  2
VPORT
 70
     1
  0
VPORT
  2
*ACTIVE
 70
     0
 10
0.0
 20
0.0
 11
1.0
 21
1.0
 12
33.55990458431004
 22
47.574663517322449
 13
0.0
 23
0.0
 14
1.0
 24
1.0
 15
50.0
 25
50.0
 16
0.0
 26
0.0
 36
1.0
 17
0.0
 27
0.0
 37
0.0
 40
362.64379945381768
 41
1.978962131837307
 42
50.0
 43
0.0
 44
0.0
 50
0.0
 51
0.0
 71
     0
 72
 20000
 73
     1
 74
     3
 75
     0
 76
     0
 77
     0
 78
     0
  0
ENDTAB
  0
TABLE
  2
LTYPE
 70
     2
  0
LTYPE
  2
CONTINUOUS
 70
     0
  3
Solid line
 72
    65
 73
     0
 40
0.0
  0
ENDTAB
  0
TABLE
  2
LAYER
 70
    10
  0
LAYER
  2
0
 70
     0
 62
     7
  6
CONTINUOUS
  0
ENDTAB
  0
TABLE
  2
STYLE
 70
     4
  0
STYLE
  2
STANDARD
 70
     0
 40
0.0
 41
1.0
 50
0.0
 71
     0
 42
1.5
  3
romans.shx
  4

  0
STYLE
  2
ARIAL
 70
     0
 40
0.0
 41
1.0
 50
0.0
 71
     0
 42
35.0
  3
txt
  4

  0
STYLE
  2
EURO_COMMON_SLOK-CNR-INT$0
 70
     0
 40
0.0
 41
1.0
 50
0.0
 71
     0
 42
35.0
  3
txt
  4

  0
ENDTAB
  0
TABLE
  2
VIEW
 70
     2
  0
VIEW
  2
09
 70
     0
 40
2970.0
 10
19050.0
 20
1485.0
 41
2100.0
 11
0.0
 21
0.0
 31
1.0
 12
0.0
 22
0.0
 32
0.0
 42
50.0
 43
0.0
 44
0.0
 50
0.0
 71
     0
  0
VIEW
  2
COMM-04
 70
     1
 40
477.26027331217421
 10
194.21746115522001
 20
180.60494410563541
 41
755.81685306636155
 11
0.0
 21
0.0
 31
1.0
 12
0.0
 22
0.0
 32
0.0
 42
50.0
 43
0.0
 44
0.0
 50
0.0
 71
     0
  0
ENDTAB
  0
TABLE
  2
UCS
 70
     0
  0
ENDTAB
  0
TABLE
  2
APPID
 70
     8
  0
APPID
  2
ACAD
 70
     0
  0
APPID
  2
ACAD_PSEXT
 70
     0
  0
APPID
  2
ACDBDYNAMICBLOCKGUID
 70
     0
  0
APPID
  2
ACDBBLOCKREPETAG
 70
     0
  0
APPID
  2
ACAD_MLEADERVER
 70
     0
  0
APPID
  2
ACAD_EXEMPT_FROM_CAD_STANDARDS
 70
     0
  0
APPID
  2
ACADANNOTATIVE
 70
     0
  0
APPID
  2
CONTENTBLOCKICON
 70
     0
  0
ENDTAB
  0
TABLE
  2
DIMSTYLE
 70
     3
  0
DIMSTYLE
  2
1_TO_2
 70
     0
  3

  4

  5
ARCHTICK
  6

  7

 40
2.0
 41
2.0
 42
2.0
 43
6.0
 44
2.0
 45
0.0
 46
2.0
 47
0.0
 48
0.0
140
2.0
141
2.0
142
0.0
143
0.0394
144
1.0
145
0.0
146
1.0
147
1.0
 71
     0
 72
     0
 73
     0
 74
     0
 75
     0
 76
     0
 77
     1
 78
     0
170
     0
171
     2
172
     0
173
     0
174
     0
175
     0
176
   256
177
   256
178
   256
  0
DIMSTYLE
  2
EURO_COMMON_SLOK-CNR-INT$0
 70
     0
  3

  4

  5
EURO_COMMON_SLOK-CNR-INT$0
  6

  7

 40
2.0
 41
2.0
 42
2.0
 43
6.0
 44
1.5
 45
0.0
 46
1.5
 47
0.0
 48
0.0
140
2.0
141
2.0
142
0.0
143
0.0394
144
1.0
145
0.0
146
1.0
147
1.0
 71
     0
 72
     0
 73
     0
 74
     0
 75
     0
 76
     0
 77
     0
 78
     0
170
     0
171
     2
172
     1
173
     0
174
     1
175
     0
176
     0
177
     0
178
     0
  0
ENDTAB
  0
ENDSEC
  0
SECTION
  2
BLOCKS
  0
BLOCK
  8
0
  2
$MODEL_SPACE
 70
     0
 10
0.0
 20
0.0
 30
0.0
  3
$MODEL_SPACE
  1

  0
ENDBLK
  5
17
  8
0
  0
BLOCK
 67
     1
  8
0
  2
$PAPER_SPACE
 70
     0
 10
0.0
 20
0.0
 30
0.0
  3
$PAPER_SPACE
  1

  0
ENDBLK
  5
20
 67
     1
  8
0
  0
BLOCK
  8
0
  2
_ARCHTICK
 70
     0
 10
0.0
 20
0.0
 30
0.0
  3
_ARCHTICK
  1

  0
POLYLINE
  5
ED
  8
0
  6
BYBLOCK
 62
     0
 66
     1
 10
0.0
 20
0.0
 30
0.0
 40
0.15
 41
0.15
  0
VERTEX
  5
64B
  8
0
  6
BYBLOCK
 62
     0
 10
-0.5
 20
-0.5
 30
0.0
  0
VERTEX
  5
64C
  8
0
  6
BYBLOCK
 62
     0
 10
0.5
 20
0.5
 30
0.0
  0
SEQEND
  5
64D
  8
0
  6
BYBLOCK
 62
     0
  0
ENDBLK
  5
EE
  8
0
  0
BLOCK
  8
0
  2
EURO_COMMON_SLOK-CNR-INT$0
 70
     0
 10
0.0
 20
0.0
 30
0.0
  3
EURO_COMMON_SLOK-CNR-INT$0
  1

  0
POLYLINE
  5
443
  8
0
  6
BYBLOCK
 62
     0
 66
     1
 10
0.0
 20
0.0
 30
0.0
 40
0.15
 41
0.15
  0
VERTEX
  5
66F
  8
0
  6
BYBLOCK
 62
     0
 10
-0.5
 20
-0.5
 30
0.0
  0
VERTEX
  5
670
  8
0
  6
BYBLOCK
 62
     0
 10
0.5
 20
0.5
 30
0.0
  0
SEQEND
  5
671
  8
0
  6
BYBLOCK
 62
     0
  0
ENDBLK
  5
444
  8
0
  0
BLOCK
  8
0
  2
*U7
 70
     1
 10
0.0
 20
0.0
 30
0.0
  3
*U7
  1

  0
SOLID
  5
67D
  8
0
 10
9.4459613014159736
 20
144.6683855218518
 30
0.0
 11
5.5988760034479093
 21
143.38605204158921
 31
0.0
 12
8.8221188052244202
 22
145.8467735384759
 32
0.0
 13
8.8221188052244202
 23
145.8467735384759
 33
0.0
  0
POLYLINE
  5
67E
  8
0
 66
     1
 10
0.0
 20
0.0
 30
0.0
  0
VERTEX
  5
67F
  8
0
 10
9.1340400533201969
 20
145.25757953016381
 30
0.0
  0
VERTEX
  5
680
  8
0
 10
85.0
 20
185.4212685370276
 30
0.0
  0
VERTEX
  5
681
  8
0
 10
89.0
 20
185.4212685370276
 30
0.0
  0
SEQEND
  5
682
  8
0
  0
ENDBLK
  5
684
  8
0
  0
BLOCK
  8
0
  2
*U8
 70
     1
 10
0.0
 20
0.0
 30
0.0
  3
*U8
  1

  0
TEXT
  5
686
  8
0
  6
CONTINUOUS
 10
90.568894952251028
 20
184.0092630800016
 30
0.0
 40
4.0
  1
Plywood
  7
EURO_COMMON_SLOK-CNR-INT$0
  0
ENDBLK
  5
688
  8
0
  0
BLOCK
  8
0
  2
*U9
 70
     1
 10
0.0
 20
0.0
 30
0.0
  3
*U9
  1

  0
SOLID
  5
68A
  8
0
 10
24.325964612580481
 20
23.349384404494941
 30
0.0
 11
21.282233047034651
 21
20.669805594057681
 31
0.0
 12
23.292385994841599
 22
24.191698490053739
 32
0.0
 13
23.292385994841599
 23
24.191698490053739
 33
0.0
  0
POLYLINE
  5
68B
  8
0
 66
     1
 10
0.0
 20
0.0
 30
0.0
  0
VERTEX
  5
68C
  8
0
 10
23.80917530371104
 20
23.77054144727434
 30
0.0
  0
VERTEX
  5
68D
  8
0
 10
85.0
 20
98.855986523187326
 30
0.0
  0
VERTEX
  5
68E
  8
0
 10
89.0
 20
98.855986523187326
 30
0.0
  0
SEQEND
  5
68F
  8
0
  0
ENDBLK
  5
691
  8
0
  0
BLOCK
  8
0
  2
*U10
 70
     1
 10
0.0
 20
0.0
 30
0.0
  3
*U10
  1

  0
TEXT
  5
693
  8
0
  6
CONTINUOUS
 10
90.478854024556597
 20
96.890092935192754
 30
0.0
 40
4.0
  1
Internal Corner
  7
EURO_COMMON_SLOK-CNR-INT$0
  0
ENDBLK
  5
695
  8
0
  0
BLOCK
  8
0
  2
*U11
 70
     1
 10
0.0
 20
0.0
 30
0.0
  3
*U11
  1

  0
SOLID
  5
697
  8
0
 10
127.3645550199149
 20
18.730826654696958
 30
0.0
 11
124.3667174281763
 21
16.0
 31
0.0
 12
126.3168362350544
 22
19.5554860544664
 32
0.0
 13
126.3168362350544
 23
19.5554860544664
 33
0.0
  0
POLYLINE
  5
698
  8
0
 66
     1
 10
0.0
 20
0.0
 30
0.0
  0
VERTEX
  5
699
  8
0
 10
126.84069562748461
 20
19.143156354581681
 30
0.0
  0
VERTEX
  5
69A
  8
0
 10
147.30000000000001
 20
45.1364300894802
 30
0.0
  0
VERTEX
  5
69B
  8
0
 10
151.30000000000001
 20
45.1364300894802
 30
0.0
  0
SEQEND
  5
69C
  8
0
  0
ENDBLK
  5
69E
  8
0
  0
BLOCK
  8
0
  2
*U12
 70
     1
 10
0.0
 20
0.0
 30
0.0
  3
*U12
  1

  0
TEXT
  5
6A0
  8
0
  6
CONTINUOUS
 10
153.0489768076398
 20
43.691682476929032
 30
0.0
 40
4.0
  1
Seamlok clip
  7
EURO_COMMON_SLOK-CNR-INT$0
  0
ENDBLK
  5
6A2
  8
0
  0
BLOCK
  8
0
  2
*U13
 70
     1
 10
0.0
 20
0.0
 30
0.0
  3
*U13
  1

  0
SOLID
  5
6A4
  8
0
 10
103.9472409895595
 20
22.77263674279407
 30
0.0
 11
101.0477832039887
 21
19.93757254702404
 31
0.0
 12
102.87103326198159
 22
23.559754716721361
 32
0.0
 13
102.87103326198159
 23
23.559754716721361
 33
0.0
  0
POLYLINE
  5
6A5
  8
0
 66
     1
 10
0.0
 20
0.0
 30
0.0
  0
VERTEX
  5
6A6
  8
0
 10
103.4091371257706
 20
23.166195729757721
 30
0.0
  0
VERTEX
  5
6A7
  8
0
 10
147.3483874912244
 20
83.243290083658394
 30
0.0
  0
VERTEX
  5
6A8
  8
0
 10
151.3483874912244
 20
83.243290083658394
 30
0.0
  0
SEQEND
  5
6A9
  8
0
  0
ENDBLK
  5
6AB
  8
0
  0
BLOCK
  8
0
  2
*U14
 70
     1
 10
0.0
 20
0.0
 30
0.0
  3
*U14
  1

  0
TEXT
  5
6AD
  8
0
  6
CONTINUOUS
 10
152.90636839163369
 20
81.277396495663837
 30
0.0
 40
4.0
  1
Euroline Seamlok
  7
EURO_COMMON_SLOK-CNR-INT$0
  0
ENDBLK
  5
6AF
  8
0
  0
BLOCK
  8
0
  2
*U15
 70
     1
 10
0.0
 20
0.0
 30
0.0
  3
*U15
  1

  0
SOLID
  5
6B1
  8
0
 10
134.08846373190511
 20
11.9021074449888
 30
0.0
 11
131.47168973286529
 21
15.000000000000011
 31
0.0
 12
134.95173839844711
 22
12.91824455575906
 32
0.0
 13
134.95173839844711
 23
12.91824455575906
 33
0.0
  0
POLYLINE
  5
6B2
  8
0
 66
     1
 10
0.0
 20
0.0
 30
0.0
  0
VERTEX
  5
6B3
  8
0
 10
134.52010106517611
 20
12.41017600037393
 30
0.0
  0
VERTEX
  5
6B4
  8
0
 10
147.30000000000001
 20
1.5528193755008031
 30
0.0
  0
VERTEX
  5
6B5
  8
0
 10
151.30000000000001
 20
1.5528193755008031
 30
0.0
  0
SEQEND
  5
6B6
  8
0
  0
ENDBLK
  5
6B8
  8
0
  0
BLOCK
  8
0
  2
*U16
 70
     1
 10
0.0
 20
0.0
 30
0.0
  3
*U16
  1

  0
TEXT
  5
6BA
  8
0
  6
CONTINUOUS
 10
152.8607094133697
 20
0.1408139184748824
 30
0.0
 40
4.0
  1
Underlay
  7
EURO_COMMON_SLOK-CNR-INT$0
  0
ENDBLK
  5
6BC
  8
0
  0
BLOCK
  8
0
  2
*U17
 70
     1
 10
0.0
 20
0.0
 30
0.0
  3
*U17
  1

  0
SOLID
  5
6EF
  8
0
 10
21.88187979898975
 20
115.698205980777
 30
0.0
 11
18.140709835776821
 21
114.1335680831158
 31
0.0
 12
21.172204266601629
 22
116.8269833797833
 32
0.0
 13
21.172204266601629
 23
116.8269833797833
 33
0.0
  0
POLYLINE
  5
6F0
  8
0
 66
     1
 10
0.0
 20
0.0
 30
0.0
  0
VERTEX
  5
6F1
  8
0
 10
21.527042032795691
 20
116.2625946802801
 30
0.0
  0
VERTEX
  5
6F2
  8
0
 10
85.000000000000014
 20
156.1687845785541
 30
0.0
  0
VERTEX
  5
6F3
  8
0
 10
89.000000000000014
 20
156.1687845785541
 30
0.0
  0
SEQEND
  5
6F4
  8
0
  0
ENDBLK
  5
6F6
  8
0
  0
BLOCK
  8
0
  2
*U18
 70
     1
 10
0.0
 20
0.0
 30
0.0
  3
*U18
  1

  0
TEXT
  5
6F8
  8
0
  6
CONTINUOUS
 10
90.721691678035484
 20
154.20289099055961
 30
0.0
 40
4.0
  1
Counter sunk screw
  7
EURO_COMMON_SLOK-CNR-INT$0
  0
ENDBLK
  5
6FA
  8
0
  0
BLOCK
  8
0
  2
*U19
 70
     1
 10
0.0
 20
0.0
 30
0.0
  3
*U19
  1

  0
SOLID
  5
711
  8
0
 10
9.4459613014159736
 20
182.975031873516
 30
0.0
 11
5.5988760034479093
 21
181.69269839325341
 31
0.0
 12
8.8221188052244202
 22
184.1534198901401
 32
0.0
 13
8.8221188052244202
 23
184.1534198901401
 33
0.0
  0
POLYLINE
  5
712
  8
0
 66
     1
 10
0.0
 20
0.0
 30
0.0
  0
VERTEX
  5
713
  8
0
 10
9.1340400533201969
 20
183.56422588182801
 30
0.0
  0
VERTEX
  5
714
  8
0
 10
85.0
 20
223.7279148886918
 30
0.0
  0
VERTEX
  5
715
  8
0
 10
89.0
 20
223.7279148886918
 30
0.0
  0
SEQEND
  5
716
  8
0
  0
ENDBLK
  5
718
  8
0
  0
BLOCK
  8
0
  2
*U20
 70
     1
 10
0.0
 20
0.0
 30
0.0
  3
*U20
  1

  0
TEXT
  5
71A
  8
0
  6
CONTINUOUS
 10
90.721691678035469
 20
222.31590943166589
 30
0.0
 40
4.0
  1
Cavibat - horizontal drained cavity batten
  7
EURO_COMMON_SLOK-CNR-INT$0
  0
ENDBLK
  5
71C
  8
0
  0
ENDSEC
  0
SECTION
  2
ENTITIES
  0
POLYLINE
  5
4D9
  8
0
 66
     1
 10
0.0
 20
0.0
 30
0.0
  0
VERTEX
  5
672
  8
0
 10
0.5000000000000068
 20
191.0
 30
0.0
  0
VERTEX
  5
673
  8
0
 10
0.5
 20
0.4999999999999965
 30
0.0
  0
VERTEX
  5
674
  8
0
 10
12.5
 20
0.4999999999999965
 30
0.0
  0
VERTEX
  5
675
  8
0
 10
12.500000000000011
 20
191.0
 30
0.0
  0
SEQEND
  5
676
  8
0
  0
POLYLINE
  5
4DA
  8
0
 66
     1
 10
0.0
 20
0.0
 30
0.0
  0
VERTEX
  5
677
  8
0
 10
140.0
 20
12.5
 30
0.0
  0
VERTEX
  5
678
  8
0
 10
12.5
 20
12.5
 30
0.0
  0
VERTEX
  5
679
  8
0
 10
12.5
 20
0.4999999999999965
 30
0.0
  0
VERTEX
  5
67A
  8
0
 10
140.0
 20
0.4999999999999965
 30
0.0
  0
SEQEND
  5
67B
  8
0
  0
INSERT
  5
4DC
  8
0
  6
CONTINUOUS
  2
*U7
 10
0.0
 20
0.0
 30
0.0
1001
ACAD
1000
DSTYLE
1002
{
1070
   147
1040
1.0
1070
    77
1070
     0
1002
}
  0
INSERT
  5
4DD
  8
0
  6
CONTINUOUS
  2
*U8
 10
0.0
 20
0.0
 30
0.0
  0
INSERT
  5
4DE
  8
0
  6
CONTINUOUS
  2
*U9
 10
0.0
 20
0.0
 30
0.0
1001
ACAD
1000
DSTYLE
1002
{
1070
   147
1040
1.0
1070
    77
1070
     0
1002
}
  0
INSERT
  5
4DF
  8
0
  6
CONTINUOUS
  2
*U10
 10
0.0
 20
0.0
 30
0.0
  0
INSERT
  5
4E0
  8
0
  6
CONTINUOUS
  2
*U11
 10
0.0
 20
0.0
 30
0.0
1001
ACAD
1000
DSTYLE
1002
{
1070
   147
1040
1.0
1070
    77
1070
     0
1002
}
  0
INSERT
  5
4E1
  8
0
  6
CONTINUOUS
  2
*U12
 10
0.0
 20
0.0
 30
0.0
  0
INSERT
  5
4E2
  8
0
  6
CONTINUOUS
  2
*U13
 10
0.0
 20
0.0
 30
0.0
1001
ACAD
1000
DSTYLE
1002
{
1070
   147
1040
1.0
1070
    77
1070
     0
1002
}
  0
INSERT
  5
4E3
  8
0
  6
CONTINUOUS
  2
*U14
 10
0.0
 20
0.0
 30
0.0
  0
INSERT
  5
4E4
  8
0
  6
CONTINUOUS
  2
*U15
 10
0.0
 20
0.0
 30
0.0
1001
ACAD
1000
DSTYLE
1002
{
1070
   147
1040
1.0
1070
    77
1070
     0
1002
}
  0
INSERT
  5
4E5
  8
0
  6
CONTINUOUS
  2
*U16
 10
0.0
 20
0.0
 30
0.0
  0
LINE
  5
4E8
  8
0
 10
-71.482056878527175
 20
-121.5
 30
0.0
 11
139.99999999999989
 21
-121.5
 31
0.0
  0
LINE
  5
4E9
  8
0
 10
28.517943121472872
 20
-21.5
 30
0.0
 11
140.0
 21
-21.499999999999989
 31
0.0
  0
LINE
  5
4EA
  8
0
 10
-121.4820568785271
 20
30.500000000000021
 30
0.0
 11
-121.4820568785271
 21
191.0
 31
0.0
  0
LINE
  5
4EB
  8
0
 10
-21.48205687852715
 20
30.5
 30
0.0
 11
-21.48205687852715
 21
191.0
 31
0.0
  0
POLYLINE
  5
4EC
  8
0
 66
     1
 10
0.0
 20
0.0
 30
0.0
 70
   128
  0
VERTEX
  5
6BD
  8
0
 10
140.0
 20
43.423466969562469
 30
0.0
  0
VERTEX
  5
6BE
  8
0
 10
140.0
 20
-42.40089006531246
 30
0.0
  0
VERTEX
  5
6BF
  8
0
 10
137.25252258054499
 20
-43.400890065312517
 30
0.0
  0
VERTEX
  5
6C0
  8
0
 10
142.7474774194543
 20
-45.400890065312517
 30
0.0
  0
VERTEX
  5
6C1
  8
0
 10
140.0
 20
-46.400890065312467
 30
0.0
  0
VERTEX
  5
6C2
  8
0
 10
139.99999999999989
 20
-132.22524710018749
 30
0.0
  0
SEQEND
  5
6C3
  8
0
  0
POLYLINE
  5
4ED
  8
0
 66
     1
 10
0.0
 20
0.0
 30
0.0
 70
   128
  0
VERTEX
  5
6C4
  8
0
 10
-129.58192227035761
 20
191.0
 30
0.0
  0
VERTEX
  5
6C5
  8
0
 10
-47.716028439263368
 20
191.0
 30
0.0
  0
VERTEX
  5
6C6
  8
0
 10
-46.716028439263113
 20
188.2525225805457
 30
0.0
  0
VERTEX
  5
6C7
  8
0
 10
-44.716028439263113
 20
193.74747741945481
 30
0.0
  0
VERTEX
  5
6C8
  8
0
 10
-43.716028439263368
 20
191.0
 30
0.0
  0
VERTEX
  5
6C9
  8
0
 10
24.550000000000761
 20
191.0
 30
0.0
  0
SEQEND
  5
6CA
  8
0
  0
POLYLINE
  5
4EE
  8
0
 66
     1
 10
0.0
 20
0.0
 30
0.0
 70
   128
 40
0.6
 41
0.6
  0
VERTEX
  5
6CB
  8
0
 10
52.668877858816252
 20
91.816051063154262
 30
0.0
  0
VERTEX
  5
6CC
  8
0
 10
52.668877858816252
 20
97.958269822233163
 30
0.0
 42
-0.9999999999999765
  0
VERTEX
  5
6CD
  8
0
 10
56.307333418164937
 20
97.958269822233135
 30
0.0
  0
VERTEX
  5
6CE
  8
0
 10
56.307333418164831
 20
88.813720857805663
 30
0.0
 42
-0.4142135623730951
  0
VERTEX
  5
6CF
  8
0
 10
55.187808630672947
 20
87.694196070313794
 30
0.0
  0
VERTEX
  5
6D0
  8
0
 10
18.210813856988299
 20
87.694196070313836
 30
0.0
 42
-0.4142135623730951
  0
VERTEX
  5
6D1
  8
0
 10
16.210813856988299
 20
89.694196070313836
 30
0.0
  0
VERTEX
  5
6D2
  8
0
 10
16.21081385698827
 20
123.0877539835469
 30
0.0
  0
SEQEND
  5
6D3
  8
0
  0
POLYLINE
  5
4EF
  8
0
 66
     1
 10
0.0
 20
0.0
 30
0.0
 70
   128
 40
0.6
 41
0.6
  0
VERTEX
  5
6D4
  8
0
 10
92.688575034535006
 20
54.287572547023331
 30
0.0
  0
VERTEX
  5
6D5
  8
0
 10
98.304000650780551
 20
54.287572547023331
 30
0.0
 42
-0.9999999999999998
  0
VERTEX
  5
6D6
  8
0
 10
98.304000650780551
 20
53.387572547023467
 30
0.0
  0
VERTEX
  5
6D7
  8
0
 10
90.630778652357364
 20
53.387572547023467
 30
0.0
 42
0.4452286853080747
  0
VERTEX
  5
6D8
  8
0
 10
89.536804567452961
 20
52.172591237429117
 30
0.0
  0
VERTEX
  5
6D9
  8
0
 10
92.879119248901304
 20
20.372591237428939
 30
0.0
 42
0.3838640350355096
  0
VERTEX
  5
6DA
  8
0
 10
93.973093333805707
 20
19.387572547023019
 30
0.0
  0
VERTEX
  5
6DB
  8
0
 10
140.0
 20
19.387572547023058
 30
0.0
  0
SEQEND
  5
6DC
  8
0
  0
POLYLINE
  5
4F0
  8
0
 66
     1
 10
0.0
 20
0.0
 30
0.0
 70
   128
 40
0.6
 41
0.6
  0
VERTEX
  5
6DD
  8
0
 10
92.115528182941716
 20
52.056450405839257
 30
0.0
  0
VERTEX
  5
6DE
  8
0
 10
98.257746942020617
 20
52.056450405839257
 30
0.0
 42
0.9999999999999764
  0
VERTEX
  5
6DF
  8
0
 10
98.257746942020603
 20
55.694905965187971
 30
0.0
  0
VERTEX
  5
6E0
  8
0
 10
89.113197977593131
 20
55.694905965187857
 30
0.0
 42
0.4142135623730933
  0
VERTEX
  5
6E1
  8
0
 10
87.993673190101248
 20
54.575381177695967
 30
0.0
  0
VERTEX
  5
6E2
  8
0
 10
87.993673190101248
 20
16.598386404011311
 30
0.0
  0
VERTEX
  5
6E3
  8
0
 10
59.971420727957138
 20
16.598386404011318
 30
0.0
  0
SEQEND
  5
6E4
  8
0
  0
POLYLINE
  5
4F1
  8
0
 66
     1
 10
0.0
 20
0.0
 30
0.0
 70
   128
 40
0.6
 41
0.6
  0
VERTEX
  5
6E5
  8
0
 10
54.900000000000318
 20
93.629795731140348
 30
0.0
  0
VERTEX
  5
6E6
  8
0
 10
54.900000000000318
 20
98.004523530993083
 30
0.0
 42
0.9999999999999998
  0
VERTEX
  5
6E7
  8
0
 10
54.000000000000448
 20
98.004523530993083
 30
0.0
  0
VERTEX
  5
6E8
  8
0
 10
54.000000000000448
 20
90.331301532569896
 30
0.0
 42
-0.445228685308072
  0
VERTEX
  5
6E9
  8
0
 10
52.785018690406098
 20
89.237327447665507
 30
0.0
  0
VERTEX
  5
6EA
  8
0
 10
20.985018690405919
 20
92.579642129113864
 30
0.0
 42
-0.38386403503551
  0
VERTEX
  5
6EB
  8
0
 10
20.000000000000011
 20
93.673616214018239
 30
0.0
  0
VERTEX
  5
6EC
  8
0
 10
20.00000000000011
 20
190.99999999999989
 30
0.0
  0
SEQEND
  5
6ED
  8
0
  0
INSERT
  5
4F2
  8
0
  6
CONTINUOUS
  2
*U17
 10
0.0
 20
0.0
 30
0.0
1001
ACAD
1000
DSTYLE
1002
{
1070
   147
1040
1.0
1070
    77
1070
     0
1002
}
  0
INSERT
  5
4F3
  8
0
  6
CONTINUOUS
  2
*U18
 10
0.0
 20
0.0
 30
0.0
  0
POLYLINE
  5
4F4
  8
0
 66
     1
 10
0.0
 20
0.0
 30
0.0
 70
   128
 40
0.6
 41
0.6
  0
VERTEX
  5
6FB
  8
0
 10
92.074378352199105
 20
51.012572547022643
 30
0.0
  0
VERTEX
  5
6FC
  8
0
 10
98.508540073856423
 20
51.012572547020923
 30
0.0
 42
1.0017644360699249
  0
VERTEX
  5
6FD
  8
0
 10
98.508540073856423
 20
56.662572547021
 30
0.0
  0
VERTEX
  5
6FE
  8
0
 10
88.142679716748887
 20
56.662572547020773
 30
0.0
 42
0.3838640350355107
  0
VERTEX
  5
6FF
  8
0
 10
87.048705631844484
 20
55.677553856614843
 30
0.0
  0
VERTEX
  5
700
  8
0
 10
83.344047045980176
 20
20.43008189222633
 30
0.0
 42
-0.3838640350352017
  0
VERTEX
  5
701
  8
0
 10
82.797060003525246
 20
19.93757254702405
 30
0.0
  0
VERTEX
  5
702
  8
0
 10
23.05000000000102
 20
19.93757254702405
 30
0.0
 42
-0.4142135623730951
  0
VERTEX
  5
703
  8
0
 10
20.55000000000102
 20
22.43757254702405
 30
0.0
  0
VERTEX
  5
704
  8
0
 10
20.550000000001031
 20
82.497582883737806
 30
0.0
 42
-0.3838640350352026
  0
VERTEX
  5
705
  8
0
 10
21.04250934520331
 20
83.044569926192736
 30
0.0
  0
VERTEX
  5
706
  8
0
 10
56.289981309591838
 20
86.74922851205703
 30
0.0
 42
0.3838640350355099
  0
VERTEX
  5
707
  8
0
 10
57.274999999997767
 20
87.843202596961419
 30
0.0
  0
VERTEX
  5
708
  8
0
 10
57.274999999997988
 20
98.209062954068955
 30
0.0
 42
1.0000000000001661
  0
VERTEX
  5
709
  8
0
 10
51.624999999997897
 20
98.209062954068074
 30
0.0
  0
VERTEX
  5
70A
  8
0
 10
51.624999999999723
 20
91.812227782223886
 30
0.0
  0
SEQEND
  5
70B
  8
0
  0
POLYLINE
  5
4F5
  8
0
 66
     1
 10
0.0
 20
0.0
 30
0.0
 70
   128
  0
VERTEX
  5
70C
  8
0
 10
15.000000000000011
 20
191.0
 30
0.0
  0
VERTEX
  5
70D
  8
0
 10
15.0
 20
15.0
 30
0.0
  0
VERTEX
  5
70E
  8
0
 10
140.0
 20
15.0
 30
0.0
  0
SEQEND
  5
70F
  8
0
  0
LINE
  5
4F8
  8
0
 10
-121.4820568785271
 20
0.5000000000000142
 30
0.0
 11
-121.4820568785271
 21
-21.500000000000028
 31
0.0
  0
INSERT
  5
50C
  8
0
  6
CONTINUOUS
  2
*U19
 10
0.0
 20
0.0
 30
0.0
1001
ACAD
1000
DSTYLE
1002
{
1070
   147
1040
1.0
1070
    77
1070
     0
1002
}
  0
INSERT
  5
50D
  8
0
  6
CONTINUOUS
  2
*U20
 10
0.0
 20
0.0
 30
0.0
  0
POLYLINE
  5
50F
  8
0
 66
     1
 10
0.0
 20
0.0
 30
0.0
 70
     1
1001
ACDBBLOCKREPETAG
1070
     1
1071
        0
1005
50F
  0
VERTEX
  5
71D
  8
0
 10
-21.482056878527121
 20
-21.500000000000028
 30
0.0
  0
VERTEX
  5
71E
  8
0
 10
-21.482056878527139
 20
-121.5
 30
0.0
  0
VERTEX
  5
71F
  8
0
 10
28.517943121472861
 20
-121.5
 30
0.0
  0
VERTEX
  5
720
  8
0
 10
28.517943121472879
 20
-21.500000000000039
 30
0.0
  0
SEQEND
  5
721
  8
0
  0
POLYLINE
  5
510
  8
0
 66
     1
 10
0.0
 20
0.0
 30
0.0
 70
     1
 40
0.25
 41
0.25
1001
ACDBBLOCKREPETAG
1070
     1
1071
        0
1005
50F
  0
VERTEX
  5
722
  8
0
 10
-21.357056878527121
 20
-21.625000000000028
 30
0.0
  0
VERTEX
  5
723
  8
0
 10
-21.357056878527139
 20
-121.375
 30
0.0
  0
VERTEX
  5
724
  8
0
 10
28.392943121472861
 20
-121.375
 30
0.0
  0
VERTEX
  5
725
  8
0
 10
28.392943121472879
 20
-21.625000000000039
 30
0.0
  0
SEQEND
  5
726
  8
0
  0
LINE
  5
511
  8
0
 10
-21.482056878527121
 20
-21.500000000000028
 30
0.0
 11
28.517943121472861
 21
-121.5
 31
0.0
1001
ACDBBLOCKREPETAG
1070
     1
1071
        1
1005
511
  0
LINE
  5
512
  8
0
 10
28.517943121472879
 20
-21.500000000000039
 30
0.0
 11
-21.482056878527139
 21
-121.5
 31
0.0
1001
ACDBBLOCKREPETAG
1070
     1
1071
        2
1005
512
  0
LINE
  5
513
  8
0
 10
12.61460945548375
 20
103.9409750269304
 30
0.0
 11
-50.419187912666281
 21
104.1443095400337
 31
0.0
1001
ACDBBLOCKREPETAG
1070
     1
1071
        0
1005
513
  0
LINE
  5
514
  8
0
 10
12.614609455483951
 20
108.84097502693029
 30
0.0
 11
-50.419187912666771
 21
108.63764051382709
 31
0.0
1001
ACDBBLOCKREPETAG
1070
     1
1071
        1
1005
514
  0
LINE
  5
515
  8
0
 10
-53.789186143011811
 20
106.39097502693041
 30
0.0
 11
-50.419187912666771
 21
108.63764051382709
 31
0.0
1001
ACDBBLOCKREPETAG
1070
     1
1071
        2
1005
515
  0
LINE
  5
516
  8
0
 10
-53.789186143011811
 20
106.39097502693041
 30
0.0
 11
-50.419187912666281
 21
104.1443095400337
 31
0.0
1001
ACDBBLOCKREPETAG
1070
     1
1071
        3
1005
516
  0
LINE
  5
517
  8
0
 10
-44.412782900283879
 20
108.6570159836494
 30
0.0
 11
-43.683784220647659
 21
104.1225824652349
 31
0.0
1001
ACDBBLOCKREPETAG
1070
     1
1071
        6
1005
517
  0
LINE
  5
518
  8
0
 10
-52.434339031157293
 20
107.2942064348334
 30
0.0
 11
-52.219590651098741
 21
105.9584533261343
 31
0.0
1001
ACDBBLOCKREPETAG
1070
     1
1071
        7
1005
518
  0
LINE
  5
519
  8
0
 10
-53.789186143011811
 20
106.39097502693041
 30
0.0
 11
-45.579516538192422
 21
104.1286977212381
 31
0.0
1001
ACDBBLOCKREPETAG
1070
     1
1071
        8
1005
519
  0
LINE
  5
51A
  8
0
 10
-45.763435565374863
 20
108.6526590463634
 30
0.0
 11
-45.035838538043258
 21
104.1269439239728
 31
0.0
1001
ACDBBLOCKREPETAG
1070
     1
1071
       10
1005
51A
  0
LINE
  5
51B
  8
0
 10
-47.114088230466621
 20
108.64830210907751
 30
0.0
 11
-46.424927044899071
 21
104.3616611771845
 31
0.0
1001
ACDBBLOCKREPETAG
1070
     1
1071
       12
1005
51B
  0
LINE
  5
51C
  8
0
 10
-48.464740895556318
 20
108.6439451717916
 30
0.0
 11
-47.838923102401672
 21
104.7513055045699
 31
0.0
1001
ACDBBLOCKREPETAG
1070
     1
1071
       14
1005
51C
  0
LINE
  5
51D
  8
0
 10
-49.815393560647699
 20
108.6395882345056
 30
0.0
 11
-49.25291915990438
 21
105.1409498319553
 31
0.0
1001
ACDBBLOCKREPETAG
1070
     1
1071
       16
1005
51D
  0
LINE
  5
51E
  8
0
 10
-51.094097014775521
 20
108.18770111242119
 30
0.0
 11
-50.666915217406718
 21
105.53059415934069
 31
0.0
1001
ACDBBLOCKREPETAG
1070
     1
1071
       18
1005
51E
  0
LINE
  5
51F
  8
0
 10
12.614609455483951
 20
108.84097502693029
 30
0.0
 11
13.29101755513247
 21
108.84097502693029
 31
0.0
1001
ACDBBLOCKREPETAG
1070
     1
1071
       20
1005
51F
  0
LINE
  5
520
  8
0
 10
13.29101755513247
 20
108.84097502693029
 30
0.0
 11
16.210813856988072
 21
111.2909750269302
 31
0.0
1001
ACDBBLOCKREPETAG
1070
     1
1071
       22
1005
520
  0
LINE
  5
521
  8
0
 10
16.210813856988072
 20
111.2909750269302
 30
0.0
 11
16.526021265229971
 21
111.2909750269302
 31
0.0
1001
ACDBBLOCKREPETAG
1070
     1
1071
       23
1005
521
  0
LINE
  5
522
  8
0
 10
16.526021265229971
 20
111.2909750269302
 30
0.0
 11
16.526021265229922
 21
101.4909750269303
 31
0.0
1001
ACDBBLOCKREPETAG
1070
     1
1071
       24
1005
522
  0
LINE
  5
523
  8
0
 10
16.210813856988288
 20
111.2909750269304
 30
0.0
 11
16.210813856988331
 21
101.4909750269303
 31
0.0
1001
ACDBBLOCKREPETAG
1070
     1
1071
       25
1005
523
  0
LINE
  5
524
  8
0
 10
16.210813856988018
 20
101.4909750269303
 30
0.0
 11
16.526021265229922
 21
101.4909750269303
 31
0.0
1001
ACDBBLOCKREPETAG
1070
     1
1071
       27
1005
524
  0
LINE
  5
525
  8
0
 10
13.29101755513247
 20
103.9409750269304
 30
0.0
 11
13.29101755513247
 21
108.84097502693029
 31
0.0
1001
ACDBBLOCKREPETAG
1070
     1
1071
       28
1005
525
  0
LINE
  5
526
  8
0
 10
-37.659519574828948
 20
108.6788006700791
 30
0.0
 11
-36.92351263367101
 21
104.10077517154519
 31
0.0
1001
ACDBBLOCKREPETAG
1070
     1
1071
       30
1005
526
  0
LINE
  5
527
  8
0
 10
-39.010172239919761
 20
108.67444373279319
 30
0.0
 11
-38.275566951066672
 21
104.1051366302831
 31
0.0
1001
ACDBBLOCKREPETAG
1070
     1
1071
       32
1005
527
  0
LINE
  5
528
  8
0
 10
-40.36082490501164
 20
108.6700867955072
 30
0.0
 11
-39.627621268461191
 21
104.1094980890211
 31
0.0
1001
ACDBBLOCKREPETAG
1070
     1
1071
       34
1005
528
  0
LINE
  5
529
  8
0
 10
-41.71147757010143
 20
108.6657298582213
 30
0.0
 11
-40.979675585857059
 21
104.11385954775901
 31
0.0
1001
ACDBBLOCKREPETAG
1070
     1
1071
       36
1005
529
  0
LINE
  5
52A
  8
0
 10
-43.062130235192427
 20
108.66137292093541
 30
0.0
 11
-42.331729903252921
 21
104.1182210064969
 31
0.0
1001
ACDBBLOCKREPETAG
1070
     1
1071
       38
1005
52A
  0
LINE
  5
52B
  8
0
 10
-30.949429452227879
 20
108.7004460883298
 30
0.0
 11
-30.20645905293912
 21
104.0791072905614
 31
0.0
1001
ACDBBLOCKREPETAG
1070
     1
1071
       46
1005
52B
  0
LINE
  5
52C
  8
0
 10
-32.300082117318851
 20
108.69608915104379
 30
0.0
 11
-31.55851337033473
 21
104.0834687492994
 31
0.0
1001
ACDBBLOCKREPETAG
1070
     1
1071
       48
1005
52C
  0
LINE
  5
52D
  8
0
 10
-33.650734782410609
 20
108.6917322137578
 30
0.0
 11
-32.910567687729802
 21
104.0878302080373
 31
0.0
1001
ACDBBLOCKREPETAG
1070
     1
1071
       50
1005
52D
  0
LINE
  5
52E
  8
0
 10
-35.001387447500299
 20
108.6873752764719
 30
0.0
 11
-34.262622005125479
 21
104.09219166677531
 31
0.0
1001
ACDBBLOCKREPETAG
1070
     1
1071
       52
1005
52E
  0
LINE
  5
52F
  8
0
 10
-36.352040112591702
 20
108.68301833918601
 30
0.0
 11
-35.61467632252117
 21
104.0965531255132
 31
0.0
1001
ACDBBLOCKREPETAG
1070
     1
1071
       54
1005
52F
  0
LINE
  5
530
  8
0
 10
-24.196166126772919
 20
108.7222307747595
 30
0.0
 11
-23.446187465962481
 21
104.05729999687171
 31
0.0
1001
ACDBBLOCKREPETAG
1070
     1
1071
       56
1005
530
  0
LINE
  5
531
  8
0
 10
-25.546818791863739
 20
108.7178738374735
 30
0.0
 11
-24.79824178335814
 21
104.06166145560969
 31
0.0
1001
ACDBBLOCKREPETAG
1070
     1
1071
       58
1005
531
  0
LINE
  5
532
  8
0
 10
-26.897471456955639
 20
108.7135169001876
 30
0.0
 11
-26.15029610075263
 21
104.0660229143476
 31
0.0
1001
ACDBBLOCKREPETAG
1070
     1
1071
       60
1005
532
  0
LINE
  5
533
  8
0
 10
-28.248124122045422
 20
108.70915996290159
 30
0.0
 11
-27.50235041814852
 21
104.0703843730856
 31
0.0
1001
ACDBBLOCKREPETAG
1070
     1
1071
       62
1005
533
  0
LINE
  5
534
  8
0
 10
-29.598776787136401
 20
108.7048030256157
 30
0.0
 11
-28.854404735544389
 21
104.07474583182351
 31
0.0
1001
ACDBBLOCKREPETAG
1070
     1
1071
       64
1005
534
  0
LINE
  5
535
  8
0
 10
-17.44916060289221
 20
108.743995274764
 30
0.0
 11
-16.692180174651551
 21
104.03551291055589
 31
0.0
1001
ACDBBLOCKREPETAG
1070
     1
1071
       77
1005
535
  0
LINE
  5
536
  8
0
 10
-18.799813267983019
 20
108.739638337478
 30
0.0
 11
-18.04423449204722
 21
104.0398743692938
 31
0.0
1001
ACDBBLOCKREPETAG
1070
     1
1071
       79
1005
536
  0
LINE
  5
537
  8
0
 10
-20.150465933074909
 20
108.73528140019209
 30
0.0
 11
-19.39628880944171
 21
104.0442358280318
 31
0.0
1001
ACDBBLOCKREPETAG
1070
     1
1071
       81
1005
537
  0
LINE
  5
538
  8
0
 10
-21.501118598164702
 20
108.7309244629061
 30
0.0
 11
-20.748343126837621
 21
104.04859728676971
 31
0.0
1001
ACDBBLOCKREPETAG
1070
     1
1071
       83
1005
538
  0
LINE
  5
539
  8
0
 10
-22.851771263255671
 20
108.7265675256202
 30
0.0
 11
-22.10039744423349
 21
104.0529587455076
 31
0.0
1001
ACDBBLOCKREPETAG
1070
     1
1071
       85
1005
539
  0
LINE
  5
53A
  8
0
 10
-12.01752074288523
 20
108.76151666634119
 30
0.0
 11
-11.25490358010652
 21
104.01797333599239
 31
0.0
1001
ACDBBLOCKREPETAG
1070
     1
1071
       88
1005
53A
  0
LINE
  5
53B
  8
0
 10
-13.368173407974769
 20
108.7571597290553
 30
0.0
 11
-12.606957897501969
 21
104.0223347947303
 31
0.0
1001
ACDBBLOCKREPETAG
1070
     1
1071
       90
1005
53B
  0
LINE
  5
53C
  8
0
 10
-14.718826073066451
 20
108.7528027917693
 30
0.0
 11
-13.95901221489701
 21
104.0266962534682
 31
0.0
1001
ACDBBLOCKREPETAG
1070
     1
1071
       92
1005
53C
  0
LINE
  5
53D
  8
0
 10
-16.069478738157009
 20
108.74844585448341
 30
0.0
 11
-15.311066532292591
 21
104.03105771220621
 31
0.0
1001
ACDBBLOCKREPETAG
1070
     1
1071
       94
1005
53D
  0
LINE
  5
53E
  8
0
 10
-7.9718205491857317
 20
108.77456729177381
 30
0.0
 11
-7.205004923586098
 21
104.00490916715241
 31
0.0
1001
ACDBBLOCKREPETAG
1070
     1
1071
      105
1005
53E
  0
LINE
  5
53F
  8
0
 10
-9.3224732142762861
 20
108.7702103544879
 30
0.0
 11
-8.5570592409816904
 21
104.00927062589039
 31
0.0
1001
ACDBBLOCKREPETAG
1070
     1
1071
      107
1005
53F
  0
LINE
  5
540
  8
0
 10
-10.67312587936736
 20
108.7658534172019
 30
0.0
 11
-9.9091135583770509
 21
104.0136320846283
 31
0.0
1001
ACDBBLOCKREPETAG
1070
     1
1071
      109
1005
540
  0
LINE
  5
541
  8
0
 10
-3.96035716442855
 20
108.7875074760595
 30
0.0
 11
-3.1893786055722759
 21
103.9919555540707
 31
0.0
1001
ACDBBLOCKREPETAG
1070
     1
1071
      112
1005
541
  0
LINE
  5
542
  8
0
 10
-5.3110098295193602
 20
108.7831505387736
 30
0.0
 11
-4.5414329229679424
 21
103.9963170128086
 31
0.0
1001
ACDBBLOCKREPETAG
1070
     1
1071
      114
1005
542
  0
LINE
  5
543
  8
0
 10
-6.6679202961855308
 20
108.7787734150624
 30
0.0
 11
-5.8997515360286634
 21
104.0006986789204
 31
0.0
1001
ACDBBLOCKREPETAG
1070
     1
1071
      123
1005
543
  0
LINE
  5
544
  8
0
 10
1.4359956943613661
 20
108.80491503877811
 30
0.0
 11
2.2125743683429659
 21
103.97452992649281
 31
0.0
1001
ACDBBLOCKREPETAG
1070
     1
1071
      125
1005
544
  0
LINE
  5
545
  8
0
 10
0.0853430292694419
 20
108.8005581014922
 30
0.0
 11
0.8605200509485051
 21
103.9788913852307
 31
0.0
1001
ACDBBLOCKREPETAG
1070
     1
1071
      127
1005
545
  0
LINE
  5
546
  8
0
 10
-1.265309635820312
 20
108.7962011642062
 30
0.0
 11
-0.4915342664474203
 21
103.9832528439687
 31
0.0
1001
ACDBBLOCKREPETAG
1070
     1
1071
      129
1005
546
  0
LINE
  5
547
  8
0
 10
-2.615962300911288
 20
108.7918442269203
 30
0.0
 11
-1.843588583843295
 21
103.9876143027066
 31
0.0
1001
ACDBBLOCKREPETAG
1070
     1
1071
      131
1005
547
  0
LINE
  5
548
  8
0
 10
12.61460945548394
 20
103.9409750269304
 30
0.0
 11
13.29101755513247
 21
103.9409750269304
 31
0.0
1001
ACDBBLOCKREPETAG
1070
     1
1071
      132
1005
548
  0
LINE
  5
549
  8
0
 10
13.29101755513247
 20
103.9409750269304
 30
0.0
 11
16.210813856988072
 21
101.4909750269305
 31
0.0
1001
ACDBBLOCKREPETAG
1070
     1
1071
      133
1005
549
  0
LINE
  5
54A
  8
0
 10
76.432546959029196
 20
13.00218200250678
 30
0.0
 11
76.229212445925853
 21
-50.031615365643248
 31
0.0
1001
ACDBBLOCKREPETAG
1070
     1
1071
        0
1005
54A
  0
LINE
  5
54B
  8
0
 10
71.53254695902919
 20
13.00218200250697
 30
0.0
 11
71.73588147213249
 21
-50.031615365643752
 31
0.0
1001
ACDBBLOCKREPETAG
1070
     1
1071
        1
1005
54B
  0
LINE
  5
54C
  8
0
 10
73.982546959029179
 20
-53.401613595988778
 30
0.0
 11
71.73588147213249
 21
-50.031615365643752
 31
0.0
1001
ACDBBLOCKREPETAG
1070
     1
1071
        2
1005
54C
  0
LINE
  5
54D
  8
0
 10
73.982546959029179
 20
-53.401613595988778
 30
0.0
 11
76.229212445925853
 21
-50.031615365643248
 31
0.0
1001
ACDBBLOCKREPETAG
1070
     1
1071
        3
1005
54D
  0
LINE
  5
54E
  8
0
 10
71.716506002310155
 20
-44.02521035326086
 30
0.0
 11
76.250939520724671
 21
-43.296211673624633
 31
0.0
1001
ACDBBLOCKREPETAG
1070
     1
1071
        6
1005
54E
  0
LINE
  5
54F
  8
0
 10
73.079315551126172
 20
-52.04676648413426
 30
0.0
 11
74.415068659825266
 21
-51.832018104075722
 31
0.0
1001
ACDBBLOCKREPETAG
1070
     1
1071
        7
1005
54F
  0
LINE
  5
550
  8
0
 10
73.982546959029179
 20
-53.401613595988778
 30
0.0
 11
76.244824264721444
 21
-45.191943991169403
 31
0.0
1001
ACDBBLOCKREPETAG
1070
     1
1071
        8
1005
550
  0
LINE
  5
551
  8
0
 10
71.720862939596074
 20
-45.375863018351829
 30
0.0
 11
76.246578061986739
 21
-44.648265991020239
 31
0.0
1001
ACDBBLOCKREPETAG
1070
     1
1071
       10
1005
551
  0
LINE
  5
552
  8
0
 10
71.725219876882036
 20
-46.726515683443587
 30
0.0
 11
76.011860808775111
 21
-46.037354497876038
 31
0.0
1001
ACDBBLOCKREPETAG
1070
     1
1071
       12
1005
552
  0
LINE
  5
553
  8
0
 10
71.729576814167984
 20
-48.077168348533299
 30
0.0
 11
75.622216481389685
 21
-47.451350555378639
 31
0.0
1001
ACDBBLOCKREPETAG
1070
     1
1071
       14
1005
553
  0
LINE
  5
554
  8
0
 10
71.733933751453932
 20
-49.427821013624673
 30
0.0
 11
75.232572154004217
 21
-48.86534661288136
 31
0.0
1001
ACDBBLOCKREPETAG
1070
     1
1071
       16
1005
554
  0
LINE
  5
555
  8
0
 10
72.185820873538319
 20
-50.706524467752487
 30
0.0
 11
74.842927826618862
 21
-50.279342670383691
 31
0.0
1001
ACDBBLOCKREPETAG
1070
     1
1071
       18
1005
555
  0
LINE
  5
556
  8
0
 10
71.53254695902919
 20
13.00218200250697
 30
0.0
 11
71.53254695902919
 21
13.6785901021555
 31
0.0
1001
ACDBBLOCKREPETAG
1070
     1
1071
       20
1005
556
  0
LINE
  5
557
  8
0
 10
71.53254695902919
 20
13.6785901021555
 30
0.0
 11
69.082546959029372
 21
16.598386404011102
 31
0.0
1001
ACDBBLOCKREPETAG
1070
     1
1071
       22
1005
557
  0
LINE
  5
558
  8
0
 10
69.082546959029358
 20
16.598386404011102
 30
0.0
 11
69.082546959029358
 21
16.913593812252991
 31
0.0
1001
ACDBBLOCKREPETAG
1070
     1
1071
       23
1005
558
  0
LINE
  5
559
  8
0
 10
69.082546959029358
 20
16.913593812253001
 30
0.0
 11
78.882546959029199
 21
16.913593812252941
 31
0.0
1001
ACDBBLOCKREPETAG
1070
     1
1071
       24
1005
559
  0
LINE
  5
55A
  8
0
 10
69.082546959029173
 20
16.598386404011311
 30
0.0
 11
78.882546959029199
 21
16.598386404011361
 31
0.0
1001
ACDBBLOCKREPETAG
1070
     1
1071
       25
1005
55A
  0
LINE
  5
55B
  8
0
 10
78.882546959029199
 20
16.598386404011048
 30
0.0
 11
78.882546959029199
 21
16.913593812252941
 31
0.0
1001
ACDBBLOCKREPETAG
1070
     1
1071
       27
1005
55B
  0
LINE
  5
55C
  8
0
 10
76.432546959029196
 20
13.6785901021555
 30
0.0
 11
71.53254695902919
 21
13.6785901021555
 31
0.0
1001
ACDBBLOCKREPETAG
1070
     1
1071
       28
1005
55C
  0
LINE
  5
55D
  8
0
 10
71.694721315880429
 20
-37.271947027805922
 30
0.0
 11
76.272746814414376
 21
-36.53594008664799
 31
0.0
1001
ACDBBLOCKREPETAG
1070
     1
1071
       30
1005
55D
  0
LINE
  5
55E
  8
0
 10
71.699078253166377
 20
-38.622599692896742
 30
0.0
 11
76.268385355676415
 21
-37.887994404043653
 31
0.0
1001
ACDBBLOCKREPETAG
1070
     1
1071
       32
1005
55E
  0
LINE
  5
55F
  8
0
 10
71.703435190452325
 20
-39.973252357988621
 30
0.0
 11
76.264023896938497
 21
-39.240048721438157
 31
0.0
1001
ACDBBLOCKREPETAG
1070
     1
1071
       34
1005
55F
  0
LINE
  5
560
  8
0
 10
71.707792127738259
 20
-41.32390502307841
 30
0.0
 11
76.25966243820055
 21
-40.592103038834033
 31
0.0
1001
ACDBBLOCKREPETAG
1070
     1
1071
       36
1005
560
  0
LINE
  5
561
  8
0
 10
71.712149065024207
 20
-42.674557688169394
 30
0.0
 11
76.255300979462618
 21
-41.944157356229901
 31
0.0
1001
ACDBBLOCKREPETAG
1070
     1
1071
       38
1005
561
  0
LINE
  5
562
  8
0
 10
71.673075897629815
 20
-30.561856905204849
 30
0.0
 11
76.294414695398132
 21
-29.81888650591609
 31
0.0
1001
ACDBBLOCKREPETAG
1070
     1
1071
       46
1005
562
  0
LINE
  5
563
  8
0
 10
71.677432834915763
 20
-31.912509570295828
 30
0.0
 11
76.290053236660185
 21
-31.17094082331171
 31
0.0
1001
ACDBBLOCKREPETAG
1070
     1
1071
       48
1005
563
  0
LINE
  5
564
  8
0
 10
71.681789772201697
 20
-33.263162235387583
 30
0.0
 11
76.285691777922253
 21
-32.522995140706769
 31
0.0
1001
ACDBBLOCKREPETAG
1070
     1
1071
       50
1005
564
  0
LINE
  5
565
  8
0
 10
71.686146709487645
 20
-34.613814900477273
 30
0.0
 11
76.281330319184306
 21
-33.875049458102453
 31
0.0
1001
ACDBBLOCKREPETAG
1070
     1
1071
       52
1005
565
  0
LINE
  5
566
  8
0
 10
71.690503646773593
 20
-35.964467565568683
 30
0.0
 11
76.276968860446374
 21
-35.227103775498144
 31
0.0
1001
ACDBBLOCKREPETAG
1070
     1
1071
       54
1005
566
  0
LINE
  5
567
  8
0
 10
71.651291211200089
 20
-23.8085935797499
 30
0.0
 11
76.316221989087822
 21
-23.058614918939451
 31
0.0
1001
ACDBBLOCKREPETAG
1070
     1
1071
       56
1005
567
  0
LINE
  5
568
  8
0
 10
71.655648148486037
 20
-25.159246244840709
 30
0.0
 11
76.31186053034989
 21
-24.41066923633511
 31
0.0
1001
ACDBBLOCKREPETAG
1070
     1
1071
       58
1005
568
  0
LINE
  5
569
  8
0
 10
71.660005085771985
 20
-26.509898909932609
 30
0.0
 11
76.307499071611943
 21
-25.7627235537296
 31
0.0
1001
ACDBBLOCKREPETAG
1070
     1
1071
       60
1005
569
  0
LINE
  5
56A
  8
0
 10
71.664362023057919
 20
-27.860551575022392
 30
0.0
 11
76.303137612874011
 21
-27.114777871125501
 31
0.0
1001
ACDBBLOCKREPETAG
1070
     1
1071
       62
1005
56A
  0
LINE
  5
56B
  8
0
 10
71.668718960343867
 20
-29.211204240113378
 30
0.0
 11
76.298776154136064
 21
-28.466832188521369
 31
0.0
1001
ACDBBLOCKREPETAG
1070
     1
1071
       64
1005
56B
  0
LINE
  5
56C
  8
0
 10
71.629526711195581
 20
-17.061588055869191
 30
0.0
 11
76.338009075403662
 21
-16.304607627628531
 31
0.0
1001
ACDBBLOCKREPETAG
1070
     1
1071
       77
1005
56C
  0
LINE
  5
56D
  8
0
 10
71.633883648481515
 20
-18.412240720959989
 30
0.0
 11
76.333647616665729
 21
-17.656661945024201
 31
0.0
1001
ACDBBLOCKREPETAG
1070
     1
1071
       79
1005
56D
  0
LINE
  5
56E
  8
0
 10
71.638240585767463
 20
-19.762893386051879
 30
0.0
 11
76.329286157927783
 21
-19.008716262418691
 31
0.0
1001
ACDBBLOCKREPETAG
1070
     1
1071
       81
1005
56E
  0
LINE
  5
56F
  8
0
 10
71.642597523053411
 20
-21.113546051141679
 30
0.0
 11
76.32492469918985
 21
-20.360770579814591
 31
0.0
1001
ACDBBLOCKREPETAG
1070
     1
1071
       83
1005
56F
  0
LINE
  5
570
  8
0
 10
71.646954460339359
 20
-22.464198716232652
 30
0.0
 11
76.320563240451904
 21
-21.71282489721046
 31
0.0
1001
ACDBBLOCKREPETAG
1070
     1
1071
       85
1005
570
  0
LINE
  5
571
  8
0
 10
71.612005319618348
 20
-11.6299481958622
 30
0.0
 11
76.355548649967176
 21
-10.86733103308349
 31
0.0
1001
ACDBBLOCKREPETAG
1070
     1
1071
       88
1005
571
  0
LINE
  5
572
  8
0
 10
71.616362256904296
 20
-12.98060086095175
 30
0.0
 11
76.351187191229243
 21
-12.21938535047895
 31
0.0
1001
ACDBBLOCKREPETAG
1070
     1
1071
       90
1005
572
  0
LINE
  5
573
  8
0
 10
71.620719194190244
 20
-14.33125352604343
 30
0.0
 11
76.346825732491297
 21
-13.57143966787398
 31
0.0
1001
ACDBBLOCKREPETAG
1070
     1
1071
       92
1005
573
  0
LINE
  5
574
  8
0
 10
71.625076131476163
 20
-15.681906191133979
 30
0.0
 11
76.342464273753365
 21
-14.92349398526957
 31
0.0
1001
ACDBBLOCKREPETAG
1070
     1
1071
       94
1005
574
  0
LINE
  5
575
  8
0
 10
71.598954694185721
 20
-7.5842480021627061
 30
0.0
 11
76.368612818807136
 21
-6.8174323765630724
 31
0.0
1001
ACDBBLOCKREPETAG
1070
     1
1071
      105
1005
575
  0
LINE
  5
576
  8
0
 10
71.603311631471669
 20
-8.9349006672532596
 30
0.0
 11
76.364251360069204
 21
-8.1694866939586621
 31
0.0
1001
ACDBBLOCKREPETAG
1070
     1
1071
      107
1005
576
  0
LINE
  5
577
  8
0
 10
71.607668568757617
 20
-10.28555333234433
 30
0.0
 11
76.359889901331243
 21
-9.5215410113540244
 31
0.0
1001
ACDBBLOCKREPETAG
1070
     1
1071
      109
1005
577
  0
LINE
  5
578
  8
0
 10
71.586014509900025
 20
-3.572784617405524
 30
0.0
 11
76.381566431888857
 21
-2.801806058549249
 31
0.0
1001
ACDBBLOCKREPETAG
1070
     1
1071
      112
1005
578
  0
LINE
  5
579
  8
0
 10
71.590371447185973
 20
-4.9234372824963328
 30
0.0
 11
76.37720497315091
 21
-4.1538603759449151
 31
0.0
1001
ACDBBLOCKREPETAG
1070
     1
1071
      114
1005
579
  0
LINE
  5
57A
  8
0
 10
71.594748570897124
 20
-6.2803477491625053
 30
0.0
 11
76.372823307039113
 21
-5.5121789890056361
 31
0.0
1001
ACDBBLOCKREPETAG
1070
     1
1071
      123
1005
57A
  0
LINE
  5
57B
  8
0
 10
71.568606947181451
 20
1.823568241384393
 30
0.0
 11
76.39899205946675
 21
2.6001469153659929
 31
0.0
1001
ACDBBLOCKREPETAG
1070
     1
1071
      125
1005
57B
  0
LINE
  5
57C
  8
0
 10
71.572963884467399
 20
0.4729155762924684
 30
0.0
 11
76.394630600728803
 21
1.2480925979715309
 31
0.0
1001
ACDBBLOCKREPETAG
1070
     1
1071
      127
1005
57C
  0
LINE
  5
57D
  8
0
 10
71.577320821753347
 20
-0.8777370887972857
 30
0.0
 11
76.390269141990871
 21
-0.1039617194243938
 31
0.0
1001
ACDBBLOCKREPETAG
1070
     1
1071
      129
1005
57D
  0
LINE
  5
57E
  8
0
 10
71.58167775903928
 20
-2.2283897538882611
 30
0.0
 11
76.385907683252924
 21
-1.456016036820269
 31
0.0
1001
ACDBBLOCKREPETAG
1070
     1
1071
      131
1005
57E
  0
LINE
  5
57F
  8
0
 10
76.432546959029196
 20
13.00218200250697
 30
0.0
 11
76.432546959029196
 21
13.6785901021555
 31
0.0
1001
ACDBBLOCKREPETAG
1070
     1
1071
      132
1005
57F
  0
LINE
  5
580
  8
0
 10
76.432546959029196
 20
13.6785901021555
 30
0.0
 11
78.882546959029014
 21
16.598386404011102
 31
0.0
1001
ACDBBLOCKREPETAG
1070
     1
1071
      133
1005
580
  0
LINE
  5
581
  8
0
 10
140.0
 20
-1.500000000000028
 30
0.0
 11
123.0
 21
-1.500000000000026
 31
0.0
  0
LINE
  5
582
  8
0
 10
140.0
 20
-19.500000000000028
 30
0.0
 11
123.0
 21
-19.500000000000021
 31
0.0
  0
POLYLINE
  5
583
  8
0
 66
     1
 10
0.0
 20
0.0
 30
0.0
 70
     1
  0
VERTEX
  5
727
  8
0
 10
123.5000000000009
 20
-17.49999999999957
 30
0.0
  0
VERTEX
  5
728
  8
0
 10
125.0000000000009
 20
-18.49999999999957
 30
0.0
  0
VERTEX
  5
729
  8
0
 10
137.99999999999909
 20
-18.500000000000028
 30
0.0
  0
VERTEX
  5
72A
  8
0
 10
139.49999999999909
 20
-17.500000000000028
 30
0.0
  0
VERTEX
  5
72B
  8
0
 10
139.49999999999909
 20
-11.00000000000003
 30
0.0
  0
VERTEX
  5
72C
  8
0
 10
123.5
 20
-11.00000000000002
 30
0.0
  0
SEQEND
  5
72D
  8
0
  0
POLYLINE
  5
584
  8
0
 66
     1
 10
0.0
 20
0.0
 30
0.0
 70
     1
  0
VERTEX
  5
72E
  8
0
 10
123.4999999999991
 20
-10.00000000000002
 30
0.0
  0
VERTEX
  5
72F
  8
0
 10
139.49999999999909
 20
-10.00000000000003
 30
0.0
  0
VERTEX
  5
730
  8
0
 10
139.49999999999909
 20
-3.500000000000937
 30
0.0
  0
VERTEX
  5
731
  8
0
 10
137.99999999999909
 20
-2.500000000000937
 30
0.0
  0
VERTEX
  5
732
  8
0
 10
124.9999999999982
 20
-2.5000000000000262
 30
0.0
  0
VERTEX
  5
733
  8
0
 10
123.4999999999982
 20
-3.5000000000000262
 30
0.0
  0
SEQEND
  5
734
  8
0
  0
LINE
  5
585
  8
0
 10
123.0
 20
-1.500000000000024
 30
0.0
 11
106.0
 21
-1.500000000000022
 31
0.0
  0
LINE
  5
586
  8
0
 10
123.0
 20
-19.500000000000021
 30
0.0
 11
106.0
 21
-19.500000000000021
 31
0.0
  0
POLYLINE
  5
587
  8
0
 66
     1
 10
0.0
 20
0.0
 30
0.0
 70
     1
  0
VERTEX
  5
735
  8
0
 10
106.5000000000009
 20
-17.499999999999559
 30
0.0
  0
VERTEX
  5
736
  8
0
 10
108.0000000000009
 20
-18.49999999999957
 30
0.0
  0
VERTEX
  5
737
  8
0
 10
120.9999999999991
 20
-18.500000000000021
 30
0.0
  0
VERTEX
  5
738
  8
0
 10
122.4999999999991
 20
-17.500000000000021
 30
0.0
  0
VERTEX
  5
739
  8
0
 10
122.4999999999991
 20
-11.00000000000002
 30
0.0
  0
VERTEX
  5
73A
  8
0
 10
106.5
 20
-11.00000000000002
 30
0.0
  0
SEQEND
  5
73B
  8
0
  0
POLYLINE
  5
588
  8
0
 66
     1
 10
0.0
 20
0.0
 30
0.0
 70
     1
  0
VERTEX
  5
73C
  8
0
 10
106.4999999999991
 20
-10.00000000000002
 30
0.0
  0
VERTEX
  5
73D
  8
0
 10
122.4999999999991
 20
-10.00000000000002
 30
0.0
  0
VERTEX
  5
73E
  8
0
 10
122.4999999999991
 20
-3.5000000000009339
 30
0.0
  0
VERTEX
  5
73F
  8
0
 10
120.9999999999991
 20
-2.5000000000009339
 30
0.0
  0
VERTEX
  5
740
  8
0
 10
107.9999999999982
 20
-2.5000000000000231
 30
0.0
  0
VERTEX
  5
741
  8
0
 10
106.4999999999981
 20
-3.5000000000000231
 30
0.0
  0
SEQEND
  5
742
  8
0
  0
LINE
  5
589
  8
0
 10
106.0
 20
-1.5000000000000211
 30
0.0
 11
89.0
 21
-1.5000000000000191
 31
0.0
  0
LINE
  5
58A
  8
0
 10
106.0
 20
-19.500000000000021
 30
0.0
 11
89.0
 21
-19.500000000000021
 31
0.0
  0
POLYLINE
  5
58B
  8
0
 66
     1
 10
0.0
 20
0.0
 30
0.0
 70
     1
  0
VERTEX
  5
743
  8
0
 10
89.500000000000909
 20
-17.499999999999559
 30
0.0
  0
VERTEX
  5
744
  8
0
 10
91.000000000000924
 20
-18.499999999999559
 30
0.0
  0
VERTEX
  5
745
  8
0
 10
103.9999999999991
 20
-18.500000000000021
 30
0.0
  0
VERTEX
  5
746
  8
0
 10
105.4999999999991
 20
-17.500000000000021
 30
0.0
  0
VERTEX
  5
747
  8
0
 10
105.4999999999991
 20
-11.00000000000002
 30
0.0
  0
VERTEX
  5
748
  8
0
 10
89.500000000000014
 20
-11.00000000000002
 30
0.0
  0
SEQEND
  5
749
  8
0
  0
POLYLINE
  5
58C
  8
0
 66
     1
 10
0.0
 20
0.0
 30
0.0
 70
     1
  0
VERTEX
  5
74A
  8
0
 10
89.499999999999076
 20
-10.00000000000002
 30
0.0
  0
VERTEX
  5
74B
  8
0
 10
105.4999999999991
 20
-10.00000000000002
 30
0.0
  0
VERTEX
  5
74C
  8
0
 10
105.4999999999991
 20
-3.5000000000009299
 30
0.0
  0
VERTEX
  5
74D
  8
0
 10
103.9999999999991
 20
-2.5000000000009299
 30
0.0
  0
VERTEX
  5
74E
  8
0
 10
90.999999999998181
 20
-2.5000000000000191
 30
0.0
  0
VERTEX
  5
74F
  8
0
 10
89.499999999998181
 20
-3.5000000000000191
 30
0.0
  0
SEQEND
  5
750
  8
0
  0
LINE
  5
58D
  8
0
 10
89.0
 20
-1.5000000000000171
 30
0.0
 11
72.0
 21
-1.5000000000000151
 31
0.0
  0
LINE
  5
58E
  8
0
 10
89.0
 20
-19.500000000000021
 30
0.0
 11
72.0
 21
-19.500000000000011
 31
0.0
  0
POLYLINE
  5
58F
  8
0
 66
     1
 10
0.0
 20
0.0
 30
0.0
 70
     1
  0
VERTEX
  5
751
  8
0
 10
72.500000000000909
 20
-17.499999999999559
 30
0.0
  0
VERTEX
  5
752
  8
0
 10
74.000000000000895
 20
-18.499999999999559
 30
0.0
  0
VERTEX
  5
753
  8
0
 10
86.999999999999076
 20
-18.500000000000021
 30
0.0
  0
VERTEX
  5
754
  8
0
 10
88.499999999999091
 20
-17.500000000000011
 30
0.0
  0
VERTEX
  5
755
  8
0
 10
88.499999999999091
 20
-11.00000000000002
 30
0.0
  0
VERTEX
  5
756
  8
0
 10
72.5
 20
-11.000000000000011
 30
0.0
  0
SEQEND
  5
757
  8
0
  0
POLYLINE
  5
590
  8
0
 66
     1
 10
0.0
 20
0.0
 30
0.0
 70
     1
  0
VERTEX
  5
758
  8
0
 10
72.499999999999091
 20
-10.000000000000011
 30
0.0
  0
VERTEX
  5
759
  8
0
 10
88.499999999999091
 20
-10.000000000000011
 30
0.0
  0
VERTEX
  5
75A
  8
0
 10
88.499999999999091
 20
-3.5000000000009268
 30
0.0
  0
VERTEX
  5
75B
  8
0
 10
86.999999999999076
 20
-2.5000000000009268
 30
0.0
  0
VERTEX
  5
75C
  8
0
 10
73.999999999998181
 20
-2.5000000000000151
 30
0.0
  0
VERTEX
  5
75D
  8
0
 10
72.499999999998181
 20
-3.5000000000000151
 30
0.0
  0
SEQEND
  5
75E
  8
0
  0
LINE
  5
591
  8
0
 10
72.0
 20
-1.500000000000014
 30
0.0
 11
55.0
 21
-1.500000000000012
 31
0.0
  0
LINE
  5
592
  8
0
 10
72.0
 20
-19.500000000000011
 30
0.0
 11
55.0
 21
-19.500000000000011
 31
0.0
  0
POLYLINE
  5
593
  8
0
 66
     1
 10
0.0
 20
0.0
 30
0.0
 70
     1
  0
VERTEX
  5
75F
  8
0
 10
55.500000000000909
 20
-17.499999999999559
 30
0.0
  0
VERTEX
  5
760
  8
0
 10
57.000000000000909
 20
-18.499999999999549
 30
0.0
  0
VERTEX
  5
761
  8
0
 10
69.999999999999091
 20
-18.500000000000011
 30
0.0
  0
VERTEX
  5
762
  8
0
 10
71.499999999999091
 20
-17.500000000000011
 30
0.0
  0
VERTEX
  5
763
  8
0
 10
71.499999999999091
 20
-11.000000000000011
 30
0.0
  0
VERTEX
  5
764
  8
0
 10
55.5
 20
-11.000000000000011
 30
0.0
  0
SEQEND
  5
765
  8
0
  0
POLYLINE
  5
594
  8
0
 66
     1
 10
0.0
 20
0.0
 30
0.0
 70
     1
  0
VERTEX
  5
766
  8
0
 10
55.499999999999091
 20
-10.000000000000011
 30
0.0
  0
VERTEX
  5
767
  8
0
 10
71.499999999999091
 20
-10.000000000000011
 30
0.0
  0
VERTEX
  5
768
  8
0
 10
71.499999999999091
 20
-3.5000000000009228
 30
0.0
  0
VERTEX
  5
769
  8
0
 10
69.999999999999091
 20
-2.5000000000009228
 30
0.0
  0
VERTEX
  5
76A
  8
0
 10
56.999999999998181
 20
-2.500000000000012
 30
0.0
  0
VERTEX
  5
76B
  8
0
 10
55.499999999998181
 20
-3.500000000000012
 30
0.0
  0
SEQEND
  5
76C
  8
0
  0
LINE
  5
595
  8
0
 10
55.0
 20
-1.50000000000001
 30
0.0
 11
38.0
 21
-1.500000000000008
 31
0.0
  0
LINE
  5
596
  8
0
 10
55.0
 20
-19.500000000000011
 30
0.0
 11
38.0
 21
-19.500000000000011
 31
0.0
  0
POLYLINE
  5
597
  8
0
 66
     1
 10
0.0
 20
0.0
 30
0.0
 70
     1
  0
VERTEX
  5
76D
  8
0
 10
38.500000000000909
 20
-17.499999999999549
 30
0.0
  0
VERTEX
  5
76E
  8
0
 10
40.000000000000909
 20
-18.499999999999549
 30
0.0
  0
VERTEX
  5
76F
  8
0
 10
52.999999999999091
 20
-18.500000000000011
 30
0.0
  0
VERTEX
  5
770
  8
0
 10
54.499999999999091
 20
-17.500000000000011
 30
0.0
  0
VERTEX
  5
771
  8
0
 10
54.499999999999091
 20
-11.000000000000011
 30
0.0
  0
VERTEX
  5
772
  8
0
 10
38.5
 20
-11.000000000000011
 30
0.0
  0
SEQEND
  5
773
  8
0
  0
POLYLINE
  5
598
  8
0
 66
     1
 10
0.0
 20
0.0
 30
0.0
 70
     1
  0
VERTEX
  5
774
  8
0
 10
38.499999999999091
 20
-10.000000000000011
 30
0.0
  0
VERTEX
  5
775
  8
0
 10
54.499999999999091
 20
-10.000000000000011
 30
0.0
  0
VERTEX
  5
776
  8
0
 10
54.499999999999091
 20
-3.5000000000009202
 30
0.0
  0
VERTEX
  5
777
  8
0
 10
52.999999999999091
 20
-2.5000000000009202
 30
0.0
  0
VERTEX
  5
778
  8
0
 10
39.999999999998181
 20
-2.500000000000008
 30
0.0
  0
VERTEX
  5
779
  8
0
 10
38.499999999998181
 20
-3.500000000000008
 30
0.0
  0
SEQEND
  5
77A
  8
0
  0
LINE
  5
599
  8
0
 10
-1.499999999999728
 20
191.0
 30
0.0
 11
-1.499999999999752
 21
174.0
 31
0.0
  0
LINE
  5
59A
  8
0
 10
-19.49999999999973
 20
191.0
 30
0.0
 11
-19.499999999999751
 21
174.0
 31
0.0
  0
POLYLINE
  5
59B
  8
0
 66
     1
 10
0.0
 20
0.0
 30
0.0
 70
     1
  0
VERTEX
  5
77B
  8
0
 10
-17.4999999999993
 20
174.50000000000091
 30
0.0
  0
VERTEX
  5
77C
  8
0
 10
-18.4999999999993
 20
176.00000000000091
 30
0.0
  0
VERTEX
  5
77D
  8
0
 10
-18.49999999999973
 20
188.99999999999909
 30
0.0
  0
VERTEX
  5
77E
  8
0
 10
-17.49999999999973
 20
190.49999999999909
 30
0.0
  0
VERTEX
  5
77F
  8
0
 10
-10.999999999999719
 20
190.49999999999909
 30
0.0
  0
VERTEX
  5
780
  8
0
 10
-10.99999999999975
 20
174.5
 30
0.0
  0
SEQEND
  5
781
  8
0
  0
POLYLINE
  5
59C
  8
0
 66
     1
 10
0.0
 20
0.0
 30
0.0
 70
     1
  0
VERTEX
  5
782
  8
0
 10
-9.9999999999997513
 20
174.49999999999909
 30
0.0
  0
VERTEX
  5
783
  8
0
 10
-9.9999999999997282
 20
190.49999999999909
 30
0.0
  0
VERTEX
  5
784
  8
0
 10
-3.5000000000006382
 20
190.49999999999909
 30
0.0
  0
VERTEX
  5
785
  8
0
 10
-2.5000000000006399
 20
188.99999999999909
 30
0.0
  0
VERTEX
  5
786
  8
0
 10
-2.4999999999997491
 20
175.99999999999821
 30
0.0
  0
VERTEX
  5
787
  8
0
 10
-3.4999999999997522
 20
174.49999999999821
 30
0.0
  0
SEQEND
  5
788
  8
0
  0
LINE
  5
59D
  8
0
 10
-1.4999999999997491
 20
174.0
 30
0.0
 11
-1.4999999999997731
 21
157.0
 31
0.0
  0
LINE
  5
59E
  8
0
 10
-19.499999999999751
 20
174.0
 30
0.0
 11
-19.499999999999769
 21
157.0
 31
0.0
  0
POLYLINE
  5
59F
  8
0
 66
     1
 10
0.0
 20
0.0
 30
0.0
 70
     1
  0
VERTEX
  5
789
  8
0
 10
-17.499999999999321
 20
157.50000000000091
 30
0.0
  0
VERTEX
  5
78A
  8
0
 10
-18.499999999999321
 20
159.00000000000091
 30
0.0
  0
VERTEX
  5
78B
  8
0
 10
-18.499999999999751
 20
171.99999999999909
 30
0.0
  0
VERTEX
  5
78C
  8
0
 10
-17.499999999999751
 20
173.49999999999909
 30
0.0
  0
VERTEX
  5
78D
  8
0
 10
-10.99999999999975
 20
173.49999999999909
 30
0.0
  0
VERTEX
  5
78E
  8
0
 10
-10.999999999999771
 20
157.5
 30
0.0
  0
SEQEND
  5
78F
  8
0
  0
POLYLINE
  5
5A0
  8
0
 66
     1
 10
0.0
 20
0.0
 30
0.0
 70
     1
  0
VERTEX
  5
790
  8
0
 10
-9.9999999999997726
 20
157.49999999999909
 30
0.0
  0
VERTEX
  5
791
  8
0
 10
-9.9999999999997495
 20
173.49999999999909
 30
0.0
  0
VERTEX
  5
792
  8
0
 10
-3.500000000000659
 20
173.49999999999909
 30
0.0
  0
VERTEX
  5
793
  8
0
 10
-2.5000000000006608
 20
171.99999999999909
 30
0.0
  0
VERTEX
  5
794
  8
0
 10
-2.4999999999997708
 20
158.99999999999821
 30
0.0
  0
VERTEX
  5
795
  8
0
 10
-3.4999999999997731
 20
157.4999999999981
 30
0.0
  0
SEQEND
  5
796
  8
0
  0
LINE
  5
5A1
  8
0
 10
-1.49999999999977
 20
157.0
 30
0.0
 11
-1.4999999999997951
 21
140.0
 31
0.0
  0
LINE
  5
5A2
  8
0
 10
-19.499999999999769
 20
157.0
 30
0.0
 11
-19.49999999999979
 21
140.0
 31
0.0
  0
POLYLINE
  5
5A3
  8
0
 66
     1
 10
0.0
 20
0.0
 30
0.0
 70
     1
  0
VERTEX
  5
797
  8
0
 10
-17.499999999999339
 20
140.50000000000091
 30
0.0
  0
VERTEX
  5
798
  8
0
 10
-18.499999999999339
 20
142.00000000000091
 30
0.0
  0
VERTEX
  5
799
  8
0
 10
-18.499999999999769
 20
154.99999999999909
 30
0.0
  0
VERTEX
  5
79A
  8
0
 10
-17.499999999999769
 20
156.49999999999909
 30
0.0
  0
VERTEX
  5
79B
  8
0
 10
-10.999999999999771
 20
156.49999999999909
 30
0.0
  0
VERTEX
  5
79C
  8
0
 10
-10.99999999999979
 20
140.5
 30
0.0
  0
SEQEND
  5
79D
  8
0
  0
POLYLINE
  5
5A4
  8
0
 66
     1
 10
0.0
 20
0.0
 30
0.0
 70
     1
  0
VERTEX
  5
79E
  8
0
 10
-9.9999999999997922
 20
140.49999999999909
 30
0.0
  0
VERTEX
  5
79F
  8
0
 10
-9.9999999999997708
 20
156.49999999999909
 30
0.0
  0
VERTEX
  5
7A0
  8
0
 10
-3.5000000000006808
 20
156.49999999999909
 30
0.0
  0
VERTEX
  5
7A1
  8
0
 10
-2.500000000000683
 20
154.99999999999909
 30
0.0
  0
VERTEX
  5
7A2
  8
0
 10
-2.4999999999997922
 20
141.99999999999821
 30
0.0
  0
VERTEX
  5
7A3
  8
0
 10
-3.4999999999997939
 20
140.49999999999821
 30
0.0
  0
SEQEND
  5
7A4
  8
0
  0
LINE
  5
5A5
  8
0
 10
-1.4999999999997919
 20
140.0
 30
0.0
 11
-1.4999999999998159
 21
123.0
 31
0.0
  0
LINE
  5
5A6
  8
0
 10
-19.49999999999979
 20
140.0
 30
0.0
 11
-19.499999999999812
 21
123.0
 31
0.0
  0
POLYLINE
  5
5A7
  8
0
 66
     1
 10
0.0
 20
0.0
 30
0.0
 70
     1
  0
VERTEX
  5
7A5
  8
0
 10
-17.499999999999361
 20
123.5000000000009
 30
0.0
  0
VERTEX
  5
7A6
  8
0
 10
-18.499999999999361
 20
125.0000000000009
 30
0.0
  0
VERTEX
  5
7A7
  8
0
 10
-18.49999999999979
 20
137.99999999999909
 30
0.0
  0
VERTEX
  5
7A8
  8
0
 10
-17.49999999999979
 20
139.49999999999909
 30
0.0
  0
VERTEX
  5
7A9
  8
0
 10
-10.99999999999979
 20
139.49999999999909
 30
0.0
  0
VERTEX
  5
7AA
  8
0
 10
-10.99999999999981
 20
123.5
 30
0.0
  0
SEQEND
  5
7AB
  8
0
  0
POLYLINE
  5
5A8
  8
0
 66
     1
 10
0.0
 20
0.0
 30
0.0
 70
     1
  0
VERTEX
  5
7AC
  8
0
 10
-9.9999999999998153
 20
123.4999999999991
 30
0.0
  0
VERTEX
  5
7AD
  8
0
 10
-9.9999999999997922
 20
139.49999999999909
 30
0.0
  0
VERTEX
  5
7AE
  8
0
 10
-3.5000000000007021
 20
139.49999999999909
 30
0.0
  0
VERTEX
  5
7AF
  8
0
 10
-2.5000000000007039
 20
137.99999999999909
 30
0.0
  0
VERTEX
  5
7B0
  8
0
 10
-2.499999999999813
 20
124.9999999999982
 30
0.0
  0
VERTEX
  5
7B1
  8
0
 10
-3.4999999999998161
 20
123.4999999999982
 30
0.0
  0
SEQEND
  5
7B2
  8
0
  0
LINE
  5
5A9
  8
0
 10
-1.499999999999813
 20
123.0
 30
0.0
 11
-1.499999999999837
 21
106.0
 31
0.0
  0
LINE
  5
5AA
  8
0
 10
-19.499999999999812
 20
123.0
 30
0.0
 11
-19.49999999999984
 21
106.0
 31
0.0
  0
POLYLINE
  5
5AB
  8
0
 66
     1
 10
0.0
 20
0.0
 30
0.0
 70
     1
  0
VERTEX
  5
7B3
  8
0
 10
-17.499999999999378
 20
106.5000000000009
 30
0.0
  0
VERTEX
  5
7B4
  8
0
 10
-18.499999999999378
 20
108.0000000000009
 30
0.0
  0
VERTEX
  5
7B5
  8
0
 10
-18.499999999999812
 20
120.9999999999991
 30
0.0
  0
VERTEX
  5
7B6
  8
0
 10
-17.499999999999812
 20
122.4999999999991
 30
0.0
  0
VERTEX
  5
7B7
  8
0
 10
-10.99999999999981
 20
122.4999999999991
 30
0.0
  0
VERTEX
  5
7B8
  8
0
 10
-10.999999999999829
 20
106.5
 30
0.0
  0
SEQEND
  5
7B9
  8
0
  0
POLYLINE
  5
5AC
  8
0
 66
     1
 10
0.0
 20
0.0
 30
0.0
 70
     1
  0
VERTEX
  5
7BA
  8
0
 10
-9.9999999999998366
 20
106.4999999999991
 30
0.0
  0
VERTEX
  5
7BB
  8
0
 10
-9.9999999999998135
 20
122.4999999999991
 30
0.0
  0
VERTEX
  5
7BC
  8
0
 10
-3.500000000000723
 20
122.4999999999991
 30
0.0
  0
VERTEX
  5
7BD
  8
0
 10
-2.5000000000007252
 20
120.9999999999991
 30
0.0
  0
VERTEX
  5
7BE
  8
0
 10
-2.4999999999998348
 20
107.9999999999982
 30
0.0
  0
VERTEX
  5
7BF
  8
0
 10
-3.499999999999837
 20
106.4999999999981
 30
0.0
  0
SEQEND
  5
7C0
  8
0
  0
LINE
  5
5AD
  8
0
 10
-1.4999999999998339
 20
106.0
 30
0.0
 11
-1.499999999999859
 21
89.0
 31
0.0
  0
LINE
  5
5AE
  8
0
 10
-19.49999999999984
 20
106.0
 30
0.0
 11
-19.499999999999861
 21
89.000000000000028
 31
0.0
  0
POLYLINE
  5
5AF
  8
0
 66
     1
 10
0.0
 20
0.0
 30
0.0
 70
     1
  0
VERTEX
  5
7C1
  8
0
 10
-17.4999999999994
 20
89.500000000000924
 30
0.0
  0
VERTEX
  5
7C2
  8
0
 10
-18.4999999999994
 20
91.000000000000924
 30
0.0
  0
VERTEX
  5
7C3
  8
0
 10
-18.499999999999829
 20
103.9999999999991
 30
0.0
  0
VERTEX
  5
7C4
  8
0
 10
-17.49999999999984
 20
105.4999999999991
 30
0.0
  0
VERTEX
  5
7C5
  8
0
 10
-10.999999999999829
 20
105.4999999999991
 30
0.0
  0
VERTEX
  5
7C6
  8
0
 10
-10.99999999999986
 20
89.500000000000014
 30
0.0
  0
SEQEND
  5
7C7
  8
0
  0
POLYLINE
  5
5B0
  8
0
 66
     1
 10
0.0
 20
0.0
 30
0.0
 70
     1
  0
VERTEX
  5
7C8
  8
0
 10
-9.9999999999998561
 20
89.499999999999105
 30
0.0
  0
VERTEX
  5
7C9
  8
0
 10
-9.9999999999998348
 20
105.4999999999991
 30
0.0
  0
VERTEX
  5
7CA
  8
0
 10
-3.5000000000007452
 20
105.4999999999991
 30
0.0
  0
VERTEX
  5
7CB
  8
0
 10
-2.5000000000007461
 20
103.9999999999991
 30
0.0
  0
VERTEX
  5
7CC
  8
0
 10
-2.4999999999998561
 20
90.999999999998181
 30
0.0
  0
VERTEX
  5
7CD
  8
0
 10
-3.4999999999998579
 20
89.499999999998181
 30
0.0
  0
SEQEND
  5
7CE
  8
0
  0
LINE
  5
5B1
  8
0
 10
-1.4999999999998559
 20
89.0
 30
0.0
 11
-1.4999999999998801
 21
72.0
 31
0.0
  0
LINE
  5
5B2
  8
0
 10
-19.499999999999861
 20
89.000000000000028
 30
0.0
 11
-19.499999999999879
 21
72.000000000000014
 31
0.0
  0
POLYLINE
  5
5B3
  8
0
 66
     1
 10
0.0
 20
0.0
 30
0.0
 70
     1
  0
VERTEX
  5
7CF
  8
0
 10
-17.499999999999421
 20
72.500000000000938
 30
0.0
  0
VERTEX
  5
7D0
  8
0
 10
-18.499999999999421
 20
74.000000000000938
 30
0.0
  0
VERTEX
  5
7D1
  8
0
 10
-18.499999999999861
 20
86.999999999999119
 30
0.0
  0
VERTEX
  5
7D2
  8
0
 10
-17.499999999999851
 20
88.499999999999119
 30
0.0
  0
VERTEX
  5
7D3
  8
0
 10
-10.999999999999851
 20
88.499999999999105
 30
0.0
  0
VERTEX
  5
7D4
  8
0
 10
-10.999999999999879
 20
72.500000000000014
 30
0.0
  0
SEQEND
  5
7D5
  8
0
  0
POLYLINE
  5
5B4
  8
0
 66
     1
 10
0.0
 20
0.0
 30
0.0
 70
     1
  0
VERTEX
  5
7D6
  8
0
 10
-9.9999999999998792
 20
72.499999999999105
 30
0.0
  0
VERTEX
  5
7D7
  8
0
 10
-9.9999999999998561
 20
88.499999999999105
 30
0.0
  0
VERTEX
  5
7D8
  8
0
 10
-3.5000000000007661
 20
88.499999999999091
 30
0.0
  0
VERTEX
  5
7D9
  8
0
 10
-2.5000000000007678
 20
86.999999999999076
 30
0.0
  0
VERTEX
  5
7DA
  8
0
 10
-2.499999999999877
 20
73.999999999998181
 30
0.0
  0
VERTEX
  5
7DB
  8
0
 10
-3.4999999999998801
 20
72.499999999998181
 30
0.0
  0
SEQEND
  5
7DC
  8
0
  0
LINE
  5
5B5
  8
0
 10
-1.499999999999877
 20
72.0
 30
0.0
 11
-1.499999999999901
 21
55.0
 31
0.0
  0
LINE
  5
5B6
  8
0
 10
-19.499999999999879
 20
72.000000000000014
 30
0.0
 11
-19.499999999999901
 21
55.000000000000028
 31
0.0
  0
POLYLINE
  5
5B7
  8
0
 66
     1
 10
0.0
 20
0.0
 30
0.0
 70
     1
  0
VERTEX
  5
7DD
  8
0
 10
-17.499999999999439
 20
55.500000000000931
 30
0.0
  0
VERTEX
  5
7DE
  8
0
 10
-18.499999999999439
 20
57.000000000000938
 30
0.0
  0
VERTEX
  5
7DF
  8
0
 10
-18.499999999999879
 20
69.999999999999119
 30
0.0
  0
VERTEX
  5
7E0
  8
0
 10
-17.499999999999879
 20
71.499999999999119
 30
0.0
  0
VERTEX
  5
7E1
  8
0
 10
-10.999999999999879
 20
71.499999999999105
 30
0.0
  0
VERTEX
  5
7E2
  8
0
 10
-10.999999999999901
 20
55.500000000000007
 30
0.0
  0
SEQEND
  5
7E3
  8
0
  0
POLYLINE
  5
5B8
  8
0
 66
     1
 10
0.0
 20
0.0
 30
0.0
 70
     1
  0
VERTEX
  5
7E4
  8
0
 10
-9.9999999999999005
 20
55.499999999999112
 30
0.0
  0
VERTEX
  5
7E5
  8
0
 10
-9.9999999999998774
 20
71.499999999999105
 30
0.0
  0
VERTEX
  5
7E6
  8
0
 10
-3.5000000000007869
 20
71.499999999999091
 30
0.0
  0
VERTEX
  5
7E7
  8
0
 10
-2.5000000000007891
 20
69.999999999999091
 30
0.0
  0
VERTEX
  5
7E8
  8
0
 10
-2.4999999999998992
 20
56.999999999998181
 30
0.0
  0
VERTEX
  5
7E9
  8
0
 10
-3.499999999999901
 20
55.499999999998181
 30
0.0
  0
SEQEND
  5
7EA
  8
0
  0
LINE
  5
5B9
  8
0
 10
-1.4999999999998981
 20
55.0
 30
0.0
 11
-1.499999999999923
 21
38.0
 31
0.0
  0
LINE
  5
5BA
  8
0
 10
-19.499999999999901
 20
55.000000000000028
 30
0.0
 11
-19.499999999999918
 21
38.000000000000028
 31
0.0
  0
POLYLINE
  5
5BB
  8
0
 66
     1
 10
0.0
 20
0.0
 30
0.0
 70
     1
  0
VERTEX
  5
7EB
  8
0
 10
-17.49999999999946
 20
38.500000000000931
 30
0.0
  0
VERTEX
  5
7EC
  8
0
 10
-18.499999999999471
 20
40.000000000000938
 30
0.0
  0
VERTEX
  5
7ED
  8
0
 10
-18.499999999999901
 20
52.999999999999112
 30
0.0
  0
VERTEX
  5
7EE
  8
0
 10
-17.499999999999901
 20
54.499999999999112
 30
0.0
  0
VERTEX
  5
7EF
  8
0
 10
-10.999999999999901
 20
54.499999999999098
 30
0.0
  0
VERTEX
  5
7F0
  8
0
 10
-10.99999999999992
 20
38.500000000000007
 30
0.0
  0
SEQEND
  5
7F1
  8
0
  0
POLYLINE
  5
5BC
  8
0
 66
     1
 10
0.0
 20
0.0
 30
0.0
 70
     1
  0
VERTEX
  5
7F2
  8
0
 10
-9.9999999999999218
 20
38.499999999999112
 30
0.0
  0
VERTEX
  5
7F3
  8
0
 10
-9.9999999999998987
 20
54.499999999999098
 30
0.0
  0
VERTEX
  5
7F4
  8
0
 10
-3.5000000000008091
 20
54.499999999999091
 30
0.0
  0
VERTEX
  5
7F5
  8
0
 10
-2.50000000000081
 20
52.999999999999091
 30
0.0
  0
VERTEX
  5
7F6
  8
0
 10
-2.4999999999999201
 20
39.999999999998181
 30
0.0
  0
VERTEX
  5
7F7
  8
0
 10
-3.4999999999999218
 20
38.499999999998181
 30
0.0
  0
SEQEND
  5
7F8
  8
0
  0
LINE
  5
5BD
  8
0
 10
-10.999999999999959
 20
12.500000000000011
 30
0.0
 11
-9.9999999999999627
 21
12.500000000000011
 31
0.0
  0
LINE
  5
5BE
  8
0
 10
-2.500000000000417
 20
12.5
 30
0.0
 11
-1.499999999999962
 21
12.5
 31
0.0
  0
LINE
  5
5BF
  8
0
 10
-1.49999999999995
 20
21.0
 30
0.0
 11
-1.499999999999962
 21
12.5
 31
0.0
  0
LINE
  5
5C0
  8
0
 10
-19.49999999999995
 20
21.000000000000021
 30
0.0
 11
-19.499999999999961
 21
12.50000000000002
 31
0.0
  0
POLYLINE
  5
5C1
  8
0
 66
     1
 10
0.0
 20
0.0
 30
0.0
  0
VERTEX
  5
7F9
  8
0
 10
-18.49999999999973
 20
12.50000000000002
 30
0.0
  0
VERTEX
  5
7FA
  8
0
 10
-18.49999999999995
 20
18.999999999999108
 30
0.0
  0
VERTEX
  5
7FB
  8
0
 10
-17.49999999999995
 20
20.499999999999108
 30
0.0
  0
VERTEX
  5
7FC
  8
0
 10
-10.99999999999995
 20
20.499999999999101
 30
0.0
  0
VERTEX
  5
7FD
  8
0
 10
-10.999999999999959
 20
12.500000000000011
 30
0.0
  0
SEQEND
  5
7FE
  8
0
  0
POLYLINE
  5
5C2
  8
0
 66
     1
 10
0.0
 20
0.0
 30
0.0
  0
VERTEX
  5
7FF
  8
0
 10
-9.9999999999999627
 20
12.500000000000011
 30
0.0
  0
VERTEX
  5
800
  8
0
 10
-9.9999999999999503
 20
20.499999999999101
 30
0.0
  0
VERTEX
  5
801
  8
0
 10
-3.5000000000008611
 20
20.499999999999091
 30
0.0
  0
VERTEX
  5
802
  8
0
 10
-2.5000000000008629
 20
18.999999999999091
 30
0.0
  0
VERTEX
  5
803
  8
0
 10
-2.500000000000417
 20
12.5
 30
0.0
  0
SEQEND
  5
804
  8
0
  0
LINE
  5
5C3
  8
0
 10
-19.499999999999961
 20
12.50000000000002
 30
0.0
 11
-18.49999999999973
 21
12.50000000000002
 31
0.0
  0
LINE
  5
5C4
  8
0
 10
-1.4999999999999201
 20
37.999999999999993
 30
0.0
 11
-1.499999999999944
 21
20.999999999999989
 31
0.0
  0
LINE
  5
5C5
  8
0
 10
-19.499999999999918
 20
38.000000000000021
 30
0.0
 11
-19.49999999999994
 21
21.000000000000021
 31
0.0
  0
POLYLINE
  5
5C6
  8
0
 66
     1
 10
0.0
 20
0.0
 30
0.0
 70
     1
  0
VERTEX
  5
805
  8
0
 10
-17.499999999999488
 20
21.50000000000092
 30
0.0
  0
VERTEX
  5
806
  8
0
 10
-18.499999999999488
 20
23.000000000000931
 30
0.0
  0
VERTEX
  5
807
  8
0
 10
-18.499999999999918
 20
35.999999999999112
 30
0.0
  0
VERTEX
  5
808
  8
0
 10
-17.499999999999918
 20
37.499999999999112
 30
0.0
  0
VERTEX
  5
809
  8
0
 10
-10.99999999999992
 20
37.499999999999098
 30
0.0
  0
VERTEX
  5
80A
  8
0
 10
-10.99999999999994
 20
21.500000000000011
 30
0.0
  0
SEQEND
  5
80B
  8
0
  0
POLYLINE
  5
5C7
  8
0
 66
     1
 10
0.0
 20
0.0
 30
0.0
 70
     1
  0
VERTEX
  5
80C
  8
0
 10
-9.9999999999999432
 20
21.499999999999091
 30
0.0
  0
VERTEX
  5
80D
  8
0
 10
-9.9999999999999201
 20
37.499999999999098
 30
0.0
  0
VERTEX
  5
80E
  8
0
 10
-3.50000000000083
 20
37.499999999999083
 30
0.0
  0
VERTEX
  5
80F
  8
0
 10
-2.5000000000008318
 20
35.999999999999091
 30
0.0
  0
VERTEX
  5
810
  8
0
 10
-2.4999999999999409
 20
22.99999999999817
 30
0.0
  0
VERTEX
  5
811
  8
0
 10
-3.499999999999944
 20
21.499999999998181
 30
0.0
  0
SEQEND
  5
812
  8
0
  0
LINE
  5
5C8
  8
0
 10
12.5
 20
-11.0
 30
0.0
 11
12.5
 21
-9.9999999999999982
 31
0.0
  0
LINE
  5
5C9
  8
0
 10
12.5
 20
-2.500000000000453
 30
0.0
 11
12.5
 21
-1.499999999999998
 31
0.0
  0
LINE
  5
5CA
  8
0
 10
21.0
 20
-1.5
 30
0.0
 11
12.5
 21
-1.499999999999998
 31
0.0
  0
LINE
  5
5CB
  8
0
 10
21.0
 20
-19.5
 30
0.0
 11
12.5
 21
-19.5
 31
0.0
  0
POLYLINE
  5
5CC
  8
0
 66
     1
 10
0.0
 20
0.0
 30
0.0
  0
VERTEX
  5
813
  8
0
 10
12.5
 20
-18.499999999999769
 30
0.0
  0
VERTEX
  5
814
  8
0
 10
18.999999999999091
 20
-18.5
 30
0.0
  0
VERTEX
  5
815
  8
0
 10
20.499999999999091
 20
-17.5
 30
0.0
  0
VERTEX
  5
816
  8
0
 10
20.499999999999091
 20
-11.0
 30
0.0
  0
VERTEX
  5
817
  8
0
 10
12.5
 20
-11.0
 30
0.0
  0
SEQEND
  5
818
  8
0
  0
POLYLINE
  5
5CD
  8
0
 66
     1
 10
0.0
 20
0.0
 30
0.0
  0
VERTEX
  5
819
  8
0
 10
12.5
 20
-9.9999999999999982
 30
0.0
  0
VERTEX
  5
81A
  8
0
 10
20.499999999999091
 20
-10.0
 30
0.0
  0
VERTEX
  5
81B
  8
0
 10
20.499999999999091
 20
-3.5000000000009091
 30
0.0
  0
VERTEX
  5
81C
  8
0
 10
18.999999999999091
 20
-2.5000000000009091
 30
0.0
  0
VERTEX
  5
81D
  8
0
 10
12.5
 20
-2.500000000000453
 30
0.0
  0
SEQEND
  5
81E
  8
0
  0
LINE
  5
5CE
  8
0
 10
12.5
 20
-19.5
 30
0.0
 11
12.5
 21
-18.499999999999769
 31
0.0
  0
LINE
  5
5CF
  8
0
 10
38.0
 20
-1.5000000000000071
 30
0.0
 11
21.0
 21
-1.5000000000000051
 31
0.0
  0
LINE
  5
5D0
  8
0
 10
38.0
 20
-19.500000000000011
 30
0.0
 11
21.0
 21
-19.5
 31
0.0
  0
POLYLINE
  5
5D1
  8
0
 66
     1
 10
0.0
 20
0.0
 30
0.0
 70
     1
  0
VERTEX
  5
81F
  8
0
 10
21.500000000000899
 20
-17.499999999999549
 30
0.0
  0
VERTEX
  5
820
  8
0
 10
23.000000000000909
 20
-18.499999999999549
 30
0.0
  0
VERTEX
  5
821
  8
0
 10
35.999999999999091
 20
-18.500000000000011
 30
0.0
  0
VERTEX
  5
822
  8
0
 10
37.499999999999091
 20
-17.500000000000011
 30
0.0
  0
VERTEX
  5
823
  8
0
 10
37.499999999999091
 20
-11.0
 30
0.0
  0
VERTEX
  5
824
  8
0
 10
21.5
 20
-11.0
 30
0.0
  0
SEQEND
  5
825
  8
0
  0
POLYLINE
  5
5D2
  8
0
 66
     1
 10
0.0
 20
0.0
 30
0.0
 70
     1
  0
VERTEX
  5
826
  8
0
 10
21.499999999999091
 20
-10.0
 30
0.0
  0
VERTEX
  5
827
  8
0
 10
37.499999999999091
 20
-10.0
 30
0.0
  0
VERTEX
  5
828
  8
0
 10
37.499999999999091
 20
-3.5000000000009162
 30
0.0
  0
VERTEX
  5
829
  8
0
 10
35.999999999999091
 20
-2.5000000000009162
 30
0.0
  0
VERTEX
  5
82A
  8
0
 10
22.999999999998181
 20
-2.5000000000000049
 30
0.0
  0
VERTEX
  5
82B
  8
0
 10
21.499999999998181
 20
-3.5000000000000049
 30
0.0
  0
SEQEND
  5
82C
  8
0
  0
POLYLINE
  5
5D3
  8
0
 66
     1
 10
0.0
 20
0.0
 30
0.0
 70
     1
1001
ACDBBLOCKREPETAG
1070
     1
1071
        0
1005
5D3
  0
VERTEX
  5
82D
  8
0
 10
-21.48205687852715
 20
28.499999999999961
 30
0.0
  0
VERTEX
  5
82E
  8
0
 10
-121.4820568785271
 20
28.499999999999972
 30
0.0
  0
VERTEX
  5
82F
  8
0
 10
-121.4820568785271
 20
-21.500000000000028
 30
0.0
  0
VERTEX
  5
830
  8
0
 10
-21.48205687852716
 20
-21.500000000000039
 30
0.0
  0
SEQEND
  5
831
  8
0
  0
POLYLINE
  5
5D4
  8
0
 66
     1
 10
0.0
 20
0.0
 30
0.0
 70
     1
 40
0.25
 41
0.25
1001
ACDBBLOCKREPETAG
1070
     1
1071
        0
1005
5D3
  0
VERTEX
  5
832
  8
0
 10
-21.60705687852715
 20
28.374999999999961
 30
0.0
  0
VERTEX
  5
833
  8
0
 10
-121.3570568785271
 20
28.374999999999972
 30
0.0
  0
VERTEX
  5
834
  8
0
 10
-121.3570568785271
 20
-21.375000000000028
 30
0.0
  0
VERTEX
  5
835
  8
0
 10
-21.60705687852715
 20
-21.375000000000039
 30
0.0
  0
SEQEND
  5
836
  8
0
  0
LINE
  5
5D5
  8
0
 10
-21.48205687852715
 20
28.499999999999961
 30
0.0
 11
-121.4820568785271
 21
-21.500000000000028
 31
0.0
1001
ACDBBLOCKREPETAG
1070
     1
1071
        1
1005
5D5
  0
LINE
  5
5D6
  8
0
 10
-21.48205687852716
 20
-21.500000000000039
 30
0.0
 11
-121.4820568785271
 21
28.499999999999972
 31
0.0
1001
ACDBBLOCKREPETAG
1070
     1
1071
        2
1005
5D6
  0
POLYLINE
  5
5D7
  8
0
 66
     1
 10
0.0
 20
0.0
 30
0.0
 70
     1
1001
ACDBBLOCKREPETAG
1070
     1
1071
        0
1005
5D7
  0
VERTEX
  5
837
  8
0
 10
-121.4820568785271
 20
-21.500000000000028
 30
0.0
  0
VERTEX
  5
838
  8
0
 10
-121.4820568785271
 20
-121.5
 30
0.0
  0
VERTEX
  5
839
  8
0
 10
-71.482056878527175
 20
-121.5
 30
0.0
  0
VERTEX
  5
83A
  8
0
 10
-71.482056878527146
 20
-21.500000000000039
 30
0.0
  0
SEQEND
  5
83B
  8
0
  0
POLYLINE
  5
5D8
  8
0
 66
     1
 10
0.0
 20
0.0
 30
0.0
 70
     1
 40
0.25
 41
0.25
1001
ACDBBLOCKREPETAG
1070
     1
1071
        0
1005
5D7
  0
VERTEX
  5
83C
  8
0
 10
-121.3570568785271
 20
-21.625000000000028
 30
0.0
  0
VERTEX
  5
83D
  8
0
 10
-121.3570568785271
 20
-121.375
 30
0.0
  0
VERTEX
  5
83E
  8
0
 10
-71.607056878527175
 20
-121.375
 30
0.0
  0
VERTEX
  5
83F
  8
0
 10
-71.607056878527146
 20
-21.625000000000039
 30
0.0
  0
SEQEND
  5
840
  8
0
  0
LINE
  5
5D9
  8
0
 10
-121.4820568785271
 20
-21.500000000000028
 30
0.0
 11
-71.482056878527175
 21
-121.5
 31
0.0
1001
ACDBBLOCKREPETAG
1070
     1
1071
        1
1005
5D9
  0
LINE
  5
5DA
  8
0
 10
-71.482056878527146
 20
-21.500000000000039
 30
0.0
 11
-121.4820568785271
 21
-121.5
 31
0.0
1001
ACDBBLOCKREPETAG
1070
     1
1071
        2
1005
5DA
  0
LINE
  5
5DB
  8
0
 10
0.5
 20
189.08537854245219
 30
0.0
 11
2.4146214575478382
 21
191.0
 31
0.0
1001
ACAD
1010
0.0
1020
0.0
1030
0.0
  0
LINE
  5
5DC
  8
0
 10
0.5000000000000142
 20
175.61499436084841
 30
0.0
 11
12.5
 21
187.61499436084841
 31
0.0
1001
ACAD
1010
0.0
1020
0.0
1030
0.0
  0
LINE
  5
5DD
  8
0
 10
0.5000000000000142
 20
162.14461017924469
 30
0.0
 11
12.5
 21
174.14461017924469
 31
0.0
1001
ACAD
1010
0.0
1020
0.0
1030
0.0
  0
LINE
  5
5DE
  8
0
 10
0.5
 20
148.67422599764089
 30
0.0
 11
12.5
 21
160.674225997641
 31
0.0
1001
ACAD
1010
0.0
1020
0.0
1030
0.0
  0
LINE
  5
5DF
  8
0
 10
0.5000000000000142
 20
135.2038418160372
 30
0.0
 11
12.500000000000011
 21
147.2038418160372
 31
0.0
1001
ACAD
1010
0.0
1020
0.0
1030
0.0
  0
LINE
  5
5E0
  8
0
 10
0.5
 20
121.73345763443351
 30
0.0
 11
12.5
 21
133.73345763443351
 31
0.0
1001
ACAD
1010
0.0
1020
0.0
1030
0.0
  0
LINE
  5
5E1
  8
0
 10
0.5000000000000071
 20
108.2630734528298
 30
0.0
 11
12.5
 21
120.2630734528298
 31
0.0
1001
ACAD
1010
0.0
1020
0.0
1030
0.0
  0
LINE
  5
5E2
  8
0
 10
0.5000000000000071
 20
94.792689271226095
 30
0.0
 11
12.5
 21
106.7926892712261
 31
0.0
1001
ACAD
1010
0.0
1020
0.0
1030
0.0
  0
LINE
  5
5E3
  8
0
 10
0.5
 20
81.322305089622347
 30
0.0
 11
12.5
 21
93.322305089622361
 31
0.0
1001
ACAD
1010
0.0
1020
0.0
1030
0.0
  0
LINE
  5
5E4
  8
0
 10
0.5000000000000071
 20
67.851920908018627
 30
0.0
 11
12.500000000000011
 21
79.851920908018627
 31
0.0
1001
ACAD
1010
0.0
1020
0.0
1030
0.0
  0
LINE
  5
5E5
  8
0
 10
0.5000000000000036
 20
54.3815367264149
 30
0.0
 11
12.5
 21
66.381536726414893
 31
0.0
1001
ACAD
1010
0.0
1020
0.0
1030
0.0
  0
LINE
  5
5E6
  8
0
 10
0.5000000000000071
 20
40.911152544811188
 30
0.0
 11
12.5
 21
52.911152544811181
 31
0.0
1001
ACAD
1010
0.0
1020
0.0
1030
0.0
  0
LINE
  5
5E7
  8
0
 10
0.5000000000000107
 20
27.440768363207471
 30
0.0
 11
12.5
 21
39.440768363207447
 31
0.0
1001
ACAD
1010
0.0
1020
0.0
1030
0.0
  0
LINE
  5
5E8
  8
0
 10
0.4999999999999992
 20
13.97038418160373
 30
0.0
 11
12.5
 21
25.97038418160372
 31
0.0
1001
ACAD
1010
0.0
1020
0.0
1030
0.0
  0
LINE
  5
5E9
  8
0
 10
0.5000000000000019
 20
0.5000000000000018
 30
0.0
 11
12.5
 21
12.5
 31
0.0
1001
ACAD
1010
0.0
1020
0.0
1030
0.0
  0
LINE
  5
5EA
  8
0
 10
13.97038418160372
 20
0.4999999999999956
 30
0.0
 11
25.97038418160373
 21
12.5
 31
0.0
1001
ACAD
1010
0.0
1020
0.0
1030
0.0
  0
LINE
  5
5EB
  8
0
 10
27.440768363207461
 20
0.4999999999999947
 30
0.0
 11
39.440768363207447
 21
12.5
 31
0.0
1001
ACAD
1010
0.0
1020
0.0
1030
0.0
  0
LINE
  5
5EC
  8
0
 10
40.911152544811188
 20
0.4999999999999965
 30
0.0
 11
52.911152544811188
 21
12.5
 31
0.0
1001
ACAD
1010
0.0
1020
0.0
1030
0.0
  0
LINE
  5
5ED
  8
0
 10
54.3815367264149
 20
0.4999999999999894
 30
0.0
 11
66.381536726414893
 21
12.5
 31
0.0
1001
ACAD
1010
0.0
1020
0.0
1030
0.0
  0
LINE
  5
5EE
  8
0
 10
67.851920908018627
 20
0.4999999999999929
 30
0.0
 11
79.851920908018641
 21
12.5
 31
0.0
1001
ACAD
1010
0.0
1020
0.0
1030
0.0
  0
LINE
  5
5EF
  8
0
 10
81.322305089622347
 20
0.4999999999999858
 30
0.0
 11
93.322305089622375
 21
12.5
 31
0.0
1001
ACAD
1010
0.0
1020
0.0
1030
0.0
  0
LINE
  5
5F0
  8
0
 10
94.792689271226095
 20
0.4999999999999929
 30
0.0
 11
106.7926892712261
 21
12.5
 31
0.0
1001
ACAD
1010
0.0
1020
0.0
1030
0.0
  0
LINE
  5
5F1
  8
0
 10
108.2630734528298
 20
0.5
 30
0.0
 11
120.2630734528298
 21
12.500000000000011
 31
0.0
1001
ACAD
1010
0.0
1020
0.0
1030
0.0
  0
LINE
  5
5F2
  8
0
 10
121.73345763443351
 20
0.4999999999999929
 30
0.0
 11
133.73345763443351
 21
12.5
 31
0.0
1001
ACAD
1010
0.0
1020
0.0
1030
0.0
  0
LINE
  5
5F3
  8
0
 10
135.20384181603731
 20
0.5
 30
0.0
 11
140.0
 21
5.2961581839627021
 31
0.0
1001
ACAD
1010
0.0
1020
0.0
1030
0.0
  0
ENDSEC
  0
EOF
