  0
SECTION
  2
HEADER
  9
$ACADVER
  1
AC1009
  9
$INSBASE
 10
0.0
 20
0.0
 30
0.0
  9
$EXTMIN
 10
-176.8002043091478
 20
-73.136266642236706
 30
-0.0015258207003583
  9
$EXTMAX
 10
160.75022706507241
 20
252.51756986955709
 30
0.0000000349246037
  9
$LIMMIN
 10
0.0
 20
0.0
  9
$LIMMAX
 10
12.0
 20
9.0
  9
$ORTHOMODE
 70
     0
  9
$REGENMODE
 70
     1
  9
$FILLMODE
 70
     1
  9
$QTEXTMODE
 70
     0
  9
$MIRRTEXT
 70
     0
  9
$DRAGMODE
 70
     2
  9
$LTSCALE
 40
0.2
  9
$OSMODE
 70
     0
  9
$ATTMODE
 70
     1
  9
$TEXTSIZE
 40
25.0
  9
$TRACEWID
 40
0.05
  9
$TEXTSTYLE
  7
ARIAL
  9
$CLAYER
  8
0
  9
$CELTYPE
  6
CONTINUOUS
  9
$CECOLOR
 62
   256
  9
$DIMSCALE
 40
2.0
  9
$DIMASZ
 40
2.0
  9
$DIMEXO
 40
2.0
  9
$DIMDLI
 40
6.0
  9
$DIMRND
 40
0.0
  9
$DIMDLE
 40
2.0
  9
$DIMEXE
 40
2.0
  9
$DIMTP
 40
0.0
  9
$DIMTM
 40
0.0
  9
$DIMTXT
 40
2.0
  9
$DIMCEN
 40
2.0
  9
$DIMTSZ
 40
0.0
  9
$DIMTOL
 70
     0
  9
$DIMLIM
 70
     0
  9
$DIMTIH
 70
     0
  9
$DIMTOH
 70
     0
  9
$DIMSE1
 70
     0
  9
$DIMSE2
 70
     0
  9
$DIMTAD
 70
     1
  9
$DIMZIN
 70
     0
  9
$DIMBLK
  1
ARCHTICK
  9
$DIMASO
 70
     1
  9
$DIMSHO
 70
     1
  9
$DIMPOST
  1

  9
$DIMAPOST
  1

  9
$DIMALT
 70
     0
  9
$DIMALTD
 70
     2
  9
$DIMALTF
 40
0.0394
  9
$DIMLFAC
 40
1.0
  9
$DIMTOFL
 70
     0
  9
$DIMTVP
 40
0.0
  9
$DIMTIX
 70
     0
  9
$DIMSOXD
 70
     0
  9
$DIMSAH
 70
     0
  9
$DIMBLK1
  1

  9
$DIMBLK2
  1

  9
$DIMSTYLE
  2
1_TO_2
  9
$DIMCLRD
 70
   256
  9
$DIMCLRE
 70
   256
  9
$DIMCLRT
 70
   256
  9
$DIMTFAC
 40
1.0
  9
$DIMGAP
 40
1.0
  9
$LUNITS
 70
     2
  9
$LUPREC
 70
     1
  9
$SKETCHINC
 40
0.1
  9
$FILLETRAD
 40
0.0
  9
$AUNITS
 70
     1
  9
$AUPREC
 70
     4
  9
$MENU
  1
.
  9
$ELEVATION
 40
0.0
  9
$PELEVATION
 40
0.0
  9
$THICKNESS
 40
0.0
  9
$LIMCHECK
 70
     0
  9
$BLIPMODE
 70
     0
  9
$CHAMFERA
 40
0.0
  9
$CHAMFERB
 40
0.0
  9
$SKPOLY
 70
     0
  9
$TDCREATE
 40
2452152.65359294
  9
$TDUPDATE
 40
2455419.5987464362
  9
$TDINDWG
 40
25.926323784699999
  9
$TDUSRTIMER
 40
25.926323784699999
  9
$USRTIMER
 70
     1
  9
$ANGBASE
 50
0.0
  9
$ANGDIR
 70
     0
  9
$PDMODE
 70
     0
  9
$PDSIZE
 40
0.0
  9
$PLINEWID
 40
0.0
  9
$COORDS
 70
     1
  9
$SPLFRAME
 70
     0
  9
$SPLINETYPE
 70
     6
  9
$SPLINESEGS
 70
     8
  9
$ATTDIA
 70
     0
  9
$ATTREQ
 70
     0
  9
$HANDLING
 70
     1
  9
$HANDSEED
  5
930
  9
$SURFTAB1
 70
     6
  9
$SURFTAB2
 70
     6
  9
$SURFTYPE
 70
     6
  9
$SURFU
 70
     6
  9
$SURFV
 70
     6
  9
$UCSNAME
  2

  9
$UCSORG
 10
0.0
 20
0.0
 30
0.0
  9
$UCSXDIR
 10
1.0
 20
0.0
 30
0.0
  9
$UCSYDIR
 10
0.0
 20
1.0
 30
0.0
  9
$PUCSNAME
  2

  9
$PUCSORG
 10
0.0
 20
0.0
 30
0.0
  9
$PUCSXDIR
 10
1.0
 20
0.0
 30
0.0
  9
$PUCSYDIR
 10
0.0
 20
1.0
 30
0.0
  9
$USERI1
 70
     0
  9
$USERI2
 70
     0
  9
$USERI3
 70
     0
  9
$USERI4
 70
     0
  9
$USERI5
 70
     0
  9
$USERR1
 40
0.0
  9
$USERR2
 40
0.0
  9
$USERR3
 40
0.0
  9
$USERR4
 40
0.0
  9
$USERR5
 40
0.0
  9
$WORLDVIEW
 70
     1
  9
$SHADEDGE
 70
     3
  9
$SHADEDIF
 70
    70
  9
$TILEMODE
 70
     1
  9
$MAXACTVP
 70
    48
  9
$PLIMCHECK
 70
     0
  9
$PEXTMIN
 10
1.0000000000000000E+020
 20
1.0000000000000000E+020
 30
1.0000000000000000E+020
  9
$PEXTMAX
 10
-1.0000000000000000E+020
 20
-1.0000000000000000E+020
 30
-1.0000000000000000E+020
  9
$PLIMMIN
 10
-0.793749988079071
 20
-0.793749988079071
  9
$PLIMMAX
 10
209.2062500119209
 20
296.20625001192087
  9
$UNITMODE
 70
     0
  9
$VISRETAIN
 70
     1
  9
$PLINEGEN
 70
     1
  9
$PSLTSCALE
 70
     1
  0
ENDSEC
  0
SECTION
  2
TABLES
  0
TABLE
  2
VPORT
 70
     1
  0
VPORT
  2
*ACTIVE
 70
     0
 10
0.0
 20
0.0
 11
1.0
 21
1.0
 12
-8.0249886220377391
 22
89.690651613660165
 13
0.0
 23
0.0
 14
1.0
 24
1.0
 15
50.0
 25
50.0
 16
0.0
 26
0.0
 36
1.0
 17
0.0
 27
0.0
 37
0.0
 40
328.39042337323741
 41
1.978962131837307
 42
50.0
 43
0.0
 44
0.0
 50
0.0
 51
0.0
 71
     0
 72
 20000
 73
     1
 74
     3
 75
     0
 76
     0
 77
     0
 78
     0
  0
ENDTAB
  0
TABLE
  2
LTYPE
 70
     3
  0
LTYPE
  2
CONTINUOUS
 70
     0
  3
Solid line
 72
    65
 73
     0
 40
0.0
  0
LTYPE
  2
EURO_COMMON_WIND-REC-HEAD$
 70
     0
  3
ISO dash __ __ __ __ __ __ __ __ __ __ __ __ __
 72
    65
 73
     2
 40
15.0
 49
12.0
 49
-3.0
  0
ENDTAB
  0
TABLE
  2
LAYER
 70
    15
  0
LAYER
  2
0
 70
     0
 62
     7
  6
CONTINUOUS
  0
ENDTAB
  0
TABLE
  2
STYLE
 70
     4
  0
STYLE
  2
STANDARD
 70
     0
 40
0.0
 41
1.0
 50
0.0
 71
     0
 42
1.5
  3
romans.shx
  4

  0
STYLE
  2
ARIAL
 70
     0
 40
0.0
 41
1.0
 50
0.0
 71
     0
 42
25.0
  3
txt
  4

  0
STYLE
  2
EURO_COMMON_WIND-REC-HEAD$
 70
     0
 40
0.0
 41
1.0
 50
0.0
 71
     0
 42
25.0
  3
txt
  4

  0
ENDTAB
  0
TABLE
  2
VIEW
 70
     2
  0
VIEW
  2
09
 70
     0
 40
2970.0
 10
19050.0
 20
1485.0
 41
2100.0
 11
0.0
 21
0.0
 31
1.0
 12
0.0
 22
0.0
 32
0.0
 42
50.0
 43
0.0
 44
0.0
 50
0.0
 71
     0
  0
VIEW
  2
COMM-04
 70
     1
 40
477.26027331217421
 10
194.21746115522001
 20
180.60494410563541
 41
755.81685306636155
 11
0.0
 21
0.0
 31
1.0
 12
0.0
 22
0.0
 32
0.0
 42
50.0
 43
0.0
 44
0.0
 50
0.0
 71
     0
  0
ENDTAB
  0
TABLE
  2
UCS
 70
     0
  0
ENDTAB
  0
TABLE
  2
APPID
 70
    11
  0
APPID
  2
ACAD
 70
     0
  0
APPID
  2
ACAD_PSEXT
 70
     0
  0
APPID
  2
ACDBDYNAMICBLOCKGUID
 70
     0
  0
APPID
  2
ACDBBLOCKREPETAG
 70
     0
  0
APPID
  2
ACAD_MLEADERVER
 70
     0
  0
APPID
  2
ACADANNOTATIVE
 70
     0
  0
APPID
  2
GENIUS_GENREC_14
 70
     0
  0
APPID
  2
GENIUS_GENOBJ-N-REC_13
 70
     0
  0
APPID
  2
GENIUS_GENODEF_13
 70
     0
  0
APPID
  2
ACAD_EXEMPT_FROM_CAD_STANDARDS
 70
     0
  0
APPID
  2
CONTENTBLOCKICON
 70
     0
  0
ENDTAB
  0
TABLE
  2
DIMSTYLE
 70
     3
  0
DIMSTYLE
  2
1_TO_2
 70
     0
  3

  4

  5
ARCHTICK
  6

  7

 40
2.0
 41
2.0
 42
2.0
 43
6.0
 44
2.0
 45
0.0
 46
2.0
 47
0.0
 48
0.0
140
2.0
141
2.0
142
0.0
143
0.0394
144
1.0
145
0.0
146
1.0
147
1.0
 71
     0
 72
     0
 73
     0
 74
     0
 75
     0
 76
     0
 77
     1
 78
     0
170
     0
171
     2
172
     0
173
     0
174
     0
175
     0
176
   256
177
   256
178
   256
  0
DIMSTYLE
  2
EURO_COMMON_WIND-REC-HEAD$
 70
     0
  3

  4

  5
EURO_COMMON_WIND-REC-HEAD$
  6

  7

 40
2.0
 41
2.0
 42
2.0
 43
6.0
 44
1.5
 45
0.0
 46
1.5
 47
0.0
 48
0.0
140
2.0
141
2.0
142
0.0
143
0.0394
144
1.0
145
0.0
146
1.0
147
1.0
 71
     0
 72
     0
 73
     0
 74
     0
 75
     0
 76
     0
 77
     0
 78
     0
170
     0
171
     2
172
     1
173
     0
174
     1
175
     0
176
     0
177
     0
178
     0
  0
ENDTAB
  0
ENDSEC
  0
SECTION
  2
BLOCKS
  0
BLOCK
  8
0
  2
$MODEL_SPACE
 70
     0
 10
0.0
 20
0.0
 30
0.0
  3
$MODEL_SPACE
  1

  0
ENDBLK
  5
17
  8
0
  0
BLOCK
 67
     1
  8
0
  2
$PAPER_SPACE
 70
     0
 10
0.0
 20
0.0
 30
0.0
  3
$PAPER_SPACE
  1

  0
ENDBLK
  5
20
 67
     1
  8
0
  0
BLOCK
  8
0
  2
_ARCHTICK
 70
     0
 10
0.0
 20
0.0
 30
0.0
  3
_ARCHTICK
  1

  0
POLYLINE
  5
8B
  8
0
  6
BYBLOCK
 62
     0
 66
     1
 10
0.0
 20
0.0
 30
0.0
 40
0.15
 41
0.15
  0
VERTEX
  5
7B8
  8
0
  6
BYBLOCK
 62
     0
 10
-0.5
 20
-0.5
 30
0.0
  0
VERTEX
  5
7B9
  8
0
  6
BYBLOCK
 62
     0
 10
0.5
 20
0.5
 30
0.0
  0
SEQEND
  5
7BA
  8
0
  6
BYBLOCK
 62
     0
  0
ENDBLK
  5
8C
  8
0
  0
BLOCK
  8
0
  2
EURO_COMMON_WIND-REC-HEAD$
 70
     0
 10
0.0
 20
0.0
 30
0.0
  3
EURO_COMMON_WIND-REC-HEAD$
  1

  0
POLYLINE
  5
686
  8
0
  6
BYBLOCK
 62
     0
 66
     1
 10
0.0
 20
0.0
 30
0.0
 40
0.15
 41
0.15
  0
VERTEX
  5
7DD
  8
0
  6
BYBLOCK
 62
     0
 10
-0.5
 20
-0.5
 30
0.0
  0
VERTEX
  5
7DE
  8
0
  6
BYBLOCK
 62
     0
 10
0.5
 20
0.5
 30
0.0
  0
SEQEND
  5
7DF
  8
0
  6
BYBLOCK
 62
     0
  0
ENDBLK
  5
687
  8
0
  0
BLOCK
  8
0
  2
*U9
 70
     1
 10
0.0
 20
0.0
 30
0.0
  3
*U9
  1

  0
SOLID
  5
7FC
  8
0
 10
-5.9043383427204663
 20
236.61012833938989
 30
0.0
 11
-1.875
 21
237.0671589339097
 31
0.0
 12
-5.5383101313778003
 22
235.32802026037351
 32
0.0
 13
-5.5383101313778003
 23
235.32802026037351
 33
0.0
  0
POLYLINE
  5
7FD
  8
0
 66
     1
 10
0.0
 20
0.0
 30
0.0
  0
VERTEX
  5
7FE
  8
0
 10
-5.7213242370491333
 20
235.9690742998817
 30
0.0
  0
VERTEX
  5
7FF
  8
0
 10
-105.0
 20
207.6260689723899
 30
0.0
  0
VERTEX
  5
800
  8
0
 10
-109.0
 20
207.6260689723899
 30
0.0
  0
SEQEND
  5
801
  8
0
  0
ENDBLK
  5
803
  8
0
  0
BLOCK
  8
0
  2
*U10
 70
     1
 10
0.0
 20
0.0
 30
0.0
  3
*U10
  1

  0
TEXT
  5
805
  8
0
  6
CONTINUOUS
 10
-144.3233287858117
 20
206.3020580583381
 30
0.0
 40
4.0
  1
Building wrap
  7
EURO_COMMON_WIND-REC-HEAD$
  0
ENDBLK
  5
807
  8
0
  0
BLOCK
  8
0
  2
*U11
 70
     1
 10
0.0
 20
0.0
 30
0.0
  3
*U11
  1

  0
SOLID
  5
809
  8
0
 10
-71.691960173428043
 20
204.50604979044419
 30
0.0
 11
-67.774999999999977
 21
205.5557485301895
 31
0.0
 12
-71.139789761973987
 22
203.2924248012105
 32
0.0
 13
-71.139789761973987
 23
203.2924248012105
 33
0.0
  0
POLYLINE
  5
80A
  8
0
 66
     1
 10
0.0
 20
0.0
 30
0.0
  0
VERTEX
  5
80B
  8
0
 10
-71.415874967701015
 20
203.89923729582731
 30
0.0
  0
VERTEX
  5
80C
  8
0
 10
-105.0
 20
188.61926176638639
 30
0.0
  0
VERTEX
  5
80D
  8
0
 10
-109.0
 20
188.61926176638639
 30
0.0
  0
SEQEND
  5
80E
  8
0
  0
ENDBLK
  5
810
  8
0
  0
BLOCK
  8
0
  2
*U12
 70
     1
 10
0.0
 20
0.0
 30
0.0
  3
*U12
  1

  0
TEXT
  5
812
  8
0
  6
CONTINUOUS
 10
-176.78990450204631
 20
187.32935726433999
 30
0.0
 40
4.0
  1
Euroline Seamlok cladding
  7
EURO_COMMON_WIND-REC-HEAD$
  0
ENDBLK
  5
814
  8
0
  0
BLOCK
  8
0
  2
*U13
 70
     1
 10
0.0
 20
0.0
 30
0.0
  3
*U13
  1

  0
SOLID
  5
816
  8
0
 10
-42.824595719105943
 20
187.7851192497192
 30
0.0
 11
-38.825000000000053
 21
188.4542070826337
 31
0.0
 12
-42.391399896587409
 22
186.52411998043701
 32
0.0
 13
-42.391399896587409
 23
186.52411998043701
 33
0.0
  0
POLYLINE
  5
817
  8
0
 66
     1
 10
0.0
 20
0.0
 30
0.0
  0
VERTEX
  5
818
  8
0
 10
-42.607997807846672
 20
187.1546196150781
 30
0.0
  0
VERTEX
  5
819
  8
0
 10
-105.0
 20
165.72086039998109
 30
0.0
  0
VERTEX
  5
81A
  8
0
 10
-109.0
 20
165.72086039998109
 30
0.0
  0
SEQEND
  5
81B
  8
0
  0
ENDBLK
  5
81D
  8
0
  0
BLOCK
  8
0
  2
*U14
 70
     1
 10
0.0
 20
0.0
 30
0.0
  3
*U14
  1

  0
TEXT
  5
81F
  8
0
  6
CONTINUOUS
 10
-138.7216916780354
 20
164.3654715868843
 30
0.0
 40
4.0
  1
Kraft paper
  7
EURO_COMMON_WIND-REC-HEAD$
  0
ENDBLK
  5
821
  8
0
  0
BLOCK
  8
0
  2
*U15
 70
     1
 10
0.0
 20
0.0
 30
0.0
  3
*U15
  1

  0
SOLID
  5
823
  8
0
 10
-39.901582003409807
 20
155.59972683842281
 30
0.0
 11
-35.899999999999977
 21
156.25683102683661
 31
0.0
 12
-39.472165401577762
 22
154.3374356042581
 32
0.0
 13
-39.472165401577762
 23
154.3374356042581
 33
0.0
  0
POLYLINE
  5
824
  8
0
 66
     1
 10
0.0
 20
0.0
 30
0.0
  0
VERTEX
  5
825
  8
0
 10
-39.686873702493791
 20
154.9685812213404
 30
0.0
  0
VERTEX
  5
826
  8
0
 10
-105.0
 20
132.74982536642571
 30
0.0
  0
VERTEX
  5
827
  8
0
 10
-109.0
 20
132.74982536642571
 30
0.0
  0
SEQEND
  5
828
  8
0
  0
ENDBLK
  5
82A
  8
0
  0
BLOCK
  8
0
  2
*U16
 70
     1
 10
0.0
 20
0.0
 30
0.0
  3
*U16
  1

  0
TEXT
  5
82C
  8
0
  6
CONTINUOUS
 10
-131.71759890859479
 20
131.42581445237391
 30
0.0
 40
4.0
  1
Plywood
  7
EURO_COMMON_WIND-REC-HEAD$
  0
ENDBLK
  5
82E
  8
0
  0
BLOCK
  8
0
  2
*U17
 70
     1
 10
0.0
 20
0.0
 30
0.0
  3
*U17
  1

  0
SOLID
  5
830
  8
0
 10
-82.663936231249082
 20
12.112393061599731
 30
0.0
 11
-79.290021463916673
 21
14.362091616344509
 31
0.0
 12
-81.751930496340904
 22
11.13975576164029
 32
0.0
 13
-81.751930496340904
 23
11.13975576164029
 33
0.0
  0
POLYLINE
  5
831
  8
0
 66
     1
 10
0.0
 20
0.0
 30
0.0
  0
VERTEX
  5
832
  8
0
 10
-82.207933363794979
 20
11.626074411619999
 30
0.0
  0
VERTEX
  5
833
  8
0
 10
-102.9433009880765
 20
-7.8167067664846854
 30
0.0
  0
VERTEX
  5
834
  8
0
 10
-106.9433009880765
 20
-7.8167067664846854
 30
0.0
  0
SEQEND
  5
835
  8
0
  0
ENDBLK
  5
837
  8
0
  0
BLOCK
  8
0
  2
*U18
 70
     1
 10
0.0
 20
0.0
 30
0.0
  3
*U18
  1

  0
TEXT
  5
839
  8
0
  6
CONTINUOUS
 10
-162.6131509198637
 20
-9.1066112685310703
 30
0.0
 40
4.0
  1
Primary head flashing
  7
EURO_COMMON_WIND-REC-HEAD$
  0
ENDBLK
  5
83B
  8
0
  0
BLOCK
  8
0
  2
*U19
 70
     1
 10
0.0
 20
0.0
 30
0.0
  3
*U19
  1

  0
SOLID
  5
83D
  8
0
 10
107.3872855861173
 20
109.0116890307697
 30
0.0
 11
105.5828095963607
 21
105.38011762890569
 31
0.0
 12
106.1119394022827
 22
109.4006233300495
 32
0.0
 13
106.1119394022827
 23
109.4006233300495
 33
0.0
  0
POLYLINE
  5
83E
  8
0
 66
     1
 10
0.0
 20
0.0
 30
0.0
  0
VERTEX
  5
83F
  8
0
 10
106.74961249419999
 20
109.20615618040959
 30
0.0
  0
VERTEX
  5
840
  8
0
 10
117.2992708431147
 20
143.7993163644355
 30
0.0
  0
VERTEX
  5
841
  8
0
 10
121.2992708431147
 20
143.7993163644355
 30
0.0
  0
SEQEND
  5
842
  8
0
  0
ENDBLK
  5
844
  8
0
  0
BLOCK
  8
0
  2
*U20
 70
     1
 10
0.0
 20
0.0
 30
0.0
  3
*U20
  1

  0
TEXT
  5
846
  8
0
  6
CONTINUOUS
 10
122.8899938990492
 20
142.2993163644355
 30
0.0
 40
4.0
  1
Lining
  7
EURO_COMMON_WIND-REC-HEAD$
  0
ENDBLK
  5
848
  8
0
  0
BLOCK
  8
0
  2
*U21
 70
     1
 10
0.0
 20
0.0
 30
0.0
  3
*U21
  1

  0
SOLID
  5
84A
  8
0
 10
-20.097975800530321
 20
86.917665192769491
 30
0.0
 11
-16.399999999999981
 21
85.253507921614982
 31
0.0
 12
-20.437811899254459
 22
85.628367242805339
 32
0.0
 13
-20.437811899254459
 23
85.628367242805339
 33
0.0
  0
POLYLINE
  5
84B
  8
0
 66
     1
 10
0.0
 20
0.0
 30
0.0
  0
VERTEX
  5
84C
  8
0
 10
-20.267893849892388
 20
86.273016217787429
 30
0.0
  0
VERTEX
  5
84D
  8
0
 10
-109.0
 20
109.66122744271659
 30
0.0
  0
SEQEND
  5
84E
  8
0
  0
ENDBLK
  5
850
  8
0
  0
BLOCK
  8
0
  2
*U22
 70
     1
 10
0.0
 20
0.0
 30
0.0
  3
*U22
  1

  0
TEXT
  5
852
  8
0
  6
CONTINUOUS
 10
-155.33560709413371
 20
108.12712103071109
 30
0.0
 40
4.0
  1
Cavibat horizontal
  7
EURO_COMMON_WIND-REC-HEAD$
  0
TEXT
  5
853
  8
0
  6
CONTINUOUS
 10
-146.3451568894952
 20
101.426347952039
 30
0.0
 40
4.0
  1
drained batten
  7
EURO_COMMON_WIND-REC-HEAD$
  0
ENDBLK
  5
855
  8
0
  0
BLOCK
  8
0
  2
*U23
 70
     1
 10
0.0
 20
0.0
 30
0.0
  3
*U23
  1

  0
SOLID
  5
857
  8
0
 10
-50.004071170230652
 20
-11.07991382288821
 30
0.0
 11
-46.500000000000341
 21
-9.0388529030709606
 31
0.0
 12
-49.152696214061251
 22
-12.106041720270079
 32
0.0
 13
-49.152696214061251
 23
-12.106041720270079
 33
0.0
  0
POLYLINE
  5
858
  8
0
 66
     1
 10
0.0
 20
0.0
 30
0.0
  0
VERTEX
  5
859
  8
0
 10
-49.578383692145948
 20
-11.59297777157915
 30
0.0
  0
VERTEX
  5
85A
  8
0
 10
-105.0
 20
-57.576111331563389
 30
0.0
  0
VERTEX
  5
85B
  8
0
 10
-109.0
 20
-57.576111331563389
 30
0.0
  0
SEQEND
  5
85C
  8
0
  0
ENDBLK
  5
85E
  8
0
  0
BLOCK
  8
0
  2
*U24
 70
     1
 10
0.0
 20
0.0
 30
0.0
  3
*U24
  1

  0
TEXT
  5
860
  8
0
  6
CONTINUOUS
 10
-148.83901773533421
 20
-58.872968821760573
 30
0.0
 40
4.0
  1
Window joinery
  7
EURO_COMMON_WIND-REC-HEAD$
  0
ENDBLK
  5
862
  8
0
  0
BLOCK
  8
0
  2
*U25
 70
     1
 10
0.0
 20
0.0
 30
0.0
  3
*U25
  1

  0
SOLID
  5
87C
  8
0
 10
42.990210373506137
 20
150.810008404906
 30
0.0
 11
39.714919303526358
 21
148.41900174423881
 31
0.0
 12
42.037705993290828
 22
151.74302136486341
 32
0.0
 13
42.037705993290828
 23
151.74302136486341
 33
0.0
  0
POLYLINE
  5
87D
  8
0
 66
     1
 10
0.0
 20
0.0
 30
0.0
  0
VERTEX
  5
87E
  8
0
 10
42.513958183398479
 20
151.2765148848847
 30
0.0
  0
VERTEX
  5
87F
  8
0
 10
117.2992708431147
 20
227.6241552085576
 30
0.0
  0
VERTEX
  5
880
  8
0
 10
121.2992708431147
 20
227.6241552085576
 30
0.0
  0
SEQEND
  5
881
  8
0
  0
ENDBLK
  5
883
  8
0
  0
BLOCK
  8
0
  2
*U26
 70
     1
 10
0.0
 20
0.0
 30
0.0
  3
*U26
  1

  0
TEXT
  5
885
  8
0
  6
CONTINUOUS
 10
123.1683022210138
 20
226.09004879655211
 30
0.0
 40
4.0
  1
Timber framing
  7
EURO_COMMON_WIND-REC-HEAD$
  0
ENDBLK
  5
887
  8
0
  0
BLOCK
  8
0
  2
*U27
 70
     1
 10
0.0
 20
0.0
 30
0.0
  3
*U27
  1

  0
SOLID
  5
88E
  8
0
 10
-51.26557613081004
 20
67.909955653298042
 30
0.0
 11
-47.39999999999997
 21
69.135421124601066
 31
0.0
 12
-50.659177808722028
 22
66.72249666337602
 32
0.0
 13
-50.659177808722028
 23
66.72249666337602
 33
0.0
  0
POLYLINE
  5
88F
  8
0
 66
     1
 10
0.0
 20
0.0
 30
0.0
  0
VERTEX
  5
890
  8
0
 10
-50.962376969766026
 20
67.316226158337031
 30
0.0
  0
VERTEX
  5
891
  8
0
 10
-105.0
 20
39.720895108369291
 30
0.0
  0
VERTEX
  5
892
  8
0
 10
-109.0
 20
39.720895108369291
 30
0.0
  0
SEQEND
  5
893
  8
0
  0
ENDBLK
  5
895
  8
0
  0
BLOCK
  8
0
  2
*U28
 70
     1
 10
0.0
 20
0.0
 30
0.0
  3
*U28
  1

  0
TEXT
  5
897
  8
0
  6
CONTINUOUS
 10
-143.86221009549789
 20
38.430990606322908
 30
0.0
 40
4.0
  1
Grab flashing
  7
EURO_COMMON_WIND-REC-HEAD$
  0
ENDBLK
  5
899
  8
0
  0
BLOCK
  8
0
  2
*U29
 70
     1
 10
0.0
 20
0.0
 30
0.0
  3
*U29
  1

  0
SOLID
  5
8A9
  8
0
 10
-53.818836836152457
 20
18.811517939382089
 30
0.0
 11
-50.598780979718747
 21
21.276408347877261
 31
0.0
 12
-52.84535584656301
 22
17.900412818835761
 32
0.0
 13
-52.84535584656301
 23
17.900412818835761
 33
0.0
  0
POLYLINE
  5
8AA
  8
0
 66
     1
 10
0.0
 20
0.0
 30
0.0
  0
VERTEX
  5
8AB
  8
0
 10
-53.332096341357733
 20
18.35596537910893
 30
0.0
  0
VERTEX
  5
8AC
  8
0
 10
-102.9433009880765
 20
-34.65171014054215
 30
0.0
  0
VERTEX
  5
8AD
  8
0
 10
-106.9433009880765
 20
-34.65171014054215
 30
0.0
  0
SEQEND
  5
8AE
  8
0
  0
ENDBLK
  5
8B0
  8
0
  0
BLOCK
  8
0
  2
*U30
 70
     1
 10
0.0
 20
0.0
 30
0.0
  3
*U30
  1

  0
TEXT
  5
8B2
  8
0
  6
CONTINUOUS
 10
-170.08109089257849
 20
-22.540068485244291
 30
0.0
 40
4.0
  1
Secondary head flashing
  7
EURO_COMMON_WIND-REC-HEAD$
  0
TEXT
  5
8B3
  8
0
  6
CONTINUOUS
 10
-159.4808180412825
 20
-29.274947975921869
 30
0.0
 40
4.0
  1
to back of cavity and
  7
EURO_COMMON_WIND-REC-HEAD$
  0
TEXT
  5
8B4
  8
0
  6
CONTINUOUS
 10
-147.86553836870411
 20
-35.97572105459399
 30
0.0
 40
4.0
  1
sealed to jambs
  7
EURO_COMMON_WIND-REC-HEAD$
  0
ENDBLK
  5
8B6
  8
0
  0
ENDSEC
  0
SECTION
  2
ENTITIES
  0
POLYLINE
  5
6F8
  8
0
 66
     1
 10
0.0
 20
0.0
 30
0.0
  0
VERTEX
  5
7E0
  8
0
 10
-27.899999999999981
 20
249.7601541320582
 30
0.0
  0
VERTEX
  5
7E1
  8
0
 10
-27.899999999999981
 20
62.753507921614982
 30
0.0
  0
VERTEX
  5
7E2
  8
0
 10
-39.899999999999977
 20
62.753507921614982
 30
0.0
  0
VERTEX
  5
7E3
  8
0
 10
-39.899999999999977
 20
249.7601541320582
 30
0.0
  0
SEQEND
  5
7E4
  8
0
  0
POLYLINE
  5
6F9
  8
0
 66
     1
 10
0.0
 20
0.0
 30
0.0
 70
   128
  0
VERTEX
  5
7E5
  8
0
 10
-1.9750000000000221
 20
250.5748546195839
 30
0.0
  0
VERTEX
  5
7E6
  8
0
 10
-1.9750000000000221
 20
0.8147004875256698
 30
0.0
 42
0.4142135623730951
  0
VERTEX
  5
7E7
  8
0
 10
0.0249999999999773
 20
-1.18529951247433
 30
0.0
  0
VERTEX
  5
7E8
  8
0
 10
100.0
 20
-1.18529951247433
 30
0.0
  0
SEQEND
  5
7E9
  8
0
  0
LINE
  5
6FA
  8
0
 10
-42.825000000000053
 20
249.7601541320582
 30
0.0
 11
-42.825000000000053
 21
62.753507921614982
 31
0.0
  0
POLYLINE
  5
6FB
  8
0
 66
     1
 10
0.0
 20
0.0
 30
0.0
 70
   128
  0
VERTEX
  5
7EA
  8
0
 10
-47.39999999999997
 20
62.753507921614982
 30
0.0
  0
VERTEX
  5
7EB
  8
0
 10
-76.938381539904867
 20
62.753507921614982
 30
0.0
  0
VERTEX
  5
7EC
  8
0
 10
-76.938381539904867
 20
249.7601541320582
 30
0.0
  0
SEQEND
  5
7ED
  8
0
  0
POLYLINE
  5
6FC
  8
0
 66
     1
 10
0.0
 20
0.0
 30
0.0
 70
   128
 40
0.75
 41
0.75
  0
VERTEX
  5
7EE
  8
0
 10
-47.39999999999997
 20
249.7601541320582
 30
0.0
  0
VERTEX
  5
7EF
  8
0
 10
-47.39999999999997
 20
62.753507921614982
 30
0.0
 42
0.9999999999999998
  0
VERTEX
  5
7F0
  8
0
 10
-45.075000000000038
 20
62.753507921614982
 30
0.0
  0
VERTEX
  5
7F1
  8
0
 10
-45.075000000000038
 20
77.753507921614982
 30
0.0
  0
SEQEND
  5
7F2
  8
0
  0
POLYLINE
  5
6FD
  8
0
 66
     1
 10
0.0
 20
0.0
 30
0.0
 70
   128
 40
0.75
 41
0.75
  0
VERTEX
  5
7F3
  8
0
 10
-41.39999999999997
 20
137.75350792161501
 30
0.0
  0
VERTEX
  5
7F4
  8
0
 10
-41.39999999999997
 20
54.169762273756533
 30
0.0
 42
-0.3192644753754731
  0
VERTEX
  5
7F5
  8
0
 10
-43.918341306031493
 20
50.627797160776034
 30
0.0
  0
VERTEX
  5
7F6
  8
0
 10
-77.8651244035932
 20
34.457699085483462
 30
0.0
 42
0.2892489382996523
  0
VERTEX
  5
7F7
  8
0
 10
-79.290021463916673
 20
32.200675897942119
 30
0.0
  0
VERTEX
  5
7F8
  8
0
 10
-79.290021463916673
 20
1.7899957618531059
 30
0.0
  0
VERTEX
  5
7F9
  8
0
 10
-82.825555369849425
 20
-1.745538144079628
 30
0.0
 40
0.0
 41
0.0
  0
SEQEND
  5
7FA
  8
0
  0
INSERT
  5
6FE
  8
0
  6
CONTINUOUS
  2
*U9
 10
0.0
 20
0.0
 30
0.0
1001
ACAD
1000
DSTYLE
1002
{
1070
   147
1040
1.0
1070
    77
1070
     0
1002
}
  0
INSERT
  5
6FF
  8
0
  6
CONTINUOUS
  2
*U10
 10
0.0
 20
0.0
 30
0.0
  0
INSERT
  5
700
  8
0
  6
CONTINUOUS
  2
*U11
 10
0.0
 20
0.0
 30
0.0
1001
ACAD
1000
DSTYLE
1002
{
1070
   147
1040
1.0
1070
    77
1070
     0
1002
}
  0
INSERT
  5
701
  8
0
  6
CONTINUOUS
  2
*U12
 10
0.0
 20
0.0
 30
0.0
  0
INSERT
  5
702
  8
0
  6
CONTINUOUS
  2
*U13
 10
0.0
 20
0.0
 30
0.0
1001
ACAD
1000
DSTYLE
1002
{
1070
   147
1040
1.0
1070
    77
1070
     0
1002
}
  0
INSERT
  5
703
  8
0
  6
CONTINUOUS
  2
*U14
 10
0.0
 20
0.0
 30
0.0
  0
INSERT
  5
704
  8
0
  6
CONTINUOUS
  2
*U15
 10
0.0
 20
0.0
 30
0.0
1001
ACAD
1000
DSTYLE
1002
{
1070
   147
1040
1.0
1070
    77
1070
     0
1002
}
  0
INSERT
  5
705
  8
0
  6
CONTINUOUS
  2
*U16
 10
0.0
 20
0.0
 30
0.0
  0
INSERT
  5
706
  8
0
  6
CONTINUOUS
  2
*U17
 10
0.0
 20
0.0
 30
0.0
1001
ACAD
1000
DSTYLE
1002
{
1070
   147
1040
1.0
1070
    77
1070
     0
1002
}
  0
INSERT
  5
707
  8
0
  6
CONTINUOUS
  2
*U18
 10
0.0
 20
0.0
 30
0.0
  0
INSERT
  5
708
  8
0
  6
CONTINUOUS
  2
*U19
 10
0.0
 20
0.0
 30
0.0
1001
ACAD
1000
DSTYLE
1002
{
1070
   147
1040
1.0
1070
    77
1070
     0
1002
}
  0
INSERT
  5
709
  8
0
  6
CONTINUOUS
  2
*U20
 10
0.0
 20
0.0
 30
0.0
  0
INSERT
  5
70A
  8
0
  6
CONTINUOUS
  2
*U21
 10
0.0
 20
0.0
 30
0.0
1001
ACAD
1000
DSTYLE
1002
{
1070
   147
1040
1.0
1070
    77
1070
     0
1002
}
  0
INSERT
  5
70B
  8
0
  6
CONTINUOUS
  2
*U22
 10
0.0
 20
0.0
 30
0.0
  0
INSERT
  5
70C
  8
0
  6
CONTINUOUS
  2
*U23
 10
0.0
 20
0.0
 30
0.0
1001
ACAD
1000
DSTYLE
1002
{
1070
   147
1040
1.0
1070
    77
1070
     0
1002
}
  0
INSERT
  5
70D
  8
0
  6
CONTINUOUS
  2
*U24
 10
0.0
 20
0.0
 30
0.0
  0
POLYLINE
  5
70F
  8
0
 66
     1
 10
0.0
 20
0.0
 30
0.0
  0
VERTEX
  5
863
  8
0
 10
100.0
 20
249.7601541320582
 30
0.0
  0
VERTEX
  5
864
  8
0
 10
100.0
 20
50.0
 30
0.0
  0
VERTEX
  5
865
  8
0
 10
0.0
 20
50.0
 30
0.0
  0
VERTEX
  5
866
  8
0
 10
0.0
 20
249.7601541320582
 30
0.0
  0
SEQEND
  5
867
  8
0
  0
LINE
  5
712
  8
0
  6
CONTINUOUS
 10
-46.353553390593667
 20
-9.392406293664294
 30
0.0
 11
-46.353553390593667
 21
-70.378852421089505
 31
0.0
  0
LINE
  5
713
  8
0
  6
CONTINUOUS
 10
-38.999999999998629
 20
-28.935299512478078
 30
0.0
 11
-38.999999999998629
 21
-70.378852421089505
 31
0.0
  0
LINE
  5
714
  8
0
  6
CONTINUOUS
 10
-10.49999999999932
 20
-47.935299512475233
 30
0.0
 11
-10.49999999999932
 21
-70.378852421089505
 31
0.0
  0
LINE
  5
715
  8
0
  6
CONTINUOUS
 10
-4.9999999999990896
 20
-49.185299512474778
 30
0.0
 11
-4.9999999999990896
 21
-70.378852421089505
 31
0.0
  0
LINE
  5
716
  8
0
  6
CONTINUOUS
 10
8.5000000000011369
 20
-32.68529951247433
 30
0.0
 11
8.5000000000011369
 21
-70.378852421089505
 31
0.0
  0
LINE
  5
717
  8
0
  6
CONTINUOUS
 10
14.250000000000909
 20
-34.935299512475012
 30
0.0
 11
14.250000000000909
 21
-70.378852421089505
 31
0.0
  0
LINE
  5
718
  8
0
  6
CONTINUOUS
 10
118.85355339059331
 20
-35.021446609406667
 30
0.0
 11
118.85355339059331
 21
-70.378852421089505
 31
0.0
  0
POLYLINE
  5
719
  8
0
 66
     1
 10
0.0
 20
0.0
 30
0.0
  0
VERTEX
  5
868
  8
0
 10
112.0
 20
249.7601541320582
 30
0.0
  0
VERTEX
  5
869
  8
0
 10
112.0
 20
-21.399637727066871
 30
0.0
  0
VERTEX
  5
86A
  8
0
 10
102.0
 20
-21.399637727066871
 30
0.0
  0
VERTEX
  5
86B
  8
0
 10
102.0
 20
249.7601541320582
 30
0.0
  0
SEQEND
  5
86C
  8
0
  0
POLYLINE
  5
71A
  8
0
  6
CONTINUOUS
 66
     1
 10
0.0
 20
0.0
 30
0.0
 70
   128
  0
VERTEX
  5
86D
  8
0
  6
CONTINUOUS
 10
-87.525950088652976
 20
-70.378852421089505
 30
0.0
  0
VERTEX
  5
86E
  8
0
  6
CONTINUOUS
 10
18.36670584998296
 20
-70.378852421089505
 30
0.0
  0
VERTEX
  5
86F
  8
0
  6
CONTINUOUS
 10
19.366705849982619
 20
-73.126329840543804
 30
0.0
  0
VERTEX
  5
870
  8
0
  6
CONTINUOUS
 10
21.366705849982619
 20
-67.631375001634751
 30
0.0
  0
VERTEX
  5
871
  8
0
  6
CONTINUOUS
 10
22.366705849982971
 20
-70.378852421089505
 30
0.0
  0
VERTEX
  5
872
  8
0
  6
CONTINUOUS
 10
122.85355339059331
 20
-70.378852421089505
 30
0.0
  0
SEQEND
  5
873
  8
0
  6
CONTINUOUS
  0
POLYLINE
  5
71B
  8
0
  6
CONTINUOUS
 66
     1
 10
0.0
 20
0.0
 30
0.0
 70
   128
  0
VERTEX
  5
874
  8
0
  6
CONTINUOUS
 10
-82.120141690627406
 20
249.7601541320582
 30
0.0
  0
VERTEX
  5
875
  8
0
  6
CONTINUOUS
 10
18.36670584998296
 20
249.7601541320582
 30
0.0
  0
VERTEX
  5
876
  8
0
  6
CONTINUOUS
 10
19.366705849982729
 20
247.01267671260391
 30
0.0
  0
VERTEX
  5
877
  8
0
  6
CONTINUOUS
 10
21.36670584998274
 20
252.50763155151299
 30
0.0
  0
VERTEX
  5
878
  8
0
  6
CONTINUOUS
 10
22.366705849982971
 20
249.7601541320582
 30
0.0
  0
VERTEX
  5
879
  8
0
  6
CONTINUOUS
 10
122.85355339059331
 20
249.7601541320582
 30
0.0
  0
SEQEND
  5
87A
  8
0
  6
CONTINUOUS
  0
INSERT
  5
71C
  8
0
  6
CONTINUOUS
  2
*U25
 10
0.0
 20
0.0
 30
0.0
1001
ACAD
1000
DSTYLE
1002
{
1070
   147
1040
1.0
1070
    77
1070
     0
1002
}
  0
INSERT
  5
71D
  8
0
  6
CONTINUOUS
  2
*U26
 10
0.0
 20
0.0
 30
0.0
  0
POLYLINE
  5
71E
  8
0
  6
CONTINUOUS
 66
     1
 10
0.0
 20
0.0
 30
0.0
 70
   128
 40
0.75
 41
0.75
  0
VERTEX
  5
888
  8
0
  6
CONTINUOUS
 10
-46.237499999999947
 20
62.753507921614982
 30
0.0
  0
VERTEX
  5
889
  8
0
  6
CONTINUOUS
 10
-46.237499999999947
 20
77.753507921614982
 30
0.0
  0
VERTEX
  5
88A
  8
0
  6
CONTINUOUS
 10
-44.325000000000038
 20
82.495084341621364
 30
0.0
  0
VERTEX
  5
88B
  8
0
  6
CONTINUOUS
 10
-44.325000000000038
 20
132.7535079216149
 30
0.0
  0
SEQEND
  5
88C
  8
0
  6
CONTINUOUS
  0
LINE
  5
720
  8
0
  6
EURO_COMMON_WIND-REC-HEAD$
 10
-69.774999999999977
 20
62.753507921614982
 30
0.0
 11
-69.774999999999977
 21
249.7601541320582
 31
0.0
  0
INSERT
  5
721
  8
0
  6
CONTINUOUS
  2
*U27
 10
0.0
 20
0.0
 30
0.0
1001
ACAD
1000
DSTYLE
1002
{
1070
   147
1040
1.0
1070
    77
1070
     0
1002
}
  0
INSERT
  5
722
  8
0
  6
CONTINUOUS
  2
*U28
 10
0.0
 20
0.0
 30
0.0
  0
POLYLINE
  5
724
  8
0
 66
     1
 10
0.0
 20
0.0
 30
0.0
 70
   128
 40
0.75
 41
0.75
  0
VERTEX
  5
89A
  8
0
 10
-3.9750000000000218
 20
137.75350792161501
 30
0.0
  0
VERTEX
  5
89B
  8
0
 10
-3.9750000000000218
 20
54.169762273756533
 30
0.0
 42
-0.3192644753754731
  0
VERTEX
  5
89C
  8
0
 10
-6.4933413060315379
 20
50.627797160776034
 30
0.0
  0
VERTEX
  5
89D
  8
0
 10
-49.352765491490118
 20
33.182985314219849
 30
0.0
 42
0.3050270722331736
  0
VERTEX
  5
89E
  8
0
 10
-50.598780979718747
 20
31.33055249330328
 30
0.0
  0
VERTEX
  5
89F
  8
0
 10
-50.598780979718747
 20
11.22226420245123
 30
0.0
 42
0.9999999999999998
  0
VERTEX
  5
8A0
  8
0
 10
-47.598780979718747
 20
11.22226420245123
 30
0.0
  0
VERTEX
  5
8A1
  8
0
 10
-47.598780979718747
 20
23.222264202451239
 30
0.0
  0
SEQEND
  5
8A2
  8
0
  0
POLYLINE
  5
725
  8
0
 66
     1
 10
0.0
 20
0.0
 30
0.0
  0
VERTEX
  5
8A3
  8
0
 10
-5.8999999999999773
 20
62.753507921614982
 30
0.0
  0
VERTEX
  5
8A4
  8
0
 10
-5.8999999999999773
 20
139.75343683113579
 30
0.0
  0
VERTEX
  5
8A5
  8
0
 10
-3.9750000000000218
 20
146.93763463570531
 30
0.0
  0
VERTEX
  5
8A6
  8
0
 10
-3.9750000000000218
 20
218.12477463341341
 30
0.0
  0
SEQEND
  5
8A7
  8
0
  0
LINE
  5
726
  8
0
 10
-75.846213215099397
 20
35.41938054523871
 30
0.0
 11
-75.846213215099397
 21
-70.378852421089505
 31
0.0
  0
INSERT
  5
727
  8
0
  6
CONTINUOUS
  2
*U29
 10
0.0
 20
0.0
 30
0.0
1001
ACAD
1000
DSTYLE
1002
{
1070
   147
1040
1.0
1070
    77
1070
     0
1002
}
  0
INSERT
  5
728
  8
0
  6
CONTINUOUS
  2
*U30
 10
0.0
 20
0.0
 30
0.0
  0
POLYLINE
  5
729
  8
0
  6
CONTINUOUS
 66
     1
 10
0.0
 20
0.0
 30
0.0
 70
   129
1001
GENIUS_GENREC_14
1002
{
1000
PYDIR
1011
-41.825000000000038
1021
0.0
1031
0.0
1021
118.9239232813179
1031
0.0
1002
}
1002
{
1000
PXDIR
1011
-40.325000000000053
1021
0.0
1031
0.0
1021
125.9239232813179
1031
0.0
1002
}
1002
{
1000
PORI
1011
-40.325000000000053
1021
0.0
1031
0.0
1021
118.9239232813179
1031
0.0
1002
}
1002
{
1000
PINS
1011
-40.325000000000053
1021
0.0
1031
0.0
1021
118.9239232813179
1031
0.0
1002
}
1002
{
1000
PINS2
1011
-41.825000000000038
1021
0.0
1031
0.0
1021
125.9239232813179
1031
0.0
1002
}
1002
{
1000
C
1070
     1
1002
}
1001
GENIUS_GENOBJ-N-REC_13
1002
{
1000
OWNER
1000
GEN
1002
}
1001
GENIUS_GENODEF_13
1002
{
1000
HIER
1070
     0
1002
}
1002
{
1000
MANEDIT
1070
     0
1002
}
1002
{
1000
NOSEL
1070
     0
1002
}
1002
{
1000
BEHIND
1070
     0
1002
}
1002
{
1000
OTHER
1070
     0
1002
}
1002
{
1000
REACTOR
1002
}
1001
ACDBBLOCKREPETAG
1070
     1
1071
        0
1005
729
  0
VERTEX
  5
8B7
  8
0
  6
CONTINUOUS
 10
-40.325000000000053
 20
118.9239232813179
 30
0.0
  0
VERTEX
  5
8B8
  8
0
  6
CONTINUOUS
 10
-40.325000000000053
 20
125.9239232813179
 30
0.0
  0
VERTEX
  5
8B9
  8
0
  6
CONTINUOUS
 10
-41.825000000000038
 20
125.9239232813179
 30
0.0
  0
VERTEX
  5
8BA
  8
0
  6
CONTINUOUS
 10
-41.825000000000038
 20
118.9239232813179
 30
0.0
  0
SEQEND
  5
8BB
  8
0
  6
CONTINUOUS
  0
LINE
  5
72A
  8
0
  6
CONTINUOUS
 10
-19.491666666667012
 20
121.4239232813179
 30
0.0
 11
-16.825000000000038
 21
122.4239232813179
 31
0.0
1001
GENIUS_GENREC_14
1002
{
1000
PYDIR
1011
-40.325000000000053
1021
0.0
1031
0.0
1021
121.6739232813179
1031
0.0
1002
}
1002
{
1000
PXDIR
1011
-19.53700031211088
1021
0.0
1031
0.0
1021
123.1739232813179
1031
0.0
1002
}
1002
{
1000
PORI
1011
-19.53700031211088
1021
0.0
1031
0.0
1021
121.6739232813179
1031
0.0
1002
}
1002
{
1000
PINS
1011
-19.53700031211088
1021
0.0
1031
0.0
1021
121.6739232813179
1031
0.0
1002
}
1002
{
1000
PINS2
1011
-40.325000000000053
1021
0.0
1031
0.0
1021
123.1739232813179
1031
0.0
1002
}
1002
{
1000
C
1070
     1
1002
}
1001
GENIUS_GENOBJ-N-REC_13
1002
{
1000
OWNER
1000
GEN
1002
}
1001
GENIUS_GENODEF_13
1002
{
1000
HIER
1070
     0
1002
}
1002
{
1000
MANEDIT
1070
     0
1002
}
1002
{
1000
NOSEL
1070
     0
1002
}
1002
{
1000
BEHIND
1070
     0
1002
}
1002
{
1000
OTHER
1070
     0
1002
}
1002
{
1000
REACTOR
1002
}
1001
ACDBBLOCKREPETAG
1070
     1
1071
        1
1005
72A
  0
LINE
  5
72B
  8
0
  6
CONTINUOUS
 10
-16.825000000000038
 20
122.4239232813179
 30
0.0
 11
-19.491666666667012
 21
123.4239232813179
 31
0.0
1001
GENIUS_GENREC_14
1002
{
1000
PYDIR
1011
-40.325000000000053
1021
0.0
1031
0.0
1021
121.6739232813179
1031
0.0
1002
}
1002
{
1000
PXDIR
1011
-19.53700031211088
1021
0.0
1031
0.0
1021
123.1739232813179
1031
0.0
1002
}
1002
{
1000
PORI
1011
-19.53700031211088
1021
0.0
1031
0.0
1021
121.6739232813179
1031
0.0
1002
}
1002
{
1000
PINS
1011
-19.53700031211088
1021
0.0
1031
0.0
1021
121.6739232813179
1031
0.0
1002
}
1002
{
1000
PINS2
1011
-40.325000000000053
1021
0.0
1031
0.0
1021
123.1739232813179
1031
0.0
1002
}
1002
{
1000
C
1070
     1
1002
}
1001
GENIUS_GENOBJ-N-REC_13
1002
{
1000
OWNER
1000
GEN
1002
}
1001
GENIUS_GENODEF_13
1002
{
1000
HIER
1070
     0
1002
}
1002
{
1000
MANEDIT
1070
     0
1002
}
1002
{
1000
NOSEL
1070
     0
1002
}
1002
{
1000
BEHIND
1070
     0
1002
}
1002
{
1000
OTHER
1070
     0
1002
}
1002
{
1000
REACTOR
1002
}
1001
ACDBBLOCKREPETAG
1070
     1
1071
        2
1005
72B
  0
LINE
  5
72C
  8
0
  6
CONTINUOUS
 10
-19.491666666667012
 20
123.4239232813179
 30
0.0
 11
-40.325000000000053
 21
123.4239232813179
 31
0.0
1001
GENIUS_GENREC_14
1002
{
1000
PYDIR
1011
-40.325000000000053
1021
0.0
1031
0.0
1021
121.6739232813179
1031
0.0
1002
}
1002
{
1000
PXDIR
1011
-19.53700031211088
1021
0.0
1031
0.0
1021
123.1739232813179
1031
0.0
1002
}
1002
{
1000
PORI
1011
-19.53700031211088
1021
0.0
1031
0.0
1021
121.6739232813179
1031
0.0
1002
}
1002
{
1000
PINS
1011
-19.53700031211088
1021
0.0
1031
0.0
1021
121.6739232813179
1031
0.0
1002
}
1002
{
1000
PINS2
1011
-40.325000000000053
1021
0.0
1031
0.0
1021
123.1739232813179
1031
0.0
1002
}
1002
{
1000
C
1070
     1
1002
}
1001
GENIUS_GENOBJ-N-REC_13
1002
{
1000
OWNER
1000
GEN
1002
}
1001
GENIUS_GENODEF_13
1002
{
1000
HIER
1070
     0
1002
}
1002
{
1000
MANEDIT
1070
     0
1002
}
1002
{
1000
NOSEL
1070
     0
1002
}
1002
{
1000
BEHIND
1070
     0
1002
}
1002
{
1000
OTHER
1070
     0
1002
}
1002
{
1000
REACTOR
1002
}
1001
ACDBBLOCKREPETAG
1070
     1
1071
        3
1005
72C
  0
LINE
  5
72D
  8
0
  6
CONTINUOUS
 10
-40.325000000000053
 20
123.4239232813179
 30
0.0
 11
-40.325000000000053
 21
121.4239232813179
 31
0.0
1001
GENIUS_GENREC_14
1002
{
1000
PYDIR
1011
-40.325000000000053
1021
0.0
1031
0.0
1021
121.6739232813179
1031
0.0
1002
}
1002
{
1000
PXDIR
1011
-3.0370003121108762
1021
0.0
1031
0.0
1021
123.1739232813179
1031
0.0
1002
}
1002
{
1000
PORI
1011
-3.0370003121108762
1021
0.0
1031
0.0
1021
121.6739232813179
1031
0.0
1002
}
1002
{
1000
PINS
1011
-3.0370003121108762
1021
0.0
1031
0.0
1021
121.6739232813179
1031
0.0
1002
}
1002
{
1000
PINS2
1011
-40.325000000000053
1021
0.0
1031
0.0
1021
123.1739232813179
1031
0.0
1002
}
1002
{
1000
C
1070
     1
1002
}
1001
GENIUS_GENOBJ-N-REC_13
1002
{
1000
OWNER
1000
GEN
1002
}
1001
GENIUS_GENODEF_13
1002
{
1000
HIER
1070
     0
1002
}
1002
{
1000
MANEDIT
1070
     0
1002
}
1002
{
1000
NOSEL
1070
     0
1002
}
1002
{
1000
BEHIND
1070
     0
1002
}
1002
{
1000
OTHER
1070
     0
1002
}
1002
{
1000
REACTOR
1002
}
1001
ACDBBLOCKREPETAG
1070
     1
1071
        4
1005
72D
  0
LINE
  5
72E
  8
0
  6
CONTINUOUS
 10
-40.325000000000053
 20
121.4239232813179
 30
0.0
 11
-19.491666666667012
 21
121.4239232813179
 31
0.0
1001
GENIUS_GENREC_14
1002
{
1000
PYDIR
1011
-40.325000000000053
1021
0.0
1031
0.0
1021
121.6739232813179
1031
0.0
1002
}
1002
{
1000
PXDIR
1011
-19.53700031211088
1021
0.0
1031
0.0
1021
123.1739232813179
1031
0.0
1002
}
1002
{
1000
PORI
1011
-19.53700031211088
1021
0.0
1031
0.0
1021
121.6739232813179
1031
0.0
1002
}
1002
{
1000
PINS
1011
-19.53700031211088
1021
0.0
1031
0.0
1021
121.6739232813179
1031
0.0
1002
}
1002
{
1000
PINS2
1011
-40.325000000000053
1021
0.0
1031
0.0
1021
123.1739232813179
1031
0.0
1002
}
1002
{
1000
C
1070
     1
1002
}
1001
GENIUS_GENOBJ-N-REC_13
1002
{
1000
OWNER
1000
GEN
1002
}
1001
GENIUS_GENODEF_13
1002
{
1000
HIER
1070
     0
1002
}
1002
{
1000
MANEDIT
1070
     0
1002
}
1002
{
1000
NOSEL
1070
     0
1002
}
1002
{
1000
BEHIND
1070
     0
1002
}
1002
{
1000
OTHER
1070
     0
1002
}
1002
{
1000
REACTOR
1002
}
1001
ACDBBLOCKREPETAG
1070
     1
1071
        5
1005
72E
  0
POLYLINE
  5
72F
  8
0
 66
     1
 10
0.0
 20
0.0
 30
0.0
 70
     1
  0
VERTEX
  5
8BC
  8
0
 10
-25.899999999999981
 20
62.753507921614982
 30
0.0
  0
VERTEX
  5
8BD
  8
0
 10
-7.8999999999999773
 20
62.753507921614982
 30
0.0
  0
VERTEX
  5
8BE
  8
0
 10
-7.8999999999999773
 20
107.7535079216149
 30
0.0
  0
VERTEX
  5
8BF
  8
0
 10
-25.899999999999981
 20
107.7535079216149
 30
0.0
  0
SEQEND
  5
8C0
  8
0
  0
LINE
  5
730
  8
0
 10
-17.39999999999997
 20
107.7535079216149
 30
0.0
 11
-17.39999999999997
 21
62.753507921614982
 31
0.0
  0
LINE
  5
731
  8
0
 10
-16.399999999999981
 20
62.753507921614982
 30
0.0
 11
-16.399999999999981
 21
107.7535079216149
 31
0.0
  0
LINE
  5
732
  8
0
 10
-24.899999999999981
 20
107.7535079216149
 30
0.0
 11
-24.899999999999981
 21
62.753507921614982
 31
0.0
  0
LINE
  5
733
  8
0
 10
-8.8999999999999773
 20
107.7535079216149
 30
0.0
 11
-8.8999999999999773
 21
62.753507921614982
 31
0.0
  0
POLYLINE
  5
734
  8
0
 66
     1
 10
0.0
 20
0.0
 30
0.0
 70
   129
1001
ACDBBLOCKREPETAG
1070
     1
1071
        0
1005
734
  0
VERTEX
  5
8C1
  8
0
 10
-41.999999999999432
 20
25.21114709692927
 30
0.0
  0
VERTEX
  5
8C2
  8
0
 10
-41.999999999999879
 20
30.46114709692927
 30
0.0
 42
0.4142135623730951
  0
VERTEX
  5
8C3
  8
0
 10
-42.499999999999879
 20
30.96114709692927
 30
0.0
  0
VERTEX
  5
8C4
  8
0
 10
-45.999999999999879
 20
30.961147096928809
 30
0.0
 42
0.4142135623730784
  0
VERTEX
  5
8C5
  8
0
 10
-46.499999999999879
 20
30.461147096928819
 30
0.0
  0
VERTEX
  5
8C6
  8
0
 10
-46.500000000000341
 20
-9.0388529030709606
 30
0.0
 42
0.1989123673796969
  0
VERTEX
  5
8C7
  8
0
 10
-46.353553390593667
 20
-9.392406293664294
 30
0.0
  0
VERTEX
  5
8C8
  8
0
 10
-39.146446609407462
 20
-16.59951307484959
 30
0.0
 42
-0.1989123673796435
  0
VERTEX
  5
8C9
  8
0
 10
-39.000000000000803
 20
-16.95306646544293
 30
0.0
  0
VERTEX
  5
8CA
  8
0
 10
-38.999999999998522
 20
-28.935299512478078
 30
0.0
  0
VERTEX
  5
8CB
  8
0
 10
-37.499999999998529
 20
-28.935299512478078
 30
0.0
  0
VERTEX
  5
8CC
  8
0
 10
-37.500000000000341
 20
-20.185299512477631
 30
0.0
 42
-0.4142135623731409
  0
VERTEX
  5
8CD
  8
0
 10
-37.000000000000341
 20
-19.685299512477631
 30
0.0
  0
VERTEX
  5
8CE
  8
0
 10
-31.522542485938519
 20
-19.685299512477631
 30
0.0
 42
-0.2840790438403827
  0
VERTEX
  5
8CF
  8
0
 10
-31.075328890438762
 20
-19.961692714727519
 30
0.0
  0
VERTEX
  5
8D0
  8
0
 10
-26.351722092687741
 20
-29.408906310225461
 30
0.0
 42
0.2840790438403819
  0
VERTEX
  5
8D1
  8
0
 10
-25.90450849718798
 20
-29.68529951247536
 30
0.0
  0
VERTEX
  5
8D2
  8
0
 10
-6.9999999999976117
 20
-29.685299512474899
 30
0.0
 42
-0.414213562373126
  0
VERTEX
  5
8D3
  8
0
 10
-6.4999999999976117
 20
-30.185299512474899
 30
0.0
  0
VERTEX
  5
8D4
  8
0
 10
-6.4999999999994307
 20
-40.185299512475808
 30
0.0
 42
-0.4142135623730571
  0
VERTEX
  5
8D5
  8
0
 10
-6.9999999999994307
 20
-40.685299512475801
 30
0.0
  0
VERTEX
  5
8D6
  8
0
 10
-9.9999999999985221
 20
-40.685299512475801
 30
0.0
 42
0.4142135623730062
  0
VERTEX
  5
8D7
  8
0
 10
-10.49999999999852
 20
-41.185299512475801
 30
0.0
  0
VERTEX
  5
8D8
  8
0
 10
-10.499999999999879
 20
-43.685299512476263
 30
0.0
  0
VERTEX
  5
8D9
  8
0
 10
-8.9999999999994316
 20
-43.68529951247762
 30
0.0
  0
VERTEX
  5
8DA
  8
0
 10
-8.9999999999985221
 20
-42.685299512474437
 30
0.0
 42
-0.4142135623728287
  0
VERTEX
  5
8DB
  8
0
 10
-8.4999999999985221
 20
-42.185299512474892
 30
0.0
  0
VERTEX
  5
8DC
  8
0
 10
-6.9999999999989759
 20
-42.185299512474892
 30
0.0
 42
-0.4142135623730951
  0
VERTEX
  5
8DD
  8
0
 10
-6.4999999999989759
 20
-42.685299512474892
 30
0.0
  0
VERTEX
  5
8DE
  8
0
 10
-6.4999999999989759
 20
-47.685299512474892
 30
0.0
 42
-0.4142135623730951
  0
VERTEX
  5
8DF
  8
0
 10
-6.9999999999989759
 20
-48.185299512474899
 30
0.0
  0
VERTEX
  5
8E0
  8
0
 10
-8.4999999999989768
 20
-48.185299512474899
 30
0.0
 42
-0.4142135623730951
  0
VERTEX
  5
8E1
  8
0
 10
-8.9999999999989768
 20
-47.685299512474892
 30
0.0
  0
VERTEX
  5
8E2
  8
0
 10
-8.9999999999989768
 20
-46.685299512475353
 30
0.0
  0
VERTEX
  5
8E3
  8
0
 10
-10.49999999999897
 20
-46.685299512473989
 30
0.0
  0
VERTEX
  5
8E4
  8
0
 10
-10.49999999999943
 20
-49.185299512476718
 30
0.0
 42
0.4142135623731676
  0
VERTEX
  5
8E5
  8
0
 10
-9.9999999999994316
 20
-49.685299512476711
 30
0.0
  0
VERTEX
  5
8E6
  8
0
 10
-5.4999999999989759
 20
-49.685299512474892
 30
0.0
 42
0.4142135623729752
  0
VERTEX
  5
8E7
  8
0
 10
-4.9999999999989759
 20
-49.185299512474899
 30
0.0
  0
VERTEX
  5
8E8
  8
0
 10
-4.9999999999980673
 20
-30.185299512474899
 30
0.0
 42
-0.4142135623730715
  0
VERTEX
  5
8E9
  8
0
 10
-4.4999999999980673
 20
-29.685299512474899
 30
0.0
  0
VERTEX
  5
8EA
  8
0
 10
8.0000000000010232
 20
-29.685299512474451
 30
0.0
 42
-0.4142135623731053
  0
VERTEX
  5
8EB
  8
0
 10
8.5000000000010232
 20
-30.18529951247444
 30
0.0
  0
VERTEX
  5
8EC
  8
0
 10
8.5000000000014762
 20
-35.185299512474437
 30
0.0
 42
0.414213562373072
  0
VERTEX
  5
8ED
  8
0
 10
9.0000000000014762
 20
-35.685299512474451
 30
0.0
  0
VERTEX
  5
8EE
  8
0
 10
14.25000000000102
 20
-35.68529951247536
 30
0.0
  0
VERTEX
  5
8EF
  8
0
 10
14.25000000000102
 20
-34.185299512474899
 30
0.0
  0
VERTEX
  5
8F0
  8
0
 10
10.00000000000102
 20
-34.185299512474899
 30
0.0
  0
VERTEX
  5
8F1
  8
0
 10
10.00000000000102
 20
-15.18529951247441
 30
0.0
  0
VERTEX
  5
8F2
  8
0
 10
19.25000000000102
 20
-15.1852995124749
 30
0.0
  0
VERTEX
  5
8F3
  8
0
 10
19.25000000000102
 20
-13.6852995124749
 30
0.0
  0
VERTEX
  5
8F4
  8
0
 10
9.0000000000010232
 20
-13.6852995124749
 30
0.0
 42
0.4142135623731081
  0
VERTEX
  5
8F5
  8
0
 10
8.5000000000010232
 20
-14.1852995124749
 30
0.0
  0
VERTEX
  5
8F6
  8
0
 10
8.5000000000005684
 20
-27.68529951247444
 30
0.0
 42
-0.4142135623730852
  0
VERTEX
  5
8F7
  8
0
 10
8.0000000000005684
 20
-28.185299512474451
 30
0.0
  0
VERTEX
  5
8F8
  8
0
 10
-4.4999999999976117
 20
-28.185299512474899
 30
0.0
 42
-0.4142135623731053
  0
VERTEX
  5
8F9
  8
0
 10
-4.9999999999976117
 20
-27.685299512474899
 30
0.0
  0
VERTEX
  5
8FA
  8
0
 10
-4.9999999999985221
 20
-23.68529951247444
 30
0.0
 42
0.4142135623730655
  0
VERTEX
  5
8FB
  8
0
 10
-5.4999999999985221
 20
-23.185299512474451
 30
0.0
  0
VERTEX
  5
8FC
  8
0
 10
-10.633820644882571
 20
-23.185299512474451
 30
0.0
  0
VERTEX
  5
8FD
  8
0
 10
-10.633820644882571
 20
-24.685299512474451
 30
0.0
  0
VERTEX
  5
8FE
  8
0
 10
-6.9999999999980673
 20
-24.685299512474899
 30
0.0
 42
-0.4142135623729824
  0
VERTEX
  5
8FF
  8
0
 10
-6.4999999999980673
 20
-25.185299512474899
 30
0.0
  0
VERTEX
  5
900
  8
0
 10
-6.4999999999967031
 20
-27.685299512475812
 30
0.0
 42
-0.4142135623731982
  0
VERTEX
  5
901
  8
0
 10
-6.9999999999967031
 20
-28.185299512475812
 30
0.0
  0
VERTEX
  5
902
  8
0
 10
-24.977457514063531
 20
-28.185299512474451
 30
0.0
 42
-0.2840790438404103
  0
VERTEX
  5
903
  8
0
 10
-25.424671109563288
 20
-27.908906310224548
 30
0.0
  0
VERTEX
  5
904
  8
0
 10
-29.174671109561022
 20
-20.408906310227739
 30
0.0
 42
-0.5575365158350297
  0
VERTEX
  5
905
  8
0
 10
-28.72745751406126
 20
-19.685299512477631
 30
0.0
  0
VERTEX
  5
906
  8
0
 10
-26.12760084416448
 20
-19.68529951247854
 30
0.0
  0
VERTEX
  5
907
  8
0
 10
-26.127600844162661
 20
-18.185299512478078
 30
0.0
  0
VERTEX
  5
908
  8
0
 10
-37.000000000000341
 20
-18.185299512478529
 30
0.0
 42
-0.4142135623731073
  0
VERTEX
  5
909
  8
0
 10
-37.500000000000341
 20
-17.68529951247854
 30
0.0
  0
VERTEX
  5
90A
  8
0
 10
-37.500000000000803
 20
-16.331746121882471
 30
0.0
 42
0.1989123673796139
  0
VERTEX
  5
90B
  8
0
 10
-37.646446609407462
 20
-15.978192731289139
 30
0.0
  0
VERTEX
  5
90C
  8
0
 10
-44.853553390595494
 20
-8.7710859501033838
 30
0.0
 42
-0.1989123673797151
  0
VERTEX
  5
90D
  8
0
 10
-45.000000000002153
 20
-8.4175325595100503
 30
0.0
  0
VERTEX
  5
90E
  8
0
 10
-45.000000000000341
 20
28.961147096929722
 30
0.0
 42
-0.4142135623731039
  0
VERTEX
  5
90F
  8
0
 10
-44.500000000000327
 20
29.461147096929722
 30
0.0
  0
VERTEX
  5
910
  8
0
 10
-43.999999999999879
 20
29.46114709692927
 30
0.0
 42
-0.4142135623730508
  0
VERTEX
  5
911
  8
0
 10
-43.499999999999879
 20
28.96114709692927
 30
0.0
  0
VERTEX
  5
912
  8
0
 10
-43.500000000000341
 20
25.211147096929722
 30
0.0
  0
SEQEND
  5
913
  8
0
  0
LINE
  5
735
  8
0
 10
93.484662705892177
 20
-12.935299512474341
 30
0.0
 11
20.498876268266219
 21
-3.4735519343266779
 31
0.0
1001
ACDBBLOCKREPETAG
1070
     1
1071
        3
1005
6A9
  0
LINE
  5
736
  8
0
 10
20.498876268266219
 20
-3.4735519343266779
 30
0.0
 11
20.498876268266208
 21
-12.93529951247433
 31
0.0
1001
ACDBBLOCKREPETAG
1070
     1
1071
        3
1005
6A9
  0
LINE
  5
737
  8
0
 10
20.498876268266208
 20
-12.93529951247433
 30
0.0
 11
93.484662705892177
 21
-12.935299512474341
 31
0.0
1001
ACDBBLOCKREPETAG
1070
     1
1071
        3
1005
737
  0
LINE
  5
738
  8
0
 10
96.298876268264664
 20
-13.185299512474341
 30
0.0
 11
20.298876268266209
 21
-3.1852995124743302
 31
0.0
1001
ACDBBLOCKREPETAG
1070
     1
1071
        0
1005
6A6
  0
LINE
  5
739
  8
0
 10
20.298876268266209
 20
-3.1852995124743302
 30
0.0
 11
20.298876268266209
 21
-13.18529951247433
 31
0.0
1001
ACDBBLOCKREPETAG
1070
     1
1071
        0
1005
6A6
  0
LINE
  5
73A
  8
0
 10
20.298876268266209
 20
-13.18529951247433
 30
0.0
 11
96.298876268264664
 21
-13.185299512474341
 31
0.0
1001
ACDBBLOCKREPETAG
1070
     1
1071
        0
1005
73A
  0
LINE
  5
73B
  8
0
 10
100.2988762682662
 20
-13.185299512474799
 30
0.0
 11
100.2988762682662
 21
-3.185299512474344
 31
0.0
1001
ACDBBLOCKREPETAG
1070
     1
1071
        1
1005
6A7
  0
LINE
  5
73C
  8
0
 10
100.2988762682662
 20
-3.185299512474344
 30
0.0
 11
24.29887626826676
 21
-3.1852995124743311
 31
0.0
1001
ACDBBLOCKREPETAG
1070
     1
1071
        1
1005
6A7
  0
LINE
  5
73D
  8
0
 10
24.29887626826676
 20
-3.1852995124743311
 30
0.0
 11
100.2988762682662
 21
-13.185299512474799
 31
0.0
1001
ACDBBLOCKREPETAG
1070
     1
1071
        1
1005
73D
  0
LINE
  5
73E
  8
0
 10
100.0988762682662
 20
-12.897047090622451
 30
0.0
 11
100.0988762682662
 21
-3.435299512474344
 31
0.0
1001
ACDBBLOCKREPETAG
1070
     1
1071
        2
1005
6A8
  0
LINE
  5
73F
  8
0
 10
100.0988762682662
 20
-3.435299512474344
 30
0.0
 11
27.113089830639179
 21
-3.4352995124743311
 31
0.0
1001
ACDBBLOCKREPETAG
1070
     1
1071
        2
1005
6A8
  0
LINE
  5
740
  8
0
 10
27.113089830639179
 20
-3.4352995124743311
 30
0.0
 11
100.0988762682662
 21
-12.897047090622451
 31
0.0
1001
ACDBBLOCKREPETAG
1070
     1
1071
        2
1005
740
  0
POLYLINE
  5
741
  8
0
 66
     1
 10
0.0
 20
0.0
 30
0.0
 70
     1
 40
1.0
 41
1.0
1001
ACDBBLOCKREPETAG
1070
     1
1071
        3
1005
741
  0
VERTEX
  5
914
  8
0
 10
0.5
 20
1.3147004875256689
 30
0.0
  0
VERTEX
  5
915
  8
0
 10
99.500000000000014
 20
1.3147004875256689
 30
0.0
  0
VERTEX
  5
916
  8
0
 10
99.500000000000014
 20
50.314700487525663
 30
0.0
  0
VERTEX
  5
917
  8
0
 10
0.5
 20
50.314700487525663
 30
0.0
  0
SEQEND
  5
918
  8
0
  0
LINE
  5
742
  8
0
 10
0.0
 20
0.8147004875256698
 30
0.0
 11
100.0
 21
50.81470048752567
 31
0.0
1001
ACDBBLOCKREPETAG
1070
     1
1071
        1
1005
742
  0
LINE
  5
743
  8
0
 10
0.0
 20
50.81470048752567
 30
0.0
 11
100.0
 21
0.8147004875256698
 31
0.0
1001
ACDBBLOCKREPETAG
1070
     1
1071
        2
1005
743
  0
POLYLINE
  5
744
  8
0
 66
     1
 10
0.0
 20
0.0
 30
0.0
 70
     1
1001
ACDBBLOCKREPETAG
1070
     1
1071
        0
1005
744
  0
VERTEX
  5
919
  8
0
 10
0.0
 20
0.8147004875256698
 30
0.0
  0
VERTEX
  5
91A
  8
0
 10
100.0
 20
0.8147004875256698
 30
0.0
  0
VERTEX
  5
91B
  8
0
 10
100.0
 20
50.81470048752567
 30
0.0
  0
VERTEX
  5
91C
  8
0
 10
0.0
 20
50.81470048752567
 30
0.0
  0
SEQEND
  5
91D
  8
0
  0
ARC
  5
745
  8
0
  6
CONTINUOUS
 10
68.062251922056859
 20
24.959329675643289
 30
0.0
 40
74.256200364664537
 50
307.83684532572818
 51
312.78424729614591
  0
POLYLINE
  5
746
  8
0
 66
     1
 10
0.0
 20
0.0
 30
0.0
 70
     1
  0
VERTEX
  5
91E
  8
0
 10
102.0000000000001
 20
-22.185299512474671
 30
0.0
  0
VERTEX
  5
91F
  8
0
 10
112.0000000000001
 20
-22.185299512474671
 30
0.0
  0
VERTEX
  5
920
  8
0
 10
112.0000000000001
 20
-15.18529951247478
 30
0.0
  0
VERTEX
  5
921
  8
0
 10
119.0000000000001
 20
-15.18529951247478
 30
0.0
  0
VERTEX
  5
922
  8
0
 10
119.0
 20
-34.185299512474671
 30
0.0
  0
VERTEX
  5
923
  8
0
 10
10.00000000000102
 20
-34.185299512474671
 30
0.0
  0
VERTEX
  5
924
  8
0
 10
10.00000000000102
 20
-15.185299512474669
 30
0.0
  0
VERTEX
  5
925
  8
0
 10
102.0000000000001
 20
-15.18529951247478
 30
0.0
  0
SEQEND
  5
926
  8
0
  0
POLYLINE
  5
747
  8
0
 66
     1
 10
0.0
 20
0.0
 30
0.0
 70
     1
  0
VERTEX
  5
927
  8
0
 10
101.5000000000001
 20
-22.685299512474671
 30
0.0
  0
VERTEX
  5
928
  8
0
 10
112.5000000000001
 20
-22.685299512474671
 30
0.0
  0
VERTEX
  5
929
  8
0
 10
112.5000000000001
 20
-15.68529951247478
 30
0.0
  0
VERTEX
  5
92A
  8
0
 10
118.5000000000001
 20
-15.68529951247478
 30
0.0
  0
VERTEX
  5
92B
  8
0
 10
118.5
 20
-33.685299512474671
 30
0.0
  0
VERTEX
  5
92C
  8
0
 10
10.50000000000102
 20
-33.685299512474671
 30
0.0
  0
VERTEX
  5
92D
  8
0
 10
10.50000000000102
 20
-15.685299512474669
 30
0.0
  0
VERTEX
  5
92E
  8
0
 10
101.5000000000001
 20
-15.68529951247478
 30
0.0
  0
SEQEND
  5
92F
  8
0
  0
ARC
  5
748
  8
0
  6
CONTINUOUS
 10
68.062251922056859
 20
24.959329675643289
 30
0.0
 40
48.83449460847612
 50
236.3350549235283
 51
303.66494507647172
  0
ARC
  5
749
  8
0
  6
CONTINUOUS
 10
68.062251922056859
 20
24.959329675643289
 30
0.0
 40
57.513480217416173
 50
224.96684123746101
 51
305.54834996572538
  0
ARC
  5
74A
  8
0
  6
CONTINUOUS
 10
68.062251922056859
 20
24.959329675643289
 30
0.0
 40
74.256200364664537
 50
218.56348692384151
 51
232.16315467427179
  0
LINE
  5
74B
  8
0
 10
-39.899999999999949
 20
242.909270645671
 30
0.0
 11
-33.049116513612702
 21
249.7601541320582
 31
0.0
1001
ACAD
1010
0.0
1020
0.0
1030
0.0
  0
LINE
  5
74C
  8
0
 10
-39.89999999999997
 20
234.49028053216861
 30
0.0
 11
-27.899999999999942
 21
246.4902805321687
 31
0.0
1001
ACAD
1010
0.0
1020
0.0
1030
0.0
  0
LINE
  5
74D
  8
0
 10
-39.89999999999997
 20
226.07129041866631
 30
0.0
 11
-27.899999999999942
 21
238.07129041866631
 31
0.0
1001
ACAD
1010
0.0
1020
0.0
1030
0.0
  0
LINE
  5
74E
  8
0
 10
-39.89999999999997
 20
217.652300305164
 30
0.0
 11
-27.899999999999942
 21
229.652300305164
 31
0.0
1001
ACAD
1010
0.0
1020
0.0
1030
0.0
  0
LINE
  5
74F
  8
0
 10
-39.899999999999963
 20
209.23331019166159
 30
0.0
 11
-27.899999999999942
 21
221.2333101916617
 31
0.0
1001
ACAD
1010
0.0
1020
0.0
1030
0.0
  0
LINE
  5
750
  8
0
 10
-39.899999999999949
 20
200.81432007815931
 30
0.0
 11
-27.899999999999942
 21
212.81432007815931
 31
0.0
1001
ACAD
1010
0.0
1020
0.0
1030
0.0
  0
LINE
  5
751
  8
0
 10
-39.899999999999963
 20
192.3953299646569
 30
0.0
 11
-27.899999999999942
 21
204.39532996465701
 31
0.0
1001
ACAD
1010
0.0
1020
0.0
1030
0.0
  0
LINE
  5
752
  8
0
 10
-39.899999999999963
 20
183.97633985115459
 30
0.0
 11
-27.899999999999949
 21
195.97633985115459
 31
0.0
1001
ACAD
1010
0.0
1020
0.0
1030
0.0
  0
LINE
  5
753
  8
0
 10
-39.899999999999963
 20
175.55734973765229
 30
0.0
 11
-27.899999999999931
 21
187.55734973765229
 31
0.0
1001
ACAD
1010
0.0
1020
0.0
1030
0.0
  0
LINE
  5
754
  8
0
 10
-39.89999999999997
 20
167.13835962415001
 30
0.0
 11
-27.899999999999949
 21
179.13835962415001
 31
0.0
1001
ACAD
1010
0.0
1020
0.0
1030
0.0
  0
LINE
  5
755
  8
0
 10
-39.89999999999997
 20
158.7193695106476
 30
0.0
 11
-27.899999999999949
 21
170.7193695106476
 31
0.0
1001
ACAD
1010
0.0
1020
0.0
1030
0.0
  0
LINE
  5
756
  8
0
 10
-39.89999999999997
 20
150.30037939714529
 30
0.0
 11
-27.899999999999949
 21
162.30037939714529
 31
0.0
1001
ACAD
1010
0.0
1020
0.0
1030
0.0
  0
LINE
  5
757
  8
0
 10
-39.89999999999997
 20
141.88138928364299
 30
0.0
 11
-27.899999999999959
 21
153.88138928364299
 31
0.0
1001
ACAD
1010
0.0
1020
0.0
1030
0.0
  0
LINE
  5
758
  8
0
 10
-39.899999999999977
 20
133.4623991701406
 30
0.0
 11
-27.899999999999981
 21
145.4623991701406
 31
0.0
1001
ACAD
1010
0.0
1020
0.0
1030
0.0
  0
LINE
  5
759
  8
0
 10
-39.899999999999977
 20
125.0434090566383
 30
0.0
 11
-27.89999999999997
 21
137.0434090566383
 31
0.0
1001
ACAD
1010
0.0
1020
0.0
1030
0.0
  0
LINE
  5
75A
  8
0
 10
-39.899999999999977
 20
116.62441894313589
 30
0.0
 11
-27.89999999999997
 21
128.62441894313599
 31
0.0
1001
ACAD
1010
0.0
1020
0.0
1030
0.0
  0
LINE
  5
75B
  8
0
 10
-39.899999999999977
 20
108.2054288296336
 30
0.0
 11
-27.89999999999997
 21
120.2054288296336
 31
0.0
1001
ACAD
1010
0.0
1020
0.0
1030
0.0
  0
LINE
  5
75C
  8
0
 10
-39.899999999999977
 20
99.786438716131315
 30
0.0
 11
-27.89999999999997
 21
111.7864387161313
 31
0.0
1001
ACAD
1010
0.0
1020
0.0
1030
0.0
  0
LINE
  5
75D
  8
0
 10
-39.899999999999977
 20
91.367448602628997
 30
0.0
 11
-27.89999999999997
 21
103.367448602629
 31
0.0
1001
ACAD
1010
0.0
1020
0.0
1030
0.0
  0
LINE
  5
75E
  8
0
 10
-39.899999999999991
 20
82.948458489126651
 30
0.0
 11
-27.899999999999981
 21
94.948458489126665
 31
0.0
1001
ACAD
1010
0.0
1020
0.0
1030
0.0
  0
LINE
  5
75F
  8
0
 10
-39.900000000000013
 20
74.529468375624305
 30
0.0
 11
-27.899999999999981
 21
86.529468375624333
 31
0.0
1001
ACAD
1010
0.0
1020
0.0
1030
0.0
  0
LINE
  5
760
  8
0
 10
-39.900000000000013
 20
66.110478262121973
 30
0.0
 11
-27.89999999999997
 21
78.110478262122001
 31
0.0
1001
ACAD
1010
0.0
1020
0.0
1030
0.0
  0
LINE
  5
761
  8
0
 10
-34.837980227004671
 20
62.753507921614982
 30
0.0
 11
-27.899999999999981
 21
69.691488148619655
 31
0.0
1001
ACAD
1010
0.0
1020
0.0
1030
0.0
  0
VIEWPORT
  5
125
 67
     1
  8
0
  6
CONTINUOUS
 10
299.63408261711299
 20
285.0114612456465
 30
0.0
 40
1274.7764851317261
 41
759.09020473863302
 68
     1
 69
     1
1001
ACAD
1000
MVIEW
1002
{
1070
    16
1010
0.0
1020
0.0
1030
0.0
1010
0.0
1020
0.0
1030
1.0
1040
0.0
1040
759.09020473863302
1040
299.63408261711299
1040
285.0114612456465
1040
50.0
1040
0.0
1040
0.0
1070
     0
1070
 20000
1070
     1
1070
     1
1070
     0
1070
     0
1070
     0
1070
     0
1040
0.0
1040
0.0
1040
0.0
1040
2.5
1040
2.5
1040
50.0
1040
50.0
1070
     0
1002
{
1002
}
1002
}
  0
ENDSEC
  0
EOF
