  0
SECTION
  2
HEADER
  9
$ACADVER
  1
AC1009
  9
$INSBASE
 10
0.0
 20
0.0
 30
0.0
  9
$EXTMIN
 10
-665.84033113940166
 20
-555.43404307554283
 30
-0.0015258207003583
  9
$EXTMAX
 10
772.11639821939525
 20
544.4225037071169
 30
0.0000000349246037
  9
$LIMMIN
 10
0.0
 20
0.0
  9
$LIMMAX
 10
420.0
 20
297.0
  9
$ORTHOMODE
 70
     0
  9
$REGENMODE
 70
     1
  9
$FILLMODE
 70
     1
  9
$QTEXTMODE
 70
     0
  9
$MIRRTEXT
 70
     0
  9
$DRAGMODE
 70
     2
  9
$LTSCALE
 40
10.0
  9
$OSMODE
 70
     0
  9
$ATTMODE
 70
     1
  9
$TEXTSIZE
 40
3.5
  9
$TRACEWID
 40
1.0
  9
$TEXTSTYLE
  7
ARIAL
  9
$CLAYER
  8
0
  9
$CELTYPE
  6
CONTINUOUS
  9
$CECOLOR
 62
   256
  9
$DIMSCALE
 40
10.0
  9
$DIMASZ
 40
2.0
  9
$DIMEXO
 40
2.0
  9
$DIMDLI
 40
6.0
  9
$DIMRND
 40
0.0
  9
$DIMDLE
 40
1.5
  9
$DIMEXE
 40
1.5
  9
$DIMTP
 40
0.0
  9
$DIMTM
 40
0.0
  9
$DIMTXT
 40
2.0
  9
$DIMCEN
 40
2.0
  9
$DIMTSZ
 40
0.0
  9
$DIMTOL
 70
     0
  9
$DIMLIM
 70
     0
  9
$DIMTIH
 70
     0
  9
$DIMTOH
 70
     0
  9
$DIMSE1
 70
     0
  9
$DIMSE2
 70
     0
  9
$DIMTAD
 70
     0
  9
$DIMZIN
 70
     0
  9
$DIMBLK
  1
ARCHTICK
  9
$DIMASO
 70
     1
  9
$DIMSHO
 70
     1
  9
$DIMPOST
  1

  9
$DIMAPOST
  1

  9
$DIMALT
 70
     0
  9
$DIMALTD
 70
     2
  9
$DIMALTF
 40
0.0394
  9
$DIMLFAC
 40
1.0
  9
$DIMTOFL
 70
     1
  9
$DIMTVP
 40
0.0
  9
$DIMTIX
 70
     1
  9
$DIMSOXD
 70
     0
  9
$DIMSAH
 70
     0
  9
$DIMBLK1
  1

  9
$DIMBLK2
  1

  9
$DIMSTYLE
  2
1_TO_10_LEADER
  9
$DIMCLRD
 70
     0
  9
$DIMCLRE
 70
     0
  9
$DIMCLRT
 70
     0
  9
$DIMTFAC
 40
1.0
  9
$DIMGAP
 40
1.0
  9
$LUNITS
 70
     2
  9
$LUPREC
 70
     1
  9
$SKETCHINC
 40
1.0
  9
$FILLETRAD
 40
0.0
  9
$AUNITS
 70
     1
  9
$AUPREC
 70
     4
  9
$MENU
  1
.
  9
$ELEVATION
 40
0.0
  9
$PELEVATION
 40
0.0
  9
$THICKNESS
 40
0.0
  9
$LIMCHECK
 70
     0
  9
$BLIPMODE
 70
     0
  9
$CHAMFERA
 40
0.0
  9
$CHAMFERB
 40
0.0
  9
$SKPOLY
 70
     0
  9
$TDCREATE
 40
2455158.7003458221
  9
$TDUPDATE
 40
2455936.5378675228
  9
$TDINDWG
 40
0.478266331
  9
$TDUSRTIMER
 40
0.4782648958
  9
$USRTIMER
 70
     1
  9
$ANGBASE
 50
0.0
  9
$ANGDIR
 70
     0
  9
$PDMODE
 70
     0
  9
$PDSIZE
 40
0.0
  9
$PLINEWID
 40
0.0
  9
$COORDS
 70
     1
  9
$SPLFRAME
 70
     0
  9
$SPLINETYPE
 70
     6
  9
$SPLINESEGS
 70
     8
  9
$ATTDIA
 70
     0
  9
$ATTREQ
 70
     1
  9
$HANDLING
 70
     1
  9
$HANDSEED
  5
3D8F
  9
$SURFTAB1
 70
     6
  9
$SURFTAB2
 70
     6
  9
$SURFTYPE
 70
     6
  9
$SURFU
 70
     6
  9
$SURFV
 70
     6
  9
$UCSNAME
  2

  9
$UCSORG
 10
0.0
 20
0.0
 30
0.0
  9
$UCSXDIR
 10
1.0
 20
0.0
 30
0.0
  9
$UCSYDIR
 10
0.0
 20
1.0
 30
0.0
  9
$PUCSNAME
  2

  9
$PUCSORG
 10
0.0
 20
0.0
 30
0.0
  9
$PUCSXDIR
 10
1.0
 20
0.0
 30
0.0
  9
$PUCSYDIR
 10
0.0
 20
1.0
 30
0.0
  9
$USERI1
 70
     0
  9
$USERI2
 70
     0
  9
$USERI3
 70
     0
  9
$USERI4
 70
     0
  9
$USERI5
 70
     0
  9
$USERR1
 40
0.0
  9
$USERR2
 40
0.0
  9
$USERR3
 40
0.0
  9
$USERR4
 40
0.0
  9
$USERR5
 40
0.0
  9
$WORLDVIEW
 70
     1
  9
$SHADEDGE
 70
     3
  9
$SHADEDIF
 70
    70
  9
$TILEMODE
 70
     1
  9
$MAXACTVP
 70
    64
  9
$PLIMCHECK
 70
     0
  9
$PEXTMIN
 10
0.0
 20
0.0
 30
0.0
  9
$PEXTMAX
 10
0.0
 20
0.0
 30
0.0
  9
$PLIMMIN
 10
0.0
 20
0.0
  9
$PLIMMAX
 10
12.0
 20
9.0
  9
$UNITMODE
 70
     0
  9
$VISRETAIN
 70
     0
  9
$PLINEGEN
 70
     0
  9
$PSLTSCALE
 70
     1
  0
ENDSEC
  0
SECTION
  2
TABLES
  0
TABLE
  2
VPORT
 70
     1
  0
VPORT
  2
*ACTIVE
 70
     0
 10
0.0
 20
0.0
 11
1.0
 21
1.0
 12
53.138033539996819
 22
-5.5057696842129644
 13
0.0
 23
0.0
 14
1.0
 24
1.0
 15
10.0
 25
10.0
 16
0.0
 26
0.0
 36
1.0
 17
0.0
 27
0.0
 37
0.0
 40
1106.468910791373
 41
1.6128385155466389
 42
50.0
 43
0.0
 44
0.0
 50
0.0
 51
0.0
 71
     0
 72
  1000
 73
     1
 74
     3
 75
     0
 76
     0
 77
     0
 78
     0
  0
ENDTAB
  0
TABLE
  2
LTYPE
 70
     2
  0
LTYPE
  2
CONTINUOUS
 70
     0
  3
Solid line
 72
    65
 73
     0
 40
0.0
  0
ENDTAB
  0
TABLE
  2
LAYER
 70
    10
  0
LAYER
  2
0
 70
     0
 62
     7
  6
CONTINUOUS
  0
ENDTAB
  0
TABLE
  2
STYLE
 70
     2
  0
STYLE
  2
STANDARD
 70
     0
 40
0.0
 41
1.0
 50
0.0
 71
     0
 42
2.5
  3
txt
  4

  0
STYLE
  2
ARIAL
 70
     0
 40
0.0
 41
1.0
 50
0.0
 71
     0
 42
3.5
  3
txt
  4

  0
ENDTAB
  0
TABLE
  2
VIEW
 70
     2
  0
VIEW
  2
COMM-04
 70
     1
 40
477.26027331217421
 10
194.21746115522001
 20
180.60494410563541
 41
755.81685306636155
 11
0.0
 21
0.0
 31
1.0
 12
0.0
 22
0.0
 32
0.0
 42
50.0
 43
0.0
 44
0.0
 50
0.0
 71
     0
  0
ENDTAB
  0
TABLE
  2
UCS
 70
     0
  0
ENDTAB
  0
TABLE
  2
APPID
 70
    35
  0
APPID
  2
ACAD
 70
     0
  0
APPID
  2
ACAD_PSEXT
 70
     0
  0
APPID
  2
ACADANNOPO
 70
     0
  0
APPID
  2
ACADANNOTATIVE
 70
     0
  0
APPID
  2
ACAD_DSTYLE_DIMJAG
 70
     0
  0
APPID
  2
ACAD_DSTYLE_DIMTALN
 70
     0
  0
APPID
  2
ACAD_MLEADERVER
 70
     0
  0
APPID
  2
RAK
 70
     0
  0
APPID
  2
ACAD_EXEMPT_FROM_CAD_STANDARDS
 70
     0
  0
APPID
  2
GENIUS_GENODEF_13
 70
     0
  0
APPID
  2
GENIUS_GENSCREG_15
 70
     0
  0
APPID
  2
GENIUS_GENOBJ-N-SDF_13
 70
     0
  0
APPID
  2
GENIUS_GENCFG_13
 70
     0
  0
APPID
  2
GENIUS_GENCFG0_13
 70
     0
  0
APPID
  2
ADESKUNDERLAYLAYEROVERRIDEDATA
 70
     0
  0
APPID
  2
ACAUTHENVIRON
 70
     0
  0
APPID
  2
ACDBDYNAMICBLOCKTRUENAME
 70
     0
  0
APPID
  2
ACDBDYNAMICBLOCKGUID
 70
     0
  0
APPID
  2
$MECS_BLK
 70
     0
  0
APPID
  2
DCO15
 70
     0
  0
APPID
  2
ADE
 70
     0
  0
APPID
  2
ACLAYERTOOLS
 70
     0
  0
APPID
  2
ACADANNOAV
 70
     0
  0
APPID
  2
ACDBBLOCKREPETAG
 70
     0
  0
APPID
  2
ACAD_DSTYLE_DIMEXT_ENABLED
 70
     0
  0
APPID
  2
ACAD_DSTYLE_DIMEXT_LENGTH
 70
     0
  0
APPID
  2
ACET-TEXTMASK
 70
     0
  0
APPID
  2
GRADIENTCOLOR1ACI
 70
     0
  0
APPID
  2
GRADIENTCOLOR2ACI
 70
     0
  0
APPID
  2
ACAECLAYERSTANDARD
 70
     0
  0
APPID
  2
ACCMTRANSPARENCY
 70
     0
  0
APPID
  2
URBANX
 70
     0
  0
APPID
  2
ACAD_NAV_VCDISPLAY
 70
     0
  0
APPID
  2
ACAD_DSTYLE_DIMJOGGED_JOGA
 70
     0
  0
APPID
  2
PE_URL
 70
     0
  0
ENDTAB
  0
TABLE
  2
DIMSTYLE
 70
     1
  0
DIMSTYLE
  2
1_TO_10_LEADER
 70
     0
  3

  4

  5
ARCHTICK
  6

  7

 40
10.0
 41
2.0
 42
2.0
 43
6.0
 44
1.5
 45
0.0
 46
1.5
 47
0.0
 48
0.0
140
2.0
141
2.0
142
0.0
143
0.0394
144
1.0
145
0.0
146
1.0
147
1.0
 71
     0
 72
     0
 73
     0
 74
     0
 75
     0
 76
     0
 77
     0
 78
     0
170
     0
171
     2
172
     1
173
     0
174
     1
175
     0
176
     0
177
     0
178
     0
  0
ENDTAB
  0
ENDSEC
  0
SECTION
  2
BLOCKS
  0
BLOCK
  8
0
  2
$MODEL_SPACE
 70
     0
 10
0.0
 20
0.0
 30
0.0
  3
$MODEL_SPACE
  1

  0
ENDBLK
  5
21
  8
0
  0
BLOCK
 67
     1
  8
0
  2
$PAPER_SPACE
 70
     0
 10
0.0
 20
0.0
 30
0.0
  3
$PAPER_SPACE
  1

  0
ENDBLK
  5
3C48
 67
     1
  8
0
  0
BLOCK
  8
0
  2
_ARCHTICK
 70
     0
 10
0.0
 20
0.0
 30
0.0
  3
_ARCHTICK
  1

  0
POLYLINE
  5
6FA
  8
0
  6
BYBLOCK
 66
     1
 10
0.0
 20
0.0
 30
0.0
 40
0.15
 41
0.15
  0
VERTEX
  5
6FB
  8
0
  6
BYBLOCK
 10
-0.5
 20
-0.5
 30
0.0
  0
VERTEX
  5
6FC
  8
0
  6
BYBLOCK
 10
0.5
 20
0.5
 30
0.0
  0
SEQEND
  5
6FD
  8
0
  6
BYBLOCK
 62
     0
  0
ENDBLK
  5
6FE
  8
0
  0
BLOCK
  8
0
  2
*U4
 70
     1
 10
0.0
 20
0.0
 30
0.0
  3
*U4
  1

  0
TEXT
  5
3CE7
  8
0
  6
CONTINUOUS
 10
-190.4940543390619
 20
202.2123407356699
 30
0.0
 40
20.0
  1
Valley
 50
315.0
  7
ARIAL
  0
ENDBLK
  5
3CE9
  8
0
  0
BLOCK
  8
0
  2
*U5
 70
     1
 10
0.0
 20
0.0
 30
0.0
  3
*U5
  1

  0
TEXT
  5
3CEB
  8
0
  6
CONTINUOUS
 10
-440.29355755534158
 20
-45.689228257349342
 30
0.0
 40
20.0
  1
Roof 
  7
ARIAL
  0
TEXT
  5
3CEC
  8
0
  6
CONTINUOUS
 10
-373.51320284865687
 20
-46.522228257349333
 30
0.0
 40
21.666
  1
\U+2192
  7
ARIAL
  0
ENDBLK
  5
3CEE
  8
0
  0
BLOCK
  8
0
  2
*U6
 70
     1
 10
0.0
 20
0.0
 30
0.0
  3
*U6
  1

  0
TEXT
  5
3CF0
  8
0
  6
CONTINUOUS
 10
80.501475759293328
 20
331.59452118002451
 30
0.0
 40
21.666
  1
\U+2190
 50
90.0
  7
ARIAL
  0
TEXT
  5
3CF1
  8
0
  6
CONTINUOUS
 10
80.501475759293328
 20
361.86189362204362
 30
0.0
 40
14.166314099999999
  1
 
 50
90.0
  7
ARIAL
  0
TEXT
  5
3CF2
  8
0
  6
CONTINUOUS
 10
79.668476882483333
 20
374.67903495061501
 30
0.0
 40
20.000002246379999
  1
Roof
 50
90.0
  7
ARIAL
  0
ENDBLK
  5
3CF4
  8
0
  0
BLOCK
  8
0
  2
*U7
 70
     1
 10
0.0
 20
0.0
 30
0.0
  3
*U7
  1

  0
SOLID
  5
3D19
  8
0
 10
-28.047725055167621
 20
91.880167985034944
 30
0.0
 11
-46.396495231263543
 21
83.252668687096786
 31
0.0
 12
-31.8376583505041
 22
97.36476916117752
 32
0.0
 13
-31.8376583505041
 23
97.36476916117752
 33
0.0
  0
POLYLINE
  5
3D1A
  8
0
 66
     1
 10
0.0
 20
0.0
 30
0.0
  0
VERTEX
  5
3D1B
  8
0
 10
-29.942691702835859
 20
94.622468573106246
 30
0.0
  0
VERTEX
  5
3D1C
  8
0
 10
439.72599344698023
 20
419.16985688076772
 30
0.0
  0
VERTEX
  5
3D1D
  8
0
 10
459.72599344698028
 20
419.16985688076772
 30
0.0
  0
SEQEND
  5
3D1E
  8
0
  0
ENDBLK
  5
3D20
  8
0
  0
BLOCK
  8
0
  2
*U8
 70
     1
 10
0.0
 20
0.0
 30
0.0
  3
*U8
  1

  0
TEXT
  5
3D22
  8
0
  6
CONTINUOUS
 10
467.67960872665282
 20
412.10982959563808
 30
0.0
 40
20.0
  1
Lay valley over slipsheet
  7
ARIAL
  0
ENDBLK
  5
3D24
  8
0
  0
BLOCK
  8
0
  2
*U9
 70
     1
 10
0.0
 20
0.0
 30
0.0
  3
*U9
  1

  0
SOLID
  5
3D26
  8
0
 10
18.434121412930391
 20
46.764670574166303
 30
0.0
 11
0.0
 21
38.32107662108848
 31
0.0
 12
14.69921951393594
 22
52.286894061977357
 32
0.0
 13
14.69921951393594
 23
52.286894061977357
 33
0.0
  0
POLYLINE
  5
3D27
  8
0
 66
     1
 10
0.0
 20
0.0
 30
0.0
  0
VERTEX
  5
3D28
  8
0
 10
16.566670463433159
 20
49.52578231807184
 30
0.0
  0
VERTEX
  5
3D29
  8
0
 10
439.72599344698023
 20
335.7254557787582
 30
0.0
  0
VERTEX
  5
3D2A
  8
0
 10
459.72599344698028
 20
335.7254557787582
 30
0.0
  0
SEQEND
  5
3D2B
  8
0
  0
ENDBLK
  5
3D2D
  8
0
  0
BLOCK
  8
0
  2
*U10
 70
     1
 10
0.0
 20
0.0
 30
0.0
  3
*U10
  1

  0
TEXT
  5
3D2F
  8
0
  6
CONTINUOUS
 10
469.07115033647551
 20
345.50262722032249
 30
0.0
 40
20.0
  1
Trim slipsheet to fit
  7
ARIAL
  0
TEXT
  5
3D30
  8
0
  6
CONTINUOUS
 10
468.86651186444271
 20
311.82822976693461
 30
0.0
 40
20.0
  1
sole of valley
  7
ARIAL
  0
ENDBLK
  5
3D32
  8
0
  0
BLOCK
  8
0
  2
*U11
 70
     1
 10
0.0
 20
0.0
 30
0.0
  3
*U11
  1

  0
SOLID
  5
3D34
  8
0
 10
270.13642105368518
 20
157.78085836222371
 30
0.0
 11
251.23760213756759
 21
150.4360809873194
 31
0.0
 12
266.73277331500719
 22
163.5131900444832
 32
0.0
 13
266.73277331500719
 23
163.5131900444832
 33
0.0
  0
POLYLINE
  5
3D35
  8
0
 66
     1
 10
0.0
 20
0.0
 30
0.0
  0
VERTEX
  5
3D36
  8
0
 10
268.43459718434622
 20
160.64702420335351
 30
0.0
  0
VERTEX
  5
3D37
  8
0
 10
439.72599344698023
 20
262.35355583142319
 30
0.0
  0
VERTEX
  5
3D38
  8
0
 10
459.72599344698028
 20
262.35355583142319
 30
0.0
  0
SEQEND
  5
3D39
  8
0
  0
ENDBLK
  5
3D3B
  8
0
  0
BLOCK
  8
0
  2
*U12
 70
     1
 10
0.0
 20
0.0
 30
0.0
  3
*U12
  1

  0
TEXT
  5
3D3D
  8
0
  6
CONTINUOUS
 10
467.67960872665282
 20
255.12981776866741
 30
0.0
 40
20.0
  1
Line of slipsheet under
  7
ARIAL
  0
ENDBLK
  5
3D3F
  8
0
  0
BLOCK
  8
0
  2
*U13
 70
     1
 10
0.0
 20
0.0
 30
0.0
  3
*U13
  1

  0
SOLID
  5
3D41
  8
0
 10
298.35914303292577
 20
69.359914291874858
 30
0.0
 11
281.00470320614107
 21
58.874947462665489
 31
0.0
 12
294.02053542200468
 22
74.4216262989829
 32
0.0
 13
294.02053542200468
 23
74.4216262989829
 33
0.0
  0
POLYLINE
  5
3D42
  8
0
 66
     1
 10
0.0
 20
0.0
 30
0.0
  0
VERTEX
  5
3D43
  8
0
 10
296.1898392274652
 20
71.890770295428879
 30
0.0
  0
VERTEX
  5
3D44
  8
0
 10
439.72599344698023
 20
194.92168360393569
 30
0.0
  0
VERTEX
  5
3D45
  8
0
 10
459.72599344698028
 20
194.92168360393569
 30
0.0
  0
SEQEND
  5
3D46
  8
0
  0
ENDBLK
  5
3D48
  8
0
  0
BLOCK
  8
0
  2
*U14
 70
     1
 10
0.0
 20
0.0
 30
0.0
  3
*U14
  1

  0
TEXT
  5
3D4A
  8
0
  6
CONTINUOUS
 10
468.37537953156419
 20
187.69794554117991
 30
0.0
 40
20.0
  1
Overlap
  7
ARIAL
  0
ENDBLK
  5
3D4C
  8
0
  0
BLOCK
  8
0
  2
*U15
 70
     1
 10
0.0
 20
0.0
 30
0.0
  3
*U15
  1

  0
SOLID
  5
3D4E
  8
0
 10
193.06383380771439
 20
-177.3967192227293
 30
0.0
 11
173.9598150369747
 21
-184.18992008229009
 31
0.0
 12
189.82798386565469
 22
-171.56802128949269
 32
0.0
 13
189.82798386565469
 23
-171.56802128949269
 33
0.0
  0
POLYLINE
  5
3D4F
  8
0
 66
     1
 10
0.0
 20
0.0
 30
0.0
  0
VERTEX
  5
3D50
  8
0
 10
191.44590883668459
 20
-174.48237025611101
 30
0.0
  0
VERTEX
  5
3D51
  8
0
 10
439.72599344698023
 20
-36.647624554220052
 30
0.0
  0
VERTEX
  5
3D52
  8
0
 10
459.72599344698028
 20
-36.647624554220052
 30
0.0
  0
SEQEND
  5
3D53
  8
0
  0
ENDBLK
  5
3D55
  8
0
  0
BLOCK
  8
0
  2
*U16
 70
     1
 10
0.0
 20
0.0
 30
0.0
  3
*U16
  1

  0
TEXT
  5
3D57
  8
0
  6
CONTINUOUS
 10
468.47087748517941
 20
-43.871362616975837
 30
0.0
 40
20.0
  1
Slipsheet
  7
ARIAL
  0
ENDBLK
  5
3D59
  8
0
  0
BLOCK
  8
0
  2
*U17
 70
     1
 10
0.0
 20
0.0
 30
0.0
  3
*U17
  1

  0
SOLID
  5
3D5B
  8
0
 10
-108.7917806973114
 20
-334.67991920572263
 30
0.0
 11
-128.70871292612259
 21
-338.4781979874935
 31
0.0
 12
-111.1002458280917
 22
-328.42568598458217
 32
0.0
 13
-111.1002458280917
 23
-328.42568598458217
 33
0.0
  0
POLYLINE
  5
3D5C
  8
0
 66
     1
 10
0.0
 20
0.0
 30
0.0
  0
VERTEX
  5
3D5D
  8
0
 10
-109.9460132627016
 20
-331.5528025951524
 30
0.0
  0
VERTEX
  5
3D5E
  8
0
 10
439.72599344698023
 20
-128.66643491601289
 30
0.0
  0
VERTEX
  5
3D5F
  8
0
 10
459.72599344698028
 20
-128.66643491601289
 30
0.0
  0
SEQEND
  5
3D60
  8
0
  0
ENDBLK
  5
3D62
  8
0
  0
BLOCK
  8
0
  2
*U18
 70
     1
 10
0.0
 20
0.0
 30
0.0
  3
*U18
  1

  0
TEXT
  5
3D64
  8
0
  6
CONTINUOUS
 10
467.67960872665282
 20
-138.50272413838681
 30
0.0
 40
20.0
  1
Line of roof under
  7
ARIAL
  0
ENDBLK
  5
3D66
  8
0
  0
BLOCK
  8
0
  2
*U19
 70
     1
 10
0.0
 20
0.0
 30
0.0
  3
*U19
  1

  0
SOLID
  5
3D68
  8
0
 10
287.99138974633229
 20
-331.03949087336707
 30
0.0
 11
270.0609665440993
 21
-340.50580139542052
 31
0.0
 12
283.95202291743738
 22
-325.73591094410529
 32
0.0
 13
283.95202291743738
 23
-325.73591094410529
 33
0.0
  0
POLYLINE
  5
3D69
  8
0
 66
     1
 10
0.0
 20
0.0
 30
0.0
  0
VERTEX
  5
3D6A
  8
0
 10
285.97170633188477
 20
-328.38770090873618
 30
0.0
  0
VERTEX
  5
3D6B
  8
0
 10
439.72599344698023
 20
-211.28378705115409
 30
0.0
  0
VERTEX
  5
3D6C
  8
0
 10
459.72599344698028
 20
-211.28378705115409
 30
0.0
  0
SEQEND
  5
3D6D
  8
0
  0
ENDBLK
  5
3D6F
  8
0
  0
BLOCK
  8
0
  2
*U20
 70
     1
 10
0.0
 20
0.0
 30
0.0
  3
*U20
  1

  0
TEXT
  5
3D71
  8
0
  6
CONTINUOUS
 10
468.37537953156419
 20
-218.50752511390991
 30
0.0
 40
20.0
  1
Overlap
  7
ARIAL
  0
ENDBLK
  5
3D73
  8
0
  0
ENDSEC
  0
SECTION
  2
ENTITIES
  0
INSERT
  5
2071
  8
0
  6
CONTINUOUS
  2
*U4
 10
0.0
 20
0.0
 30
0.0
  0
LINE
  5
2078
  8
0
 10
-521.45308591591947
 20
521.45308591591947
 30
0.0
 11
50.0
 21
-50.0
 31
0.0
  0
LINE
  5
207A
  8
0
 10
-645.79645420856104
 20
518.51723359498249
 30
0.0
 11
25.0
 21
-152.2792206135789
 31
0.0
  0
LINE
  5
207C
  8
0
 10
-645.79645420856104
 20
440.73548766446157
 30
0.0
 11
25.0
 21
-230.0609665440995
 31
0.0
  0
LINE
  5
207D
  8
0
 10
-319.32797169275727
 20
524.38893823685589
 30
0.0
 11
230.0609665440993
 21
-25.000000000000512
 31
0.0
  0
LINE
  5
20C9
  8
0
 10
-645.79645420856104
 20
176.19529679385661
 30
0.0
 11
-303.47451740743873
 21
176.1952967938598
 31
0.0
  0
LINE
  5
20CA
  8
0
 10
-645.79645420856104
 20
138.09529679385921
 30
0.0
 11
-265.37451740743791
 21
138.09529679385921
 31
0.0
  0
LINE
  5
20CB
  8
0
 10
-645.79645420856104
 20
99.995296793859794
 30
0.0
 11
-227.274517407438
 21
99.995296793859794
 31
0.0
  0
LINE
  5
20CC
  8
0
 10
-645.79645420856104
 20
61.895296793860041
 30
0.0
 11
-189.17451740743761
 21
61.895296793859188
 31
0.0
  0
LINE
  5
20CD
  8
0
 10
-645.79645420856104
 20
23.795296793858661
 30
0.0
 11
-151.07451740743861
 21
23.795296793859961
 31
0.0
  0
LINE
  5
20CE
  8
0
 10
-645.79645420856104
 20
-52.404703206140759
 30
0.0
 11
-74.874517407438361
 21
-52.404703206140759
 31
0.0
  0
LINE
  5
20CF
  8
0
 10
-642.4965441454774
 20
-14.304703206140511
 30
0.0
 11
-112.9745174074378
 21
-14.304703206141079
 31
0.0
  0
LINE
  5
20D0
  8
0
 10
-645.79645420856104
 20
-128.60470320614061
 30
0.0
 11
1.325482592561456
 21
-128.60470320614061
 31
0.0
  0
LINE
  5
20D1
  8
0
 10
-645.79645420856104
 20
-90.504703206140391
 30
0.0
 11
-36.774517407437997
 21
-90.504703206140903
 31
0.0
  0
LINE
  5
2175
  8
0
 10
-176.1952967938559
 20
524.38893823685589
 30
0.0
 11
-176.19529679386
 21
303.4745174074385
 31
0.0
  0
LINE
  5
2176
  8
0
 10
-138.09529679385921
 20
524.38893823685589
 30
0.0
 11
-138.09529679385921
 21
265.37451740743768
 31
0.0
  0
LINE
  5
2177
  8
0
 10
-99.995296793859794
 20
524.38893823685589
 30
0.0
 11
-99.995296793859794
 21
227.274517407438
 31
0.0
  0
LINE
  5
2178
  8
0
 10
-61.895296793859409
 20
524.38893823685589
 30
0.0
 11
-61.895296793859409
 21
189.17451740743761
 31
0.0
  0
LINE
  5
2179
  8
0
 10
-23.795296793859961
 20
524.38893823685589
 30
0.0
 11
-23.795296793859961
 21
151.07451740743841
 31
0.0
  0
LINE
  5
217A
  8
0
 10
52.404703206140759
 20
524.38893823685589
 30
0.0
 11
52.404703206140759
 21
74.874517407437736
 31
0.0
  0
LINE
  5
217B
  8
0
 10
14.304703206140401
 20
524.38893823685589
 30
0.0
 11
14.304703206140401
 21
112.9745174074373
 31
0.0
  0
LINE
  5
217C
  8
0
 10
128.60470320614061
 20
326.86838544815959
 30
0.0
 11
128.60470320614061
 21
307.51942256089592
 31
0.0
  0
LINE
  5
217D
  8
0
 10
128.60470320614061
 20
524.38893823685589
 30
0.0
 11
128.60470320614061
 21
-1.3254825925620251
 31
0.0
  0
LINE
  5
217E
  8
0
 10
90.504703206140235
 20
524.38893823685589
 30
0.0
 11
90.504703206140235
 21
36.774517407438339
 31
0.0
  0
INSERT
  5
24D8
  8
0
  6
CONTINUOUS
  2
*U5
 10
0.0
 20
0.0
 30
0.0
  0
INSERT
  5
24DC
  8
0
  6
CONTINUOUS
  2
*U6
 10
0.0
 20
0.0
 30
0.0
  0
POLYLINE
  5
24E0
  8
0
 66
     1
 10
0.0
 20
0.0
 30
0.0
  0
VERTEX
  5
3CF5
  8
0
 10
25.0
 20
-152.2792206135789
 30
0.0
  0
VERTEX
  5
3CF6
  8
0
 10
25.0
 20
-535.40048272657498
 30
0.0
  0
SEQEND
  5
3CF7
  8
0
  0
POLYLINE
  5
24E1
  8
0
 66
     1
 10
0.0
 20
0.0
 30
0.0
  0
VERTEX
  5
3CF8
  8
0
 10
25.0
 20
-230.0609665440995
 30
0.0
  0
VERTEX
  5
3CF9
  8
0
 10
50.0
 20
-230.0609665440995
 30
0.0
  0
VERTEX
  5
3CFA
  8
0
 10
50.0
 20
-50.0
 30
0.0
  0
SEQEND
  5
3CFB
  8
0
  0
POLYLINE
  5
24E2
  8
0
 66
     1
 10
0.0
 20
0.0
 30
0.0
  0
VERTEX
  5
3CFC
  8
0
 10
230.0609665440993
 20
-25.000000000000231
 30
0.0
  0
VERTEX
  5
3CFD
  8
0
 10
230.0609665440993
 20
-50.000000000000227
 30
0.0
  0
VERTEX
  5
3CFE
  8
0
 10
50.0
 20
-50.000000000000227
 30
0.0
  0
SEQEND
  5
3CFF
  8
0
  0
POLYLINE
  5
24EB
  8
0
 66
     1
 10
0.0
 20
0.0
 30
0.0
  0
VERTEX
  5
3D00
  8
0
 10
270.0609665440993
 20
-25.000000000000401
 30
0.0
  0
VERTEX
  5
3D01
  8
0
 10
270.0609665440993
 20
150.4360809873194
 30
0.0
  0
VERTEX
  5
3D02
  8
0
 10
0.0
 20
150.4360809873194
 30
0.0
  0
VERTEX
  5
3D03
  8
0
 10
0.0
 20
0.0
 30
0.0
  0
VERTEX
  5
3D04
  8
0
 10
-128.70871292612259
 20
14.67126744309803
 30
0.0
  0
VERTEX
  5
3D05
  8
0
 10
-128.70871292612259
 20
-542.97224234876819
 30
0.0
  0
SEQEND
  5
3D06
  8
0
  0
LINE
  5
24EC
  8
0
 10
166.70470320614089
 20
524.38893823685589
 30
0.0
 11
166.70470320614089
 21
-25.000000000000512
 31
0.0
  0
LINE
  5
24ED
  8
0
 10
204.8047032061404
 20
524.38893823685589
 30
0.0
 11
204.8047032061404
 21
-25.000000000000512
 31
0.0
  0
LINE
  5
24EF
  8
0
 10
242.90470320614079
 20
524.38893823685589
 30
0.0
 11
242.90470320614079
 21
-25.000000000000458
 31
0.0
  0
LINE
  5
24F1
  8
0
 10
346.26096654409912
 20
524.38893823685589
 30
0.0
 11
346.26096654409912
 21
-535.40048272657498
 31
0.0
  0
LINE
  5
24F2
  8
0
 10
308.1609665440987
 20
524.38893823685589
 30
0.0
 11
308.1609665440987
 21
-535.40048272657498
 31
0.0
  0
LINE
  5
24F3
  8
0
 10
384.36096654409948
 20
524.38893823685589
 30
0.0
 11
384.36096654409948
 21
-535.40048272657498
 31
0.0
  0
LINE
  5
24FA
  8
0
 10
-645.79645420856104
 20
-166.70470320614021
 30
0.0
 11
25.0
 21
-166.70470320614149
 31
0.0
  0
LINE
  5
24FB
  8
0
 10
-645.79645420856104
 20
-204.8047032061416
 30
0.0
 11
25.0
 21
-204.80470320613989
 31
0.0
  0
LINE
  5
24FC
  8
0
 10
-645.79645420856104
 20
-281.00470320614107
 30
0.0
 11
25.0
 21
-281.00470320614107
 31
0.0
  0
LINE
  5
24FD
  8
0
 10
-645.79645420856104
 20
-242.90470320614079
 30
0.0
 11
25.0
 21
-242.90470320614159
 31
0.0
  0
LINE
  5
24FE
  8
0
 10
-645.79645420856104
 20
-357.20470320614089
 30
0.0
 11
25.0
 21
-357.20470320614089
 31
0.0
  0
LINE
  5
24FF
  8
0
 10
-645.79645420856104
 20
-319.10470320614098
 30
0.0
 11
25.0
 21
-319.10470320614121
 31
0.0
  0
LINE
  5
2500
  8
0
 10
-645.79645420856104
 20
-395.30470320614057
 30
0.0
 11
25.0
 21
-395.30470320614188
 31
0.0
  0
LINE
  5
2501
  8
0
 10
-645.79645420856104
 20
-433.4047032061419
 30
0.0
 11
25.0
 21
-433.4047032061402
 31
0.0
  0
LINE
  5
2502
  8
0
 10
-645.79645420856104
 20
-509.60470320614138
 30
0.0
 11
25.0
 21
-509.60470320614138
 31
0.0
  0
LINE
  5
2503
  8
0
 10
-645.79645420856104
 20
-471.50470320614119
 30
0.0
 11
25.0
 21
-471.50470320614193
 31
0.0
  0
POLYLINE
  5
2523
  8
0
 66
     1
 10
0.0
 20
0.0
 30
0.0
  0
VERTEX
  5
3D07
  8
0
 10
-645.79645420856104
 20
-555.40048272657498
 30
0.0
  0
VERTEX
  5
3D08
  8
0
 10
-645.79645420856104
 20
-15.505772244857949
 30
0.0
  0
VERTEX
  5
3D09
  8
0
 10
-632.05906711129126
 20
-10.505772244861131
 30
0.0
  0
VERTEX
  5
3D0A
  8
0
 10
-659.53384130584527
 20
-0.5057722448611344
 30
0.0
  0
VERTEX
  5
3D0B
  8
0
 10
-645.79645420856104
 20
4.494227755142048
 30
0.0
  0
VERTEX
  5
3D0C
  8
0
 10
-645.79645420856104
 20
544.38893823685589
 30
0.0
  0
SEQEND
  5
3D0D
  8
0
  0
LINE
  5
2530
  8
0
 10
-645.79645420856104
 20
366.69529679385778
 30
0.0
 11
-493.97451740743588
 21
366.69529679385778
 31
0.0
  0
LINE
  5
2531
  8
0
 10
-645.79645420856104
 20
328.59529679385832
 30
0.0
 11
-455.87451740743649
 21
328.59529679385832
 31
0.0
  0
LINE
  5
2532
  8
0
 10
-645.79645420856104
 20
290.49529679385859
 30
0.0
 11
-417.77451740743697
 21
290.49529679385819
 31
0.0
  0
LINE
  5
2533
  8
0
 10
-645.79645420856104
 20
252.3952967938572
 30
0.0
 11
-379.67451740743633
 21
252.39529679385791
 31
0.0
  0
LINE
  5
2535
  8
0
 10
-645.79645420856104
 20
214.29529679385811
 30
0.0
 11
-341.57451740743642
 21
214.29529679385769
 31
0.0
  0
LINE
  5
2537
  8
0
 10
-366.69529679385602
 20
524.38893823685589
 30
0.0
 11
-366.69529679385602
 21
493.97451740743389
 31
0.0
  0
LINE
  5
2538
  8
0
 10
-328.59529679385651
 20
524.38893823685589
 30
0.0
 11
-328.59529679385651
 21
455.8745174074345
 31
0.0
  0
LINE
  5
2539
  8
0
 10
-290.49529679385608
 20
524.38893823685589
 30
0.0
 11
-290.49529679385608
 21
417.77451740743419
 31
0.0
  0
LINE
  5
253A
  8
0
 10
-252.39529679385669
 20
524.38893823685589
 30
0.0
 11
-252.39529679385669
 21
379.67451740743491
 31
0.0
  0
LINE
  5
253B
  8
0
 10
-214.29529679385629
 20
524.38893823685589
 30
0.0
 11
-214.29529679385629
 21
341.57451740743448
 31
0.0
  0
POLYLINE
  5
253D
  8
0
 66
     1
 10
0.0
 20
0.0
 30
0.0
  0
VERTEX
  5
3D0E
  8
0
 10
402.86723810931647
 20
-555.40048272657509
 30
0.0
  0
VERTEX
  5
3D0F
  8
0
 10
402.86723810931647
 20
-15.50577224485801
 30
0.0
  0
VERTEX
  5
3D10
  8
0
 10
416.60462520658621
 20
-10.505772244861189
 30
0.0
  0
VERTEX
  5
3D11
  8
0
 10
389.1298510120323
 20
-0.5057722448611913
 30
0.0
  0
VERTEX
  5
3D12
  8
0
 10
402.86723810931647
 20
4.494227755141992
 30
0.0
  0
VERTEX
  5
3D13
  8
0
 10
402.86723810931647
 20
544.38893823685589
 30
0.0
  0
SEQEND
  5
3D14
  8
0
  0
LINE
  5
2544
  8
0
 10
-645.79645420856104
 20
404.79529679385507
 30
0.0
 11
-532.074517407435
 21
404.7952967938561
 31
0.0
  0
LINE
  5
2547
  8
0
 10
-645.79645420856104
 20
480.99529679385569
 30
0.0
 11
-608.27451740743459
 21
480.99529679385569
 31
0.0
  0
LINE
  5
2548
  8
0
 10
-645.79645420856104
 20
442.89529679385652
 30
0.0
 11
-570.17451740743513
 21
442.89529679385652
 31
0.0
  0
POLYLINE
  5
2549
  8
0
 66
     1
 10
0.0
 20
0.0
 30
0.0
 40
2.0
 41
2.0
  0
VERTEX
  5
3D15
  8
0
 10
270.0609665440993
 20
-25.000000000000401
 30
0.0
  0
VERTEX
  5
3D16
  8
0
 10
270.0609665440993
 20
-535.40048272657498
 30
0.0
  0
SEQEND
  5
3D17
  8
0
  0
LINE
  5
254B
  8
0
 10
117.6609665440987
 20
-50.000000000000227
 30
0.0
 11
117.6609665440987
 21
-535.40048272657498
 31
0.0
  0
LINE
  5
254C
  8
0
 10
79.560966544098392
 20
-50.000000000000227
 30
0.0
 11
79.560966544098392
 21
-535.40048272657498
 31
0.0
  0
LINE
  5
254D
  8
0
 10
155.76096654409909
 20
-50.000000000000227
 30
0.0
 11
155.76096654409909
 21
-535.40048272657498
 31
0.0
  0
LINE
  5
254E
  8
0
 10
193.86096654409849
 20
-50.000000000000227
 30
0.0
 11
193.86096654409849
 21
-535.40048272657498
 31
0.0
  0
LINE
  5
254F
  8
0
 10
231.96096654409891
 20
-25.000000000000458
 30
0.0
 11
231.96096654409891
 21
-535.40048272657498
 31
0.0
  0
LINE
  5
2550
  8
0
 10
41.460966544098021
 20
-230.0609665440995
 30
0.0
 11
41.460966544098021
 21
-535.40048272657498
 31
0.0
  0
INSERT
  5
255A
  8
0
  6
CONTINUOUS
  2
*U7
 10
0.0
 20
0.0
 30
0.0
  0
INSERT
  5
255B
  8
0
  6
CONTINUOUS
  2
*U8
 10
0.0
 20
0.0
 30
0.0
  0
INSERT
  5
255C
  8
0
  6
CONTINUOUS
  2
*U9
 10
0.0
 20
0.0
 30
0.0
  0
INSERT
  5
255D
  8
0
  6
CONTINUOUS
  2
*U10
 10
0.0
 20
0.0
 30
0.0
  0
INSERT
  5
255E
  8
0
  6
CONTINUOUS
  2
*U11
 10
0.0
 20
0.0
 30
0.0
  0
INSERT
  5
255F
  8
0
  6
CONTINUOUS
  2
*U12
 10
0.0
 20
0.0
 30
0.0
  0
INSERT
  5
2560
  8
0
  6
CONTINUOUS
  2
*U13
 10
0.0
 20
0.0
 30
0.0
  0
INSERT
  5
2561
  8
0
  6
CONTINUOUS
  2
*U14
 10
0.0
 20
0.0
 30
0.0
  0
INSERT
  5
2562
  8
0
  6
CONTINUOUS
  2
*U15
 10
0.0
 20
0.0
 30
0.0
  0
INSERT
  5
2563
  8
0
  6
CONTINUOUS
  2
*U16
 10
0.0
 20
0.0
 30
0.0
  0
INSERT
  5
2564
  8
0
  6
CONTINUOUS
  2
*U17
 10
0.0
 20
0.0
 30
0.0
  0
INSERT
  5
2565
  8
0
  6
CONTINUOUS
  2
*U18
 10
0.0
 20
0.0
 30
0.0
  0
INSERT
  5
2566
  8
0
  6
CONTINUOUS
  2
*U19
 10
0.0
 20
0.0
 30
0.0
  0
INSERT
  5
2567
  8
0
  6
CONTINUOUS
  2
*U20
 10
0.0
 20
0.0
 30
0.0
  0
POLYLINE
  5
258C
  8
0
 66
     1
 10
0.0
 20
0.0
 30
0.0
  0
VERTEX
  5
3D74
  8
0
 10
-665.79645420856104
 20
524.38893823685589
 30
0.0
  0
VERTEX
  5
3D75
  8
0
 10
-131.4646080496218
 20
524.38893823685555
 30
0.0
  0
VERTEX
  5
3D76
  8
0
 10
-126.4646080496163
 20
510.65155113958821
 30
0.0
  0
VERTEX
  5
3D77
  8
0
 10
-116.4646080496163
 20
538.12632533414035
 30
0.0
  0
VERTEX
  5
3D78
  8
0
 10
-111.4646080496218
 20
524.38893823685555
 30
0.0
  0
VERTEX
  5
3D79
  8
0
 10
422.86723810931647
 20
524.38893823685589
 30
0.0
  0
SEQEND
  5
3D7A
  8
0
  0
POLYLINE
  5
2596
  8
0
 66
     1
 10
0.0
 20
0.0
 30
0.0
  0
VERTEX
  5
3D7B
  8
0
 10
-665.79645420856104
 20
-535.40048272657498
 30
0.0
  0
VERTEX
  5
3D7C
  8
0
 10
-131.4646080496218
 20
-535.40048272657486
 30
0.0
  0
VERTEX
  5
3D7D
  8
0
 10
-126.4646080496168
 20
-549.13786982385125
 30
0.0
  0
VERTEX
  5
3D7E
  8
0
 10
-116.4646080496168
 20
-521.66309562929916
 30
0.0
  0
VERTEX
  5
3D7F
  8
0
 10
-111.4646080496218
 20
-535.40048272657486
 30
0.0
  0
VERTEX
  5
3D80
  8
0
 10
422.86723810931647
 20
-535.40048272657498
 30
0.0
  0
SEQEND
  5
3D81
  8
0
  0
POLYLINE
  5
2D2B
  8
0
 66
     1
 10
0.0
 20
0.0
 30
0.0
 40
2.0
 41
2.0
  0
VERTEX
  5
3D84
  8
0
 10
281.00470320614107
 20
524.38893823685589
 30
0.0
  0
VERTEX
  5
3D85
  8
0
 10
281.00470320614107
 20
-25.000000000000458
 30
0.0
  0
SEQEND
  5
3D86
  8
0
  0
POLYLINE
  5
2FB3
  8
0
 66
     1
 10
0.0
 20
0.0
 30
0.0
  0
VERTEX
  5
3D87
  8
0
 10
281.00470320614107
 20
-25.000000000000458
 30
0.0
  0
VERTEX
  5
3D88
  8
0
 10
152.2792206135791
 20
-25.000000000000512
 30
0.0
  0
VERTEX
  5
3D89
  8
0
 10
-397.1097176232779
 20
524.38893823685589
 30
0.0
  0
SEQEND
  5
3D8A
  8
0
  0
ENDSEC
  0
EOF
