  0
SECTION
  2
HEADER
  9
$ACADVER
  1
AC1009
  9
$INSBASE
 10
0.0
 20
0.0
 30
0.0
  9
$EXTMIN
 10
-757.31276765761186
 20
-1761.833581863516
 30
-0.0000000000001197
  9
$EXTMAX
 10
646.25020098113635
 20
767.09879548092147
 30
0.0000000000000636
  9
$LIMMIN
 10
0.0
 20
0.0
  9
$LIMMAX
 10
420.0
 20
297.0
  9
$ORTHOMODE
 70
     0
  9
$REGENMODE
 70
     1
  9
$FILLMODE
 70
     1
  9
$QTEXTMODE
 70
     0
  9
$MIRRTEXT
 70
     0
  9
$DRAGMODE
 70
     2
  9
$LTSCALE
 40
1.0
  9
$OSMODE
 70
     0
  9
$ATTMODE
 70
     1
  9
$TEXTSIZE
 40
3.5
  9
$TRACEWID
 40
1.0
  9
$TEXTSTYLE
  7
ARIAL
  9
$CLAYER
  8
0
  9
$CELTYPE
  6
CONTINUOUS
  9
$CECOLOR
 62
   256
  9
$DIMSCALE
 40
10.0
  9
$DIMASZ
 40
2.0
  9
$DIMEXO
 40
2.0
  9
$DIMDLI
 40
6.0
  9
$DIMRND
 40
0.0
  9
$DIMDLE
 40
2.0
  9
$DIMEXE
 40
2.0
  9
$DIMTP
 40
0.0
  9
$DIMTM
 40
0.0
  9
$DIMTXT
 40
2.0
  9
$DIMCEN
 40
2.0
  9
$DIMTSZ
 40
0.0
  9
$DIMTOL
 70
     0
  9
$DIMLIM
 70
     0
  9
$DIMTIH
 70
     0
  9
$DIMTOH
 70
     0
  9
$DIMSE1
 70
     0
  9
$DIMSE2
 70
     0
  9
$DIMTAD
 70
     1
  9
$DIMZIN
 70
     0
  9
$DIMBLK
  1
ARCHTICK
  9
$DIMASO
 70
     1
  9
$DIMSHO
 70
     1
  9
$DIMPOST
  1

  9
$DIMAPOST
  1

  9
$DIMALT
 70
     0
  9
$DIMALTD
 70
     2
  9
$DIMALTF
 40
0.0394
  9
$DIMLFAC
 40
1.0
  9
$DIMTOFL
 70
     0
  9
$DIMTVP
 40
0.0
  9
$DIMTIX
 70
     0
  9
$DIMSOXD
 70
     0
  9
$DIMSAH
 70
     0
  9
$DIMBLK1
  1

  9
$DIMBLK2
  1

  9
$DIMSTYLE
  2
1_TO_10
  9
$DIMCLRD
 70
   256
  9
$DIMCLRE
 70
   256
  9
$DIMCLRT
 70
   256
  9
$DIMTFAC
 40
1.0
  9
$DIMGAP
 40
1.0
  9
$LUNITS
 70
     2
  9
$LUPREC
 70
     1
  9
$SKETCHINC
 40
1.0
  9
$FILLETRAD
 40
0.0
  9
$AUNITS
 70
     1
  9
$AUPREC
 70
     4
  9
$MENU
  1
.
  9
$ELEVATION
 40
0.0
  9
$PELEVATION
 40
0.0
  9
$THICKNESS
 40
0.0
  9
$LIMCHECK
 70
     0
  9
$BLIPMODE
 70
     0
  9
$CHAMFERA
 40
0.0
  9
$CHAMFERB
 40
0.0
  9
$SKPOLY
 70
     0
  9
$TDCREATE
 40
2455158.7003458221
  9
$TDUPDATE
 40
2455943.6379663078
  9
$TDINDWG
 40
0.4170164468
  9
$TDUSRTIMER
 40
0.4170150116
  9
$USRTIMER
 70
     1
  9
$ANGBASE
 50
0.0
  9
$ANGDIR
 70
     0
  9
$PDMODE
 70
     0
  9
$PDSIZE
 40
0.0
  9
$PLINEWID
 40
0.0
  9
$COORDS
 70
     1
  9
$SPLFRAME
 70
     0
  9
$SPLINETYPE
 70
     6
  9
$SPLINESEGS
 70
     8
  9
$ATTDIA
 70
     0
  9
$ATTREQ
 70
     0
  9
$HANDLING
 70
     1
  9
$HANDSEED
  5
2D17
  9
$SURFTAB1
 70
     6
  9
$SURFTAB2
 70
     6
  9
$SURFTYPE
 70
     6
  9
$SURFU
 70
     6
  9
$SURFV
 70
     6
  9
$UCSNAME
  2

  9
$UCSORG
 10
0.0
 20
0.0
 30
0.0
  9
$UCSXDIR
 10
1.0
 20
0.0
 30
0.0
  9
$UCSYDIR
 10
0.0
 20
1.0
 30
0.0
  9
$PUCSNAME
  2

  9
$PUCSORG
 10
0.0
 20
0.0
 30
0.0
  9
$PUCSXDIR
 10
1.0
 20
0.0
 30
0.0
  9
$PUCSYDIR
 10
0.0
 20
1.0
 30
0.0
  9
$USERI1
 70
     0
  9
$USERI2
 70
     0
  9
$USERI3
 70
     0
  9
$USERI4
 70
     0
  9
$USERI5
 70
     0
  9
$USERR1
 40
0.0
  9
$USERR2
 40
0.0
  9
$USERR3
 40
0.0
  9
$USERR4
 40
0.0
  9
$USERR5
 40
0.0
  9
$WORLDVIEW
 70
     1
  9
$SHADEDGE
 70
     3
  9
$SHADEDIF
 70
    70
  9
$TILEMODE
 70
     1
  9
$MAXACTVP
 70
    64
  9
$PLIMCHECK
 70
     0
  9
$PEXTMIN
 10
0.0
 20
0.0
 30
0.0
  9
$PEXTMAX
 10
0.0
 20
0.0
 30
0.0
  9
$PLIMMIN
 10
0.0
 20
0.0
  9
$PLIMMAX
 10
12.0
 20
9.0
  9
$UNITMODE
 70
     0
  9
$VISRETAIN
 70
     1
  9
$PLINEGEN
 70
     0
  9
$PSLTSCALE
 70
     1
  0
ENDSEC
  0
SECTION
  2
TABLES
  0
TABLE
  2
VPORT
 70
     1
  0
VPORT
  2
*ACTIVE
 70
     0
 10
0.0
 20
0.0
 11
1.0
 21
1.0
 12
-55.531283338237472
 22
-497.3673931912972
 13
0.0
 23
0.0
 14
1.0
 24
1.0
 15
10.0
 25
10.0
 16
0.0
 26
0.0
 36
1.0
 17
0.0
 27
0.0
 37
0.0
 40
2543.9855462572018
 41
1.608738828202581
 42
50.0
 43
0.0
 44
0.0
 50
0.0
 51
0.0
 71
     0
 72
  1000
 73
     1
 74
     3
 75
     0
 76
     0
 77
     0
 78
     0
  0
ENDTAB
  0
TABLE
  2
LTYPE
 70
     2
  0
LTYPE
  2
CONTINUOUS
 70
     0
  3
Solid line
 72
    65
 73
     0
 40
0.0
  0
LTYPE
  2
DASHED
 70
     0
  3
Dashed __ __ __ __ __ __ __ __ __ __ __ __ __ _
 72
    65
 73
     2
 40
0.75
 49
0.5
 49
-0.25
  0
ENDTAB
  0
TABLE
  2
LAYER
 70
    14
  0
LAYER
  2
0
 70
     0
 62
     7
  6
CONTINUOUS
  0
ENDTAB
  0
TABLE
  2
STYLE
 70
     2
  0
STYLE
  2
STANDARD
 70
     0
 40
0.0
 41
1.0
 50
0.0
 71
     0
 42
2.5
  3
txt
  4

  0
STYLE
  2
ARIAL
 70
     0
 40
0.0
 41
1.0
 50
0.0
 71
     0
 42
3.5
  3
txt
  4

  0
ENDTAB
  0
TABLE
  2
VIEW
 70
     2
  0
VIEW
  2
COMM-04
 70
     1
 40
477.26027331217421
 10
194.21746115522001
 20
180.60494410563541
 41
755.81685306636155
 11
0.0
 21
0.0
 31
1.0
 12
0.0
 22
0.0
 32
0.0
 42
50.0
 43
0.0
 44
0.0
 50
0.0
 71
     0
  0
ENDTAB
  0
TABLE
  2
UCS
 70
     0
  0
ENDTAB
  0
TABLE
  2
APPID
 70
    34
  0
APPID
  2
ACAD
 70
     0
  0
APPID
  2
ACAD_PSEXT
 70
     0
  0
APPID
  2
ACADANNOPO
 70
     0
  0
APPID
  2
ACADANNOTATIVE
 70
     0
  0
APPID
  2
ACAD_DSTYLE_DIMJAG
 70
     0
  0
APPID
  2
ACAD_DSTYLE_DIMTALN
 70
     0
  0
APPID
  2
ACAD_MLEADERVER
 70
     0
  0
APPID
  2
RAK
 70
     0
  0
APPID
  2
ACAD_EXEMPT_FROM_CAD_STANDARDS
 70
     0
  0
APPID
  2
GENIUS_GENODEF_13
 70
     0
  0
APPID
  2
GENIUS_GENSCREG_15
 70
     0
  0
APPID
  2
GENIUS_GENOBJ-N-SDF_13
 70
     0
  0
APPID
  2
GENIUS_GENCFG_13
 70
     0
  0
APPID
  2
GENIUS_GENCFG0_13
 70
     0
  0
APPID
  2
ADESKUNDERLAYLAYEROVERRIDEDATA
 70
     0
  0
APPID
  2
ACAUTHENVIRON
 70
     0
  0
APPID
  2
ACDBDYNAMICBLOCKTRUENAME
 70
     0
  0
APPID
  2
ACDBDYNAMICBLOCKGUID
 70
     0
  0
APPID
  2
$MECS_BLK
 70
     0
  0
APPID
  2
DCO15
 70
     0
  0
APPID
  2
ADE
 70
     0
  0
APPID
  2
ACLAYERTOOLS
 70
     0
  0
APPID
  2
ACADANNOAV
 70
     0
  0
APPID
  2
ACDBBLOCKREPETAG
 70
     0
  0
APPID
  2
ACAD_DSTYLE_DIMEXT_ENABLED
 70
     0
  0
APPID
  2
ACAD_DSTYLE_DIMEXT_LENGTH
 70
     0
  0
APPID
  2
ACAECLAYERSTANDARD
 70
     0
  0
APPID
  2
ACCMTRANSPARENCY
 70
     0
  0
APPID
  2
URBANX
 70
     0
  0
APPID
  2
GRADIENTCOLOR1ACI
 70
     0
  0
APPID
  2
GRADIENTCOLOR2ACI
 70
     0
  0
APPID
  2
ACAD_NAV_VCDISPLAY
 70
     0
  0
APPID
  2
ACAD_DSTYLE_DIMJOGGED_JOGA
 70
     0
  0
APPID
  2
PE_URL
 70
     0
  0
ENDTAB
  0
TABLE
  2
DIMSTYLE
 70
     1
  0
DIMSTYLE
  2
1_TO_10
 70
     0
  3

  4

  5
ARCHTICK
  6

  7

 40
10.0
 41
2.0
 42
2.0
 43
6.0
 44
2.0
 45
0.0
 46
2.0
 47
0.0
 48
0.0
140
2.0
141
2.0
142
0.0
143
0.0394
144
1.0
145
0.0
146
1.0
147
1.0
 71
     0
 72
     0
 73
     0
 74
     0
 75
     0
 76
     0
 77
     1
 78
     0
170
     0
171
     2
172
     0
173
     0
174
     0
175
     0
176
   256
177
   256
178
   256
  0
ENDTAB
  0
ENDSEC
  0
SECTION
  2
BLOCKS
  0
BLOCK
  8
0
  2
$MODEL_SPACE
 70
     0
 10
0.0
 20
0.0
 30
0.0
  3
$MODEL_SPACE
  1

  0
ENDBLK
  5
21
  8
0
  0
BLOCK
 67
     1
  8
0
  2
$PAPER_SPACE
 70
     0
 10
0.0
 20
0.0
 30
0.0
  3
$PAPER_SPACE
  1

  0
ENDBLK
  5
29EA
 67
     1
  8
0
  0
BLOCK
  8
0
  2
_ARCHTICK
 70
     0
 10
0.0
 20
0.0
 30
0.0
  3
_ARCHTICK
  1

  0
POLYLINE
  5
6FA
  8
0
  6
BYBLOCK
 66
     1
 10
0.0
 20
0.0
 30
0.0
 40
0.15
 41
0.15
  0
VERTEX
  5
6FB
  8
0
  6
BYBLOCK
 10
-0.5
 20
-0.5
 30
0.0
  0
VERTEX
  5
6FC
  8
0
  6
BYBLOCK
 10
0.5
 20
0.5
 30
0.0
  0
SEQEND
  5
6FD
  8
0
  6
BYBLOCK
 62
     0
  0
ENDBLK
  5
6FE
  8
0
  0
BLOCK
  8
0
  2
*U11
 70
     1
 10
0.0
 20
0.0
 30
0.0
  3
*U11
  1

  0
SOLID
  5
2AB4
  8
0
  6
CONTINUOUS
 10
240.89278449218801
 20
338.90595312687037
 30
0.0
 11
226.09041988264971
 21
352.76239975208421
 31
0.0
 12
244.5866393647147
 22
344.45571714213759
 32
0.0
 13
244.5866393647147
 23
344.45571714213759
 33
0.0
  0
POLYLINE
  5
2AB5
  8
0
  6
CONTINUOUS
 66
     1
 10
0.0
 20
0.0
 30
0.0
  0
VERTEX
  5
2AB6
  8
0
  6
CONTINUOUS
 10
242.7397119284513
 20
341.68083513450398
 30
0.0
  0
VERTEX
  5
2AB7
  8
0
  6
CONTINUOUS
 10
370.0
 20
256.97794797046032
 30
0.0
  0
VERTEX
  5
2AB8
  8
0
  6
CONTINUOUS
 10
390.0
 20
256.97794797046032
 30
0.0
  0
SEQEND
  5
2AB9
  8
0
  6
CONTINUOUS
  0
ENDBLK
  5
2ABB
  8
0
  0
BLOCK
  8
0
  2
*U12
 70
     1
 10
0.0
 20
0.0
 30
0.0
  3
*U12
  1

  0
TEXT
  5
2ABD
  8
0
  6
CONTINUOUS
 10
397.3942701227831
 20
247.1416587480864
 30
0.0
 40
20.0
  1
Insulation
  7
ARIAL
  0
ENDBLK
  5
2ABF
  8
0
  0
BLOCK
  8
0
  2
*U13
 70
     1
 10
0.0
 20
0.0
 30
0.0
  3
*U13
  1

  0
SOLID
  5
2AC1
  8
0
  6
CONTINUOUS
 10
-14.835952424651721
 20
233.03136662627
 30
0.0
 11
-30.411547280998779
 21
246.01258213106951
 31
0.0
 12
-11.46775252343822
 22
238.78459822858801
 32
0.0
 13
-11.46775252343822
 23
238.78459822858801
 33
0.0
  0
POLYLINE
  5
2AC2
  8
0
  6
CONTINUOUS
 66
     1
 10
0.0
 20
0.0
 30
0.0
  0
VERTEX
  5
2AC3
  8
0
  6
CONTINUOUS
 10
-13.15185247404497
 20
235.907982427429
 30
0.0
  0
VERTEX
  5
2AC4
  8
0
  6
CONTINUOUS
 10
370.0
 20
11.59369771604997
 30
0.0
  0
VERTEX
  5
2AC5
  8
0
  6
CONTINUOUS
 10
390.0
 20
11.59369771604997
 30
0.0
  0
SEQEND
  5
2AC6
  8
0
  6
CONTINUOUS
  0
ENDBLK
  5
2AC8
  8
0
  0
BLOCK
  8
0
  2
*U14
 70
     1
 10
0.0
 20
0.0
 30
0.0
  3
*U14
  1

  0
TEXT
  5
2ACA
  8
0
  6
CONTINUOUS
 10
398.82673942701228
 20
1.7710510584783501
 30
0.0
 40
20.0
  1
300 HST Purlin
  7
ARIAL
  0
ENDBLK
  5
2ACC
  8
0
  0
BLOCK
  8
0
  2
*U15
 70
     1
 10
0.0
 20
0.0
 30
0.0
  3
*U15
  1

  0
SOLID
  5
2ACE
  8
0
  6
CONTINUOUS
 10
113.5698261905933
 20
-134.65181592742741
 30
0.0
 11
101.1210841412376
 21
-118.6474436342159
 31
0.0
 12
118.0875284451831
 22
-129.74928486854381
 32
0.0
 13
118.0875284451831
 23
-129.74928486854381
 33
0.0
  0
POLYLINE
  5
2ACF
  8
0
  6
CONTINUOUS
 66
     1
 10
0.0
 20
0.0
 30
0.0
  0
VERTEX
  5
2AD0
  8
0
  6
CONTINUOUS
 10
115.82867731788819
 20
-132.20055039798561
 30
0.0
  0
VERTEX
  5
2AD1
  8
0
  6
CONTINUOUS
 10
370.0
 20
-366.42045512502858
 30
0.0
  0
VERTEX
  5
2AD2
  8
0
  6
CONTINUOUS
 10
390.0
 20
-366.42045512502858
 30
0.0
  0
SEQEND
  5
2AD3
  8
0
  6
CONTINUOUS
  0
ENDBLK
  5
2AD5
  8
0
  0
BLOCK
  8
0
  2
*U16
 70
     1
 10
0.0
 20
0.0
 30
0.0
  3
*U16
  1

  0
TEXT
  5
2AD7
  8
0
  6
CONTINUOUS
 10
397.84447476125513
 20
-376.25674434740239
 30
0.0
 40
20.0
  1
Portal rafter
  7
ARIAL
  0
ENDBLK
  5
2AD9
  8
0
  0
BLOCK
  8
0
  2
*U17
 70
     1
 10
0.0
 20
0.0
 30
0.0
  3
*U17
  1

  0
SOLID
  5
2ADB
  8
0
  6
CONTINUOUS
 10
154.72087981010841
 20
487.24883575321752
 30
0.0
 11
136.2857779910882
 21
478.80738255880431
 31
0.0
 12
150.9866192162977
 22
492.77149292725568
 32
0.0
 13
150.9866192162977
 23
492.77149292725568
 33
0.0
  0
POLYLINE
  5
2ADC
  8
0
  6
CONTINUOUS
 66
     1
 10
0.0
 20
0.0
 30
0.0
  0
VERTEX
  5
2ADD
  8
0
  6
CONTINUOUS
 10
152.8537495132031
 20
490.0101643402366
 30
0.0
  0
VERTEX
  5
2ADE
  8
0
  6
CONTINUOUS
 10
370.0
 20
636.83816049007964
 30
0.0
  0
VERTEX
  5
2ADF
  8
0
  6
CONTINUOUS
 10
390.0
 20
636.83816049007964
 30
0.0
  0
SEQEND
  5
2AE0
  8
0
  6
CONTINUOUS
  0
ENDBLK
  5
2AE2
  8
0
  0
BLOCK
  8
0
  2
*U18
 70
     1
 10
0.0
 20
0.0
 30
0.0
  3
*U18
  1

  0
TEXT
  5
2AE4
  8
0
  6
CONTINUOUS
 10
398.60845839017742
 20
629.44389036729649
 30
0.0
 40
20.0
  1
Clip
  7
ARIAL
  0
ENDBLK
  5
2AE6
  8
0
  0
BLOCK
  8
0
  2
*U19
 70
     1
 10
0.0
 20
0.0
 30
0.0
  3
*U19
  1

  0
SOLID
  5
2AE8
  8
0
  6
CONTINUOUS
 10
276.33036089764039
 20
431.85375908677747
 30
0.0
 11
257.62518858318799
 21
424.02894983684951
 31
0.0
 12
272.7814945293149
 22
437.49733879687392
 32
0.0
 13
272.7814945293149
 23
437.49733879687392
 33
0.0
  0
POLYLINE
  5
2AE9
  8
0
  6
CONTINUOUS
 66
     1
 10
0.0
 20
0.0
 30
0.0
  0
VERTEX
  5
2AEA
  8
0
  6
CONTINUOUS
 10
274.55592771347762
 20
434.67554894182558
 30
0.0
  0
VERTEX
  5
2AEB
  8
0
  6
CONTINUOUS
 10
370.0
 20
494.69388403996879
 30
0.0
  0
VERTEX
  5
2AEC
  8
0
  6
CONTINUOUS
 10
390.0
 20
494.69388403996879
 30
0.0
  0
SEQEND
  5
2AED
  8
0
  6
CONTINUOUS
  0
ENDBLK
  5
2AEF
  8
0
  0
BLOCK
  8
0
  2
*U20
 70
     1
 10
0.0
 20
0.0
 30
0.0
  3
*U20
  1

  0
TEXT
  5
2AF1
  8
0
  6
CONTINUOUS
 10
397.80354706684858
 20
487.63385675483931
 30
0.0
 40
20.0
  1
Underlay
  7
ARIAL
  0
ENDBLK
  5
2AF3
  8
0
  0
BLOCK
  8
0
  2
*U21
 70
     1
 10
0.0
 20
0.0
 30
0.0
  3
*U21
  1

  0
SOLID
  5
2AF5
  8
0
  6
CONTINUOUS
 10
240.4768771485646
 20
258.75834332288048
 30
0.0
 11
226.09041988264971
 21
273.04613386050801
 31
0.0
 12
244.33310882206999
 22
264.19653435710308
 32
0.0
 13
244.33310882206999
 23
264.19653435710308
 33
0.0
  0
POLYLINE
  5
2AF6
  8
0
  6
CONTINUOUS
 66
     1
 10
0.0
 20
0.0
 30
0.0
  0
VERTEX
  5
2AF7
  8
0
  6
CONTINUOUS
 10
242.40499298531731
 20
261.47743883999181
 30
0.0
  0
VERTEX
  5
2AF8
  8
0
  6
CONTINUOUS
 10
370.0
 20
170.9995750917742
 30
0.0
  0
VERTEX
  5
2AF9
  8
0
  6
CONTINUOUS
 10
390.0
 20
170.9995750917742
 30
0.0
  0
SEQEND
  5
2AFA
  8
0
  6
CONTINUOUS
  0
ENDBLK
  5
2AFC
  8
0
  0
BLOCK
  8
0
  2
*U22
 70
     1
 10
0.0
 20
0.0
 30
0.0
  3
*U22
  1

  0
TEXT
  5
2AFE
  8
0
  6
CONTINUOUS
 10
399.65893587994537
 20
161.1632858694004
 30
0.0
 40
20.0
  1
White face foil
  7
ARIAL
  0
ENDBLK
  5
2B00
  8
0
  0
BLOCK
  8
0
  2
*U23
 70
     1
 10
0.0
 20
0.0
 30
0.0
  3
*U23
  1

  0
SOLID
  5
2B02
  8
0
  6
CONTINUOUS
 10
190.48978315222101
 20
267.60311237326732
 30
0.0
 11
178.27591221113829
 21
283.78744021676101
 31
0.0
 12
195.07854510464691
 22
272.4391963456992
 32
0.0
 13
195.07854510464691
 23
272.4391963456992
 33
0.0
  0
POLYLINE
  5
2B03
  8
0
  6
CONTINUOUS
 66
     1
 10
0.0
 20
0.0
 30
0.0
  0
VERTEX
  5
2B04
  8
0
  6
CONTINUOUS
 10
192.78416412843401
 20
270.02115435948332
 30
0.0
  0
VERTEX
  5
2B05
  8
0
  6
CONTINUOUS
 10
370.0
 20
101.8683080378605
 30
0.0
  0
VERTEX
  5
2B06
  8
0
  6
CONTINUOUS
 10
390.0
 20
101.8683080378605
 30
0.0
  0
SEQEND
  5
2B07
  8
0
  6
CONTINUOUS
  0
ENDBLK
  5
2B09
  8
0
  0
BLOCK
  8
0
  2
*U24
 70
     1
 10
0.0
 20
0.0
 30
0.0
  3
*U24
  1

  0
TEXT
  5
2B0B
  8
0
  6
CONTINUOUS
 10
398.74488403819919
 20
94.808280752730909
 30
0.0
 40
20.0
  1
Safety mesh
  7
ARIAL
  0
ENDBLK
  5
2B0D
  8
0
  0
BLOCK
  8
0
  2
*U25
 70
     1
 10
0.0
 20
0.0
 30
0.0
  3
*U25
  1

  0
SOLID
  5
2B0F
  8
0
  6
CONTINUOUS
 10
-116.94193336082969
 20
94.627491451439823
 30
0.0
 11
-103.4021557946305
 21
79.534925911778885
 31
0.0
 12
-121.1049396133576
 22
89.420397887285461
 32
0.0
 13
-121.1049396133576
 23
89.420397887285461
 33
0.0
  0
POLYLINE
  5
2B10
  8
0
  6
CONTINUOUS
 66
     1
 10
0.0
 20
0.0
 30
0.0
  0
VERTEX
  5
2B11
  8
0
  6
CONTINUOUS
 10
-119.0234364870937
 20
92.023944669362635
 30
0.0
  0
VERTEX
  5
2B12
  8
0
  6
CONTINUOUS
 10
-320.0
 20
252.70219640568939
 30
0.0
  0
VERTEX
  5
2B13
  8
0
  6
CONTINUOUS
 10
-340.0
 20
252.70219640568939
 30
0.0
  0
SEQEND
  5
2B14
  8
0
  6
CONTINUOUS
  0
ENDBLK
  5
2B16
  8
0
  0
BLOCK
  8
0
  2
*U26
 70
     1
 10
0.0
 20
0.0
 30
0.0
  3
*U26
  1

  0
TEXT
  5
2B18
  8
0
  6
CONTINUOUS
 10
-456.95770804911308
 20
242.82497948890901
 30
0.0
 40
20.0
  1
M12 bolt
  7
ARIAL
  0
ENDBLK
  5
2B1A
  8
0
  0
BLOCK
  8
0
  2
*U27
 70
     1
 10
0.0
 20
0.0
 30
0.0
  3
*U27
  1

  0
SOLID
  5
2B1C
  8
0
  6
CONTINUOUS
 10
-80.384902746185475
 20
202.49170323586091
 30
0.0
 11
-64.522454852405588
 21
189.86261546483689
 31
0.0
 12
-83.623393488475443
 22
196.6644721475526
 32
0.0
 13
-83.623393488475443
 23
196.6644721475526
 33
0.0
  0
POLYLINE
  5
2B1D
  8
0
  6
CONTINUOUS
 66
     1
 10
0.0
 20
0.0
 30
0.0
  0
VERTEX
  5
2B1E
  8
0
  6
CONTINUOUS
 10
-82.004148117330445
 20
199.57808769170671
 30
0.0
  0
VERTEX
  5
2B1F
  8
0
  6
CONTINUOUS
 10
-320.0
 20
331.84457092280081
 30
0.0
  0
VERTEX
  5
2B20
  8
0
  6
CONTINUOUS
 10
-340.0
 20
331.84457092280081
 30
0.0
  0
SEQEND
  5
2B21
  8
0
  6
CONTINUOUS
  0
ENDBLK
  5
2B23
  8
0
  0
BLOCK
  8
0
  2
*U28
 70
     1
 10
0.0
 20
0.0
 30
0.0
  3
*U28
  1

  0
TEXT
  5
2B25
  8
0
  6
CONTINUOUS
 10
-415.02046384720319
 20
321.84457092280081
 30
0.0
 40
20.0
  1
Cleat
  7
ARIAL
  0
ENDBLK
  5
2B27
  8
0
  0
BLOCK
  8
0
  2
*U29
 70
     1
 10
0.0
 20
0.0
 30
0.0
  3
*U29
  1

  0
SOLID
  5
2B29
  8
0
  6
CONTINUOUS
 10
169.49449288672801
 20
-882.20986157952848
 30
0.0
 11
152.53492568314181
 21
-871.09751748036751
 31
0.0
 12
172.18176301599169
 22
-876.10879415678903
 32
0.0
 13
172.18176301599169
 23
-876.10879415678903
 33
0.0
  0
POLYLINE
  5
2B2A
  8
0
  6
CONTINUOUS
 66
     1
 10
0.0
 20
0.0
 30
0.0
  0
VERTEX
  5
2B2B
  8
0
  6
CONTINUOUS
 10
170.83812795135981
 20
-879.15932786815858
 30
0.0
  0
VERTEX
  5
2B2C
  8
0
  6
CONTINUOUS
 10
370.0
 20
-966.88196926199157
 30
0.0
  0
VERTEX
  5
2B2D
  8
0
  6
CONTINUOUS
 10
390.0
 20
-966.88196926199157
 30
0.0
  0
SEQEND
  5
2B2E
  8
0
  6
CONTINUOUS
  0
ENDBLK
  5
2B30
  8
0
  0
BLOCK
  8
0
  2
*U30
 70
     1
 10
0.0
 20
0.0
 30
0.0
  3
*U30
  1

  0
TEXT
  5
2B32
  8
0
  6
CONTINUOUS
 10
397.3942701227831
 20
-976.71825848436538
 30
0.0
 40
20.0
  1
Insulation
  7
ARIAL
  0
ENDBLK
  5
2B34
  8
0
  0
BLOCK
  8
0
  2
*U31
 70
     1
 10
0.0
 20
0.0
 30
0.0
  3
*U31
  1

  0
SOLID
  5
2B36
  8
0
  6
CONTINUOUS
 10
-14.36091086504794
 20
-1009.945505109604
 30
0.0
 11
-30.411547280998761
 21
-997.55647037101141
 31
0.0
 12
-11.21044751285295
 22
-1004.070215745588
 32
0.0
 13
-11.21044751285295
 23
-1004.070215745588
 33
0.0
  0
POLYLINE
  5
2B37
  8
0
  6
CONTINUOUS
 66
     1
 10
0.0
 20
0.0
 30
0.0
  0
VERTEX
  5
2B38
  8
0
  6
CONTINUOUS
 10
-12.78567918895045
 20
-1007.007860427596
 30
0.0
  0
VERTEX
  5
2B39
  8
0
  6
CONTINUOUS
 10
370.0
 20
-1212.2662195164021
 30
0.0
  0
VERTEX
  5
2B3A
  8
0
  6
CONTINUOUS
 10
390.0
 20
-1212.2662195164021
 30
0.0
  0
SEQEND
  5
2B3B
  8
0
  6
CONTINUOUS
  0
ENDBLK
  5
2B3D
  8
0
  0
BLOCK
  8
0
  2
*U32
 70
     1
 10
0.0
 20
0.0
 30
0.0
  3
*U32
  1

  0
TEXT
  5
2B3F
  8
0
  6
CONTINUOUS
 10
398.82673942701228
 20
-1222.088866173973
 30
0.0
 40
20.0
  1
300 HST Purlin
  7
ARIAL
  0
ENDBLK
  5
2B41
  8
0
  0
BLOCK
  8
0
  2
*U33
 70
     1
 10
0.0
 20
0.0
 30
0.0
  3
*U33
  1

  0
SOLID
  5
2B43
  8
0
  6
CONTINUOUS
 10
41.814838595968268
 20
-1356.9319934062089
 30
0.0
 11
27.565589941729741
 21
-1342.507360866668
 31
0.0
 12
45.722868140995779
 22
-1351.5309055972909
 32
0.0
 13
45.722868140995779
 23
-1351.5309055972909
 33
0.0
  0
POLYLINE
  5
2B44
  8
0
  6
CONTINUOUS
 66
     1
 10
0.0
 20
0.0
 30
0.0
  0
VERTEX
  5
2B45
  8
0
  6
CONTINUOUS
 10
43.768853368482027
 20
-1354.2314495017499
 30
0.0
  0
VERTEX
  5
2B46
  8
0
  6
CONTINUOUS
 10
370.0
 20
-1590.28037235748
 30
0.0
  0
VERTEX
  5
2B47
  8
0
  6
CONTINUOUS
 10
390.0
 20
-1590.28037235748
 30
0.0
  0
SEQEND
  5
2B48
  8
0
  6
CONTINUOUS
  0
ENDBLK
  5
2B4A
  8
0
  0
BLOCK
  8
0
  2
*U34
 70
     1
 10
0.0
 20
0.0
 30
0.0
  3
*U34
  1

  0
TEXT
  5
2B4C
  8
0
  6
CONTINUOUS
 10
397.84447476125513
 20
-1600.1166615798541
 30
0.0
 40
20.0
  1
Portal rafter
  7
ARIAL
  0
ENDBLK
  5
2B4E
  8
0
  0
BLOCK
  8
0
  2
*U35
 70
     1
 10
0.0
 20
0.0
 30
0.0
  3
*U35
  1

  0
SOLID
  5
2B50
  8
0
  6
CONTINUOUS
 10
202.77494966696909
 20
-764.15901785964672
 30
0.0
 11
184.06969438368009
 21
-771.98362876997976
 31
0.0
 12
199.2261431401968
 22
-758.51540051967913
 32
0.0
 13
199.2261431401968
 23
-758.51540051967913
 33
0.0
  0
POLYLINE
  5
2B51
  8
0
  6
CONTINUOUS
 66
     1
 10
0.0
 20
0.0
 30
0.0
  0
VERTEX
  5
2B52
  8
0
  6
CONTINUOUS
 10
201.00054640358289
 20
-761.33720918966287
 30
0.0
  0
VERTEX
  5
2B53
  8
0
  6
CONTINUOUS
 10
370.0
 20
-655.06735993950826
 30
0.0
  0
VERTEX
  5
2B54
  8
0
  6
CONTINUOUS
 10
390.0
 20
-655.06735993950826
 30
0.0
  0
SEQEND
  5
2B55
  8
0
  6
CONTINUOUS
  0
ENDBLK
  5
2B57
  8
0
  0
BLOCK
  8
0
  2
*U36
 70
     1
 10
0.0
 20
0.0
 30
0.0
  3
*U36
  1

  0
TEXT
  5
2B59
  8
0
  6
CONTINUOUS
 10
398.74488403819919
 20
-645.4607205579714
 30
0.0
 40
20.0
  1
Steel & Tube Hi Rib
  7
ARIAL
  0
TEXT
  5
2B5A
  8
0
  6
CONTINUOUS
 10
398.15825375170539
 20
-679.13511801135928
 30
0.0
 40
20.0
  1
profile roofing
  7
ARIAL
  0
ENDBLK
  5
2B5C
  8
0
  0
BLOCK
  8
0
  2
*U37
 70
     1
 10
0.0
 20
0.0
 30
0.0
  3
*U37
  1

  0
SOLID
  5
2B5E
  8
0
  6
CONTINUOUS
 10
203.94921114831189
 20
-795.8414906986111
 30
0.0
 11
184.06969438368009
 21
-799.83096739560233
 31
0.0
 12
201.58075834038871
 22
-789.60972724505439
 32
0.0
 13
201.58075834038871
 23
-789.60972724505439
 33
0.0
  0
POLYLINE
  5
2B5F
  8
0
  6
CONTINUOUS
 66
     1
 10
0.0
 20
0.0
 30
0.0
  0
VERTEX
  5
2B60
  8
0
  6
CONTINUOUS
 10
202.7649847443503
 20
-792.72560897183268
 30
0.0
  0
VERTEX
  5
2B61
  8
0
  6
CONTINUOUS
 10
370.0
 20
-729.16603319248293
 30
0.0
  0
VERTEX
  5
2B62
  8
0
  6
CONTINUOUS
 10
390.0
 20
-729.16603319248293
 30
0.0
  0
SEQEND
  5
2B63
  8
0
  6
CONTINUOUS
  0
ENDBLK
  5
2B65
  8
0
  0
BLOCK
  8
0
  2
*U38
 70
     1
 10
0.0
 20
0.0
 30
0.0
  3
*U38
  1

  0
TEXT
  5
2B67
  8
0
  6
CONTINUOUS
 10
397.80354706684858
 20
-736.22606047761258
 30
0.0
 40
20.0
  1
Underlay
  7
ARIAL
  0
ENDBLK
  5
2B69
  8
0
  0
BLOCK
  8
0
  2
*U39
 70
     1
 10
0.0
 20
0.0
 30
0.0
  3
*U39
  1

  0
SOLID
  5
2B6B
  8
0
  6
CONTINUOUS
 10
169.22456078731281
 20
-962.32756603450684
 30
0.0
 11
152.53492568314181
 21
-950.81378337194371
 31
0.0
 12
172.05661813170241
 22
-956.29234477571822
 32
0.0
 13
172.05661813170241
 23
-956.29234477571822
 33
0.0
  0
POLYLINE
  5
2B6C
  8
0
  6
CONTINUOUS
 66
     1
 10
0.0
 20
0.0
 30
0.0
  0
VERTEX
  5
2B6D
  8
0
  6
CONTINUOUS
 10
170.64058945950759
 20
-959.30995540511253
 30
0.0
  0
VERTEX
  5
2B6E
  8
0
  6
CONTINUOUS
 10
370.0
 20
-1052.8603421406769
 30
0.0
  0
VERTEX
  5
2B6F
  8
0
  6
CONTINUOUS
 10
390.0
 20
-1052.8603421406769
 30
0.0
  0
SEQEND
  5
2B70
  8
0
  6
CONTINUOUS
  0
ENDBLK
  5
2B72
  8
0
  0
BLOCK
  8
0
  2
*U40
 70
     1
 10
0.0
 20
0.0
 30
0.0
  3
*U40
  1

  0
TEXT
  5
2B74
  8
0
  6
CONTINUOUS
 10
399.65893587994537
 20
-1062.696631363051
 30
0.0
 40
20.0
  1
White face foil
  7
ARIAL
  0
ENDBLK
  5
2B76
  8
0
  0
BLOCK
  8
0
  2
*U41
 70
     1
 10
0.0
 20
0.0
 30
0.0
  3
*U41
  1

  0
SOLID
  5
2B78
  8
0
  6
CONTINUOUS
 10
119.3294270972588
 20
-954.13263222988178
 30
0.0
 11
104.7204180116305
 21
-940.07247701569065
 31
0.0
 12
123.0998012702056
 22
-948.63456683918105
 32
0.0
 13
123.0998012702056
 23
-948.63456683918105
 33
0.0
  0
POLYLINE
  5
2B79
  8
0
  6
CONTINUOUS
 66
     1
 10
0.0
 20
0.0
 30
0.0
  0
VERTEX
  5
2B7A
  8
0
  6
CONTINUOUS
 10
121.21461418373219
 20
-951.3835995345313
 30
0.0
  0
VERTEX
  5
2B7B
  8
0
  6
CONTINUOUS
 10
370.0
 20
-1121.9916091945911
 30
0.0
  0
VERTEX
  5
2B7C
  8
0
  6
CONTINUOUS
 10
390.0
 20
-1121.9916091945911
 30
0.0
  0
SEQEND
  5
2B7D
  8
0
  6
CONTINUOUS
  0
ENDBLK
  5
2B7F
  8
0
  0
BLOCK
  8
0
  2
*U42
 70
     1
 10
0.0
 20
0.0
 30
0.0
  3
*U42
  1

  0
TEXT
  5
2B81
  8
0
  6
CONTINUOUS
 10
398.74488403819919
 20
-1129.0516364797211
 30
0.0
 40
20.0
  1
Safety mesh
  7
ARIAL
  0
ENDBLK
  5
2B83
  8
0
  0
BLOCK
  8
0
  2
*U43
 70
     1
 10
0.0
 20
0.0
 30
0.0
  3
*U43
  1

  0
SOLID
  5
2B85
  8
0
  6
CONTINUOUS
 10
-116.12176306868621
 20
-1148.2441708619001
 30
0.0
 11
-103.4021557946305
 21
-1164.0341265903021
 31
0.0
 12
-120.5552834522731
 22
-1153.2229600171829
 32
0.0
 13
-120.5552834522731
 23
-1153.2229600171829
 33
0.0
  0
POLYLINE
  5
2B86
  8
0
  6
CONTINUOUS
 66
     1
 10
0.0
 20
0.0
 30
0.0
  0
VERTEX
  5
2B87
  8
0
  6
CONTINUOUS
 10
-118.3385232604797
 20
-1150.7335654395411
 30
0.0
  0
VERTEX
  5
2B88
  8
0
  6
CONTINUOUS
 10
-320.0
 20
-971.15772082676256
 30
0.0
  0
VERTEX
  5
2B89
  8
0
  6
CONTINUOUS
 10
-340.0
 20
-971.15772082676256
 30
0.0
  0
SEQEND
  5
2B8A
  8
0
  6
CONTINUOUS
  0
ENDBLK
  5
2B8C
  8
0
  0
BLOCK
  8
0
  2
*U44
 70
     1
 10
0.0
 20
0.0
 30
0.0
  3
*U44
  1

  0
TEXT
  5
2B8E
  8
0
  6
CONTINUOUS
 10
-456.95770804911308
 20
-981.03493774354274
 30
0.0
 40
20.0
  1
M12 bolt
  7
ARIAL
  0
ENDBLK
  5
2B90
  8
0
  0
BLOCK
  8
0
  2
*U45
 70
     1
 10
0.0
 20
0.0
 30
0.0
  3
*U45
  1

  0
SOLID
  5
2B92
  8
0
  6
CONTINUOUS
 10
-71.328540416584133
 20
-1017.71810214319
 30
0.0
 11
-59.241407973392832
 21
-1033.997301767615
 31
0.0
 12
-75.954922324873635
 22
-1022.518209942302
 32
0.0
 13
-75.954922324873635
 23
-1022.518209942302
 33
0.0
  0
POLYLINE
  5
2B93
  8
0
  6
CONTINUOUS
 66
     1
 10
0.0
 20
0.0
 30
0.0
  0
VERTEX
  5
2B94
  8
0
  6
CONTINUOUS
 10
-73.641731370728877
 20
-1020.118156042746
 30
0.0
  0
VERTEX
  5
2B95
  8
0
  6
CONTINUOUS
 10
-320.0
 20
-782.67610585486705
 30
0.0
  0
VERTEX
  5
2B96
  8
0
  6
CONTINUOUS
 10
-340.0
 20
-782.67610585486705
 30
0.0
  0
SEQEND
  5
2B97
  8
0
  6
CONTINUOUS
  0
ENDBLK
  5
2B99
  8
0
  0
BLOCK
  8
0
  2
*U46
 70
     1
 10
0.0
 20
0.0
 30
0.0
  3
*U46
  1

  0
TEXT
  5
2B9B
  8
0
  6
CONTINUOUS
 10
-540.84583901773533
 20
-792.67610585486705
 30
0.0
 40
20.0
  1
Extended Cleat
  7
ARIAL
  0
ENDBLK
  5
2B9D
  8
0
  0
BLOCK
  8
0
  2
*U47
 70
     1
 10
0.0
 20
0.0
 30
0.0
  3
*U47
  1

  0
SOLID
  5
2B9F
  8
0
  6
CONTINUOUS
 10
-110.5518289043647
 20
541.04397813542255
 30
0.0
 11
-91.436315529500447
 21
547.80476651596655
 31
0.0
 12
-107.3258697877091
 22
535.20980019657702
 32
0.0
 13
-107.3258697877091
 23
535.20980019657702
 33
0.0
  0
POLYLINE
  5
2BA0
  8
0
  6
CONTINUOUS
 66
     1
 10
0.0
 20
0.0
 30
0.0
  0
VERTEX
  5
2BA1
  8
0
  6
CONTINUOUS
 10
-108.9388493460369
 20
538.12688916599984
 30
0.0
  0
VERTEX
  5
2BA2
  8
0
  6
CONTINUOUS
 10
-320.00000000000011
 20
421.42241935706079
 30
0.0
  0
VERTEX
  5
2BA3
  8
0
  6
CONTINUOUS
 10
-340.00000000000011
 20
421.42241935706079
 30
0.0
  0
SEQEND
  5
2BA4
  8
0
  6
CONTINUOUS
  0
ENDBLK
  5
2BA6
  8
0
  0
BLOCK
  8
0
  2
*U48
 70
     1
 10
0.0
 20
0.0
 30
0.0
  3
*U48
  1

  0
TEXT
  5
2BA8
  8
0
  6
CONTINUOUS
 10
-594.21555252387452
 20
431.02905873859783
 30
0.0
 40
20.0
  1
Steel & Tube Hi Rib
  7
ARIAL
  0
TEXT
  5
2BA9
  8
0
  6
CONTINUOUS
 10
-517.42155525238741
 20
397.35466128521
 30
0.0
 40
20.0
  1
profile roofing
  7
ARIAL
  0
ENDBLK
  5
2BAB
  8
0
  0
BLOCK
  8
0
  2
*U49
 70
     1
 10
0.0
 20
0.0
 30
0.0
  3
*U49
  1

  0
SOLID
  5
2BAD
  8
0
  6
CONTINUOUS
 10
149.0057863140967
 20
465.96267915578568
 30
0.0
 11
129.50893353860329
 21
460.39636592692023
 31
0.0
 12
146.14661160335689
 22
471.98510096249362
 32
0.0
 13
146.14661160335689
 23
471.98510096249362
 33
0.0
  0
POLYLINE
  5
2BAE
  8
0
  6
CONTINUOUS
 66
     1
 10
0.0
 20
0.0
 30
0.0
  0
VERTEX
  5
2BAF
  8
0
  6
CONTINUOUS
 10
147.57619895872679
 20
468.97389005913971
 30
0.0
  0
VERTEX
  5
2BB0
  8
0
  6
CONTINUOUS
 10
370.0
 20
574.57069603103434
 30
0.0
  0
VERTEX
  5
2BB1
  8
0
  6
CONTINUOUS
 10
390.0
 20
574.57069603103434
 30
0.0
  0
SEQEND
  5
2BB2
  8
0
  6
CONTINUOUS
  0
ENDBLK
  5
2BB4
  8
0
  0
BLOCK
  8
0
  2
*U50
 70
     1
 10
0.0
 20
0.0
 30
0.0
  3
*U50
  1

  0
TEXT
  5
2BB6
  8
0
  6
CONTINUOUS
 10
399.34515688949517
 20
581.40107347532728
 30
0.0
 40
20.0
  1
Thermax B Thermal
  7
ARIAL
  0
TEXT
  5
2BB7
  8
0
  6
CONTINUOUS
 10
398.17189631650751
 20
548.06774014199391
 30
0.0
 40
20.0
  1
break
  7
ARIAL
  0
ENDBLK
  5
2BB9
  8
0
  0
BLOCK
  8
0
  2
*U51
 70
     1
 10
0.0
 20
0.0
 30
0.0
  3
*U51
  1

  0
SOLID
  5
2BBB
  8
0
  6
CONTINUOUS
 10
-179.9189174323653
 20
-662.33317685251473
 30
0.0
 11
-164.99180972900831
 21
-676.05515071648517
 31
0.0
 12
-183.56241664752559
 22
-667.91612928949382
 32
0.0
 13
-183.56241664752559
 23
-667.91612928949382
 33
0.0
  0
POLYLINE
  5
2BBC
  8
0
  6
CONTINUOUS
 66
     1
 10
0.0
 20
0.0
 30
0.0
  0
VERTEX
  5
2BBD
  8
0
  6
CONTINUOUS
 10
-181.74066703994549
 20
-665.12465307100422
 30
0.0
  0
VERTEX
  5
2BBE
  8
0
  6
CONTINUOUS
 10
-320.0
 20
-574.89501618713166
 30
0.0
  0
VERTEX
  5
2BBF
  8
0
  6
CONTINUOUS
 10
-340.0
 20
-574.89501618713166
 30
0.0
  0
SEQEND
  5
2BC0
  8
0
  6
CONTINUOUS
  0
ENDBLK
  5
2BC2
  8
0
  0
BLOCK
  8
0
  2
*U52
 70
     1
 10
0.0
 20
0.0
 30
0.0
  3
*U52
  1

  0
TEXT
  5
2BC4
  8
0
  6
CONTINUOUS
 10
-594.21555252387452
 20
-565.28837680559457
 30
0.0
 40
20.0
  1
Steel & Tube Hi Rib
  7
ARIAL
  0
TEXT
  5
2BC5
  8
0
  6
CONTINUOUS
 10
-517.42155525238741
 20
-598.96277425898245
 30
0.0
 40
20.0
  1
profile roofing
  7
ARIAL
  0
ENDBLK
  5
2BC7
  8
0
  0
BLOCK
  8
0
  2
*U53
 70
     1
 10
0.0
 20
0.0
 30
0.0
  3
*U53
  1

  0
SOLID
  5
2BC9
  8
0
  6
CONTINUOUS
 10
39.426562996679479
 20
-725.09095703123194
 30
0.0
 11
21.172549241811101
 21
-733.91717326176854
 31
0.0
 12
35.577302935161228
 22
-719.64782912319549
 32
0.0
 13
35.577302935161228
 23
-719.64782912319549
 33
0.0
  0
POLYLINE
  5
2BCA
  8
0
  6
CONTINUOUS
 66
     1
 10
0.0
 20
0.0
 30
0.0
  0
VERTEX
  5
2BCB
  8
0
  6
CONTINUOUS
 10
37.501932965920361
 20
-722.36939307721366
 30
0.0
  0
VERTEX
  5
2BCC
  8
0
  6
CONTINUOUS
 10
370.0
 20
-487.23409006942347
 30
0.0
  0
VERTEX
  5
2BCD
  8
0
  6
CONTINUOUS
 10
390.0
 20
-487.23409006942347
 30
0.0
  0
SEQEND
  5
2BCE
  8
0
  6
CONTINUOUS
  0
ENDBLK
  5
2BD0
  8
0
  0
BLOCK
  8
0
  2
*U54
 70
     1
 10
0.0
 20
0.0
 30
0.0
  3
*U54
  1

  0
TEXT
  5
2BD2
  8
0
  6
CONTINUOUS
 10
398.60845839017742
 20
-494.62836019220663
 30
0.0
 40
20.0
  1
Clip
  7
ARIAL
  0
ENDBLK
  5
2BD4
  8
0
  0
BLOCK
  8
0
  2
*U55
 70
     1
 10
0.0
 20
0.0
 30
0.0
  3
*U55
  1

  0
SOLID
  5
2BD6
  8
0
  6
CONTINUOUS
 10
33.675258136203801
 20
-746.05045671550545
 30
0.0
 11
14.39570478932619
 21
-752.32818989365273
 31
0.0
 12
30.597098546162641
 22
-740.13696553155296
 32
0.0
 13
30.597098546162641
 23
-740.13696553155296
 33
0.0
  0
POLYLINE
  5
2BD7
  8
0
  6
CONTINUOUS
 66
     1
 10
0.0
 20
0.0
 30
0.0
  0
VERTEX
  5
2BD8
  8
0
  6
CONTINUOUS
 10
32.136178341183232
 20
-743.09371112352926
 30
0.0
  0
VERTEX
  5
2BD9
  8
0
  6
CONTINUOUS
 10
370.0
 20
-567.22488331681404
 30
0.0
  0
VERTEX
  5
2BDA
  8
0
  6
CONTINUOUS
 10
390.0
 20
-567.22488331681404
 30
0.0
  0
SEQEND
  5
2BDB
  8
0
  6
CONTINUOUS
  0
ENDBLK
  5
2BDD
  8
0
  0
BLOCK
  8
0
  2
*U56
 70
     1
 10
0.0
 20
0.0
 30
0.0
  3
*U56
  1

  0
TEXT
  5
2BDF
  8
0
  6
CONTINUOUS
 10
399.34515688949517
 20
-560.39450587252134
 30
0.0
 40
20.0
  1
Thermax B Thermal
  7
ARIAL
  0
TEXT
  5
2BE0
  8
0
  6
CONTINUOUS
 10
398.17189631650751
 20
-593.72783920585471
 30
0.0
 40
20.0
  1
break
  7
ARIAL
  0
ENDBLK
  5
2BE2
  8
0
  0
BLOCK
  8
0
  2
*U57
 70
     1
 10
0.0
 20
0.0
 30
0.0
  3
*U57
  1

  0
SOLID
  5
2BE4
  8
0
  6
CONTINUOUS
 10
14.06193741403464
 20
-868.75181469432403
 30
0.0
 11
-6.1676234465350461
 21
-870.12147833902588
 31
0.0
 12
12.52423240166809
 22
-862.26491190952845
 32
0.0
 13
12.52423240166809
 23
-862.26491190952845
 33
0.0
  0
POLYLINE
  5
2BE5
  8
0
  6
CONTINUOUS
 66
     1
 10
0.0
 20
0.0
 30
0.0
  0
VERTEX
  5
2BE6
  8
0
  6
CONTINUOUS
 10
13.293084907851361
 20
-865.50836330192635
 30
0.0
  0
VERTEX
  5
2BE7
  8
0
  6
CONTINUOUS
 10
390.0
 20
-776.21087715983936
 30
0.0
  0
SEQEND
  5
2BE8
  8
0
  6
CONTINUOUS
  0
ENDBLK
  5
2BEA
  8
0
  0
BLOCK
  8
0
  2
*U58
 70
     1
 10
0.0
 20
0.0
 30
0.0
  3
*U58
  1

  0
TEXT
  5
2BEC
  8
0
  6
CONTINUOUS
 10
399.44065484311051
 20
-783.43461522259508
 30
0.0
 40
20.0
  1
Z purlin
  7
ARIAL
  0
ENDBLK
  5
2BEE
  8
0
  0
BLOCK
  8
0
  2
*U59
 70
     1
 10
0.0
 20
0.0
 30
0.0
  3
*U59
  1

  0
TEXT
  5
2BF0
  8
0
  6
CONTINUOUS
 10
-757.26994019691836
 20
-448.48304501243717
 30
0.0
 40
35.0
  1
Intermediate Purlins
  7
ARIAL
  0
ENDBLK
  5
2BF2
  8
0
  0
BLOCK
  8
0
  2
*U60
 70
     1
 10
0.0
 20
0.0
 30
0.0
  3
*U60
  1

  0
TEXT
  5
2BF4
  8
0
  6
CONTINUOUS
 10
-753.85588835517217
 20
-1708.0047502336499
 30
0.0
 40
35.0
  1
Top and Bottom Purlins
  7
ARIAL
  0
ENDBLK
  5
2BF6
  8
0
  0
BLOCK
  8
0
  2
*U61
 70
     1
 10
0.0
 20
0.0
 30
0.0
  3
*U61
  1

  0
SOLID
  5
2C1E
  8
0
  6
CONTINUOUS
 10
277.70710908879113
 20
-851.31121090600379
 30
0.0
 11
262.50414608732717
 21
-837.89551013834978
 31
0.0
 12
281.23636539173492
 22
-845.65534718835852
 32
0.0
 13
281.23636539173492
 23
-845.65534718835852
 33
0.0
  0
POLYLINE
  5
2C1F
  8
0
  6
CONTINUOUS
 66
     1
 10
0.0
 20
0.0
 30
0.0
  0
VERTEX
  5
2C20
  8
0
  6
CONTINUOUS
 10
279.47173724026288
 20
-848.4832790471811
 30
0.0
  0
VERTEX
  5
2C21
  8
0
  6
CONTINUOUS
 10
370.0
 20
-904.97287248320731
 30
0.0
  0
VERTEX
  5
2C22
  8
0
  6
CONTINUOUS
 10
390.0
 20
-904.97287248320731
 30
0.0
  0
SEQEND
  5
2C23
  8
0
  6
CONTINUOUS
  0
ENDBLK
  5
2C25
  8
0
  0
BLOCK
  8
0
  2
*U62
 70
     1
 10
0.0
 20
0.0
 30
0.0
  3
*U62
  1

  0
TEXT
  5
2C27
  8
0
  6
CONTINUOUS
 10
399.18144611186909
 20
-912.03289976833685
 30
0.0
 40
20.0
  1
20mm air gap
  7
ARIAL
  0
ENDBLK
  5
2C29
  8
0
  0
BLOCK
  8
0
  2
*U63
 70
     1
 10
0.0
 20
0.0
 30
0.0
  3
*U63
  1

  0
SOLID
  5
2C2B
  8
0
  6
CONTINUOUS
 10
278.00779453858701
 20
398.3560231040708
 30
0.0
 11
262.10072314181269
 21
410.92885853165171
 31
0.0
 12
281.22562919635521
 22
404.19468601262349
 32
0.0
 13
281.22562919635521
 23
404.19468601262349
 33
0.0
  0
POLYLINE
  5
2C2C
  8
0
  6
CONTINUOUS
 66
     1
 10
0.0
 20
0.0
 30
0.0
  0
VERTEX
  5
2C2D
  8
0
  6
CONTINUOUS
 10
279.61671186747111
 20
401.27535455834709
 30
0.0
  0
VERTEX
  5
2C2E
  8
0
  6
CONTINUOUS
 10
369.59657705448552
 20
351.68517728060942
 30
0.0
  0
VERTEX
  5
2C2F
  8
0
  6
CONTINUOUS
 10
389.59657705448552
 20
351.68517728060942
 30
0.0
  0
SEQEND
  5
2C30
  8
0
  6
CONTINUOUS
  0
ENDBLK
  5
2C32
  8
0
  0
BLOCK
  8
0
  2
*U64
 70
     1
 10
0.0
 20
0.0
 30
0.0
  3
*U64
  1

  0
TEXT
  5
2C34
  8
0
  6
CONTINUOUS
 10
398.77802316635461
 20
344.62514999547977
 30
0.0
 40
20.0
  1
20mm air gap
  7
ARIAL
  0
ENDBLK
  5
2C36
  8
0
  0
ENDSEC
  0
SECTION
  2
ENTITIES
  0
LINE
  5
35D
  8
0
  6
CONTINUOUS
 10
176.05392991984209
 20
-36.820746542246418
 30
0.0
 11
-238.49235685802529
 21
74.256596225203694
 31
0.0
  0
LINE
  5
35F
  8
0
  6
CONTINUOUS
 10
-25.57431203891975
 20
335.21906330521279
 30
0.0
 11
-105.0777333497462
 21
38.508255597657808
 31
0.0
  0
LINE
  5
3D0
  8
0
  6
CONTINUOUS
 10
-25.57431203891975
 20
335.21906330521279
 30
0.0
 11
-19.778757081185169
 21
333.66614903459782
 31
0.0
  0
LINE
  5
3D1
  8
0
  6
CONTINUOUS
 10
-19.778757081185169
 20
333.66614903459782
 30
0.0
 11
-99.282178392011701
 21
36.955341327042788
 31
0.0
  0
LINE
  5
3D4
  8
0
  6
CONTINUOUS
 10
256.3548211997267
 20
262.86625960736569
 30
0.0
 11
-158.19146557814071
 21
373.94360237481578
 31
0.0
  0
LINE
  5
3D5
  8
0
  6
CONTINUOUS
 10
256.87245928993173
 20
264.79811125994382
 30
0.0
 11
-157.6738274879356
 21
375.87545402739403
 31
0.0
  0
LINE
  5
3D6
  8
0
  6
DASHED
 10
296.73059223572068
 20
413.55068850846038
 30
0.0
 11
-117.8156945421467
 21
524.62803127591053
 31
0.0
  0
LINE
  5
3D7
  8
0
  6
CONTINUOUS
 10
299.39768084003111
 20
423.50439868803483
 30
0.0
 11
-115.14860593783629
 21
534.58174145548492
 31
0.0
  0
LINE
  5
3E6
  8
0
  6
CONTINUOUS
 10
311.40688453278801
 20
468.32335702784673
 30
0.0
 11
-103.13940224507949
 21
579.40069979529665
 31
0.0
  0
LINE
  5
3EA
  8
0
  6
CONTINUOUS
 10
72.526311878832075
 20
-423.1910770578732
 30
0.0
 11
-342.01997489903528
 21
-312.11373429042311
 31
0.0
  0
LINE
  5
3EB
  8
0
  6
CONTINUOUS
 10
173.46573946881679
 20
-46.480004805136879
 30
0.0
 11
-241.0805473090505
 21
64.597337962313262
 31
0.0
  0
LINE
  5
3EC
  8
0
  6
CONTINUOUS
 10
75.114502329857316
 20
-413.53181879498271
 30
0.0
 11
-339.43178444801009
 21
-302.45447602753262
 31
0.0
  0
POLYLINE
  5
459
  8
0
  6
CONTINUOUS
 66
     1
 10
0.0
 20
0.0
 30
0.0
  0
VERTEX
  5
2A97
  8
0
  6
CONTINUOUS
 10
-52.866528886528663
 20
767.02161741188036
 30
0.0
  0
VERTEX
  5
2A98
  8
0
  6
CONTINUOUS
 10
-202.2049644574727
 20
209.68298833827569
 30
0.0
  0
VERTEX
  5
2A99
  8
0
  6
CONTINUOUS
 10
-245.89514108302319
 20
205.8605931760853
 30
0.0
  0
VERTEX
  5
2A9A
  8
0
  6
CONTINUOUS
 10
-174.04393053808971
 20
155.54983392307119
 30
0.0
  0
VERTEX
  5
2A9B
  8
0
  6
CONTINUOUS
 10
-217.7341071636184
 20
151.72743876093
 30
0.0
  0
VERTEX
  5
2A9C
  8
0
  6
CONTINUOUS
 10
-367.07254273456238
 20
-405.6111903126743
 30
0.0
  0
SEQEND
  5
2A9D
  8
0
  6
CONTINUOUS
  0
POLYLINE
  5
45B
  8
0
  6
CONTINUOUS
 66
     1
 10
0.0
 20
0.0
 30
0.0
  0
VERTEX
  5
2A9E
  8
0
  6
CONTINUOUS
 10
361.30711207083448
 20
654.55354150908045
 30
0.0
  0
VERTEX
  5
2A9F
  8
0
  6
CONTINUOUS
 10
211.96867649989051
 20
97.214912435475696
 30
0.0
  0
VERTEX
  5
2AA0
  8
0
  6
CONTINUOUS
 10
168.2784998743399
 20
93.392517273285364
 30
0.0
  0
VERTEX
  5
2AA1
  8
0
  6
CONTINUOUS
 10
240.12971041927349
 20
43.081758020271252
 30
0.0
  0
VERTEX
  5
2AA2
  8
0
  6
CONTINUOUS
 10
196.4395337937448
 20
39.259362858130032
 30
0.0
  0
VERTEX
  5
2AA3
  8
0
  6
CONTINUOUS
 10
47.101098222800772
 20
-518.07926621547415
 30
0.0
  0
SEQEND
  5
2AA4
  8
0
  6
CONTINUOUS
  0
LINE
  5
5A7
  8
0
  6
CONTINUOUS
 10
176.45735286535671
 20
-1280.4978958967861
 30
0.0
 11
-312.0478510575328
 21
-1149.6033210072469
 31
0.0
  0
LINE
  5
5A8
  8
0
  6
CONTINUOUS
 10
4.4716427502435181
 20
-796.2169593617931
 30
0.0
 11
-105.0777333497462
 21
-1205.0607969044229
 31
0.0
  0
LINE
  5
5AB
  8
0
  6
CONTINUOUS
 10
4.4716427502435181
 20
-796.2169593617931
 30
0.0
 11
10.267197707978079
 21
-797.76987363240823
 31
0.0
  0
LINE
  5
5AC
  8
0
  6
CONTINUOUS
 10
10.267197707978079
 20
-797.76987363240823
 30
0.0
 11
-99.282178392011701
 21
-1206.6137111750379
 31
0.0
  0
LINE
  5
5AD
  8
0
  6
CONTINUOUS
 10
256.75824414524129
 20
-980.81088974717375
 30
0.0
 11
-231.74695977764819
 21
-849.9163148576348
 31
0.0
  0
LINE
  5
5AE
  8
0
  6
CONTINUOUS
 10
257.27588223544632
 20
-978.87903809459556
 30
0.0
 11
-231.2293216874431
 21
-847.98446320505661
 31
0.0
  0
LINE
  5
5AF
  8
0
  6
DASHED
 10
297.13401518123521
 20
-830.12646084607945
 30
0.0
 11
-191.37118874165429
 21
-699.23188595654017
 31
0.0
  0
LINE
  5
5B0
  8
0
  6
CONTINUOUS
 10
299.80110378554548
 20
-820.17275066650507
 30
0.0
 11
-188.70410013734389
 21
-689.27817577696601
 31
0.0
  0
LINE
  5
5B1
  8
0
  6
CONTINUOUS
 10
311.81030747830238
 20
-775.35379232669334
 30
0.0
 11
-176.69489644458699
 21
-644.45921743715428
 31
0.0
  0
LINE
  5
5B2
  8
0
  6
CONTINUOUS
 10
72.929734824346667
 20
-1666.8682264124129
 30
0.0
 11
-415.57546909854278
 21
-1535.973651522874
 31
0.0
  0
LINE
  5
5B3
  8
0
  6
CONTINUOUS
 10
173.8691624143315
 20
-1290.1571541596761
 30
0.0
 11
-314.63604150855792
 21
-1159.2625792701369
 31
0.0
  0
LINE
  5
5B4
  8
0
  6
CONTINUOUS
 10
75.517925275371852
 20
-1657.208968149522
 30
0.0
 11
-412.9872786475176
 21
-1526.314393259983
 31
0.0
  0
POLYLINE
  5
5B5
  8
0
  6
CONTINUOUS
 66
     1
 10
0.0
 20
0.0
 30
0.0
  0
VERTEX
  5
2AA5
  8
0
  6
CONTINUOUS
 10
-126.4220230860365
 20
-456.83829982057131
 30
0.0
  0
VERTEX
  5
2AA6
  8
0
  6
CONTINUOUS
 10
-275.76045865698057
 20
-1014.1769288941759
 30
0.0
  0
VERTEX
  5
2AA7
  8
0
  6
CONTINUOUS
 10
-319.4506352825311
 20
-1017.999324056366
 30
0.0
  0
VERTEX
  5
2AA8
  8
0
  6
CONTINUOUS
 10
-247.5994247375975
 20
-1068.3100833093811
 30
0.0
  0
VERTEX
  5
2AA9
  8
0
  6
CONTINUOUS
 10
-291.28960136312622
 20
-1072.1324784715221
 30
0.0
  0
VERTEX
  5
2AAA
  8
0
  6
CONTINUOUS
 10
-440.62803693407022
 20
-1629.471107545126
 30
0.0
  0
SEQEND
  5
2AAB
  8
0
  6
CONTINUOUS
  0
POLYLINE
  5
5B6
  8
0
  6
CONTINUOUS
 66
     1
 10
0.0
 20
0.0
 30
0.0
  0
VERTEX
  5
2AAC
  8
0
  6
CONTINUOUS
 10
361.71053501634941
 20
-589.12360784545785
 30
0.0
  0
VERTEX
  5
2AAD
  8
0
  6
CONTINUOUS
 10
212.3720994454053
 20
-1146.462236919062
 30
0.0
  0
VERTEX
  5
2AAE
  8
0
  6
CONTINUOUS
 10
168.6819228198548
 20
-1150.284632081253
 30
0.0
  0
VERTEX
  5
2AAF
  8
0
  6
CONTINUOUS
 10
240.5331333647884
 20
-1200.5953913342671
 30
0.0
  0
VERTEX
  5
2AB0
  8
0
  6
CONTINUOUS
 10
196.84295673925971
 20
-1204.4177864964081
 30
0.0
  0
VERTEX
  5
2AB1
  8
0
  6
CONTINUOUS
 10
47.504521168315641
 20
-1761.756415570012
 30
0.0
  0
SEQEND
  5
2AB2
  8
0
  6
CONTINUOUS
  0
LINE
  5
775
  8
0
  6
BYBLOCK
 10
-93.155909087413406
 20
83.001109463590169
 30
0.0
 11
-83.577860240235154
 21
80.434679009922533
 31
0.0
  0
LINE
  5
776
  8
0
  6
BYBLOCK
 10
-96.261737628643473
 20
71.409999548121505
 30
0.0
 11
-86.683688781465207
 21
68.843569094453855
 31
0.0
  0
LINE
  5
779
  8
0
  6
BYBLOCK
 10
-31.972936222236061
 20
311.33907275453981
 30
0.0
 11
-22.394887375057809
 21
308.77264230087212
 31
0.0
  0
LINE
  5
77A
  8
0
  6
BYBLOCK
 10
-35.078764763466097
 20
299.74796283907108
 30
0.0
 11
-25.500715916287849
 21
297.18153238540339
 31
0.0
  0
LINE
  5
77D
  8
0
  6
BYBLOCK
 10
-93.155909087413406
 20
-1160.567943038491
 30
0.0
 11
-83.577860240235154
 21
-1163.1343734921579
 31
0.0
  0
LINE
  5
77E
  8
0
  6
BYBLOCK
 10
-96.261737628643473
 20
-1172.159052953959
 30
0.0
 11
-86.683688781465207
 21
-1174.7254834076271
 31
0.0
  0
LINE
  5
781
  8
0
  6
BYBLOCK
 10
-31.972936222236061
 20
-932.22997974754105
 30
0.0
 11
-22.394887375057809
 21
-934.7964102012088
 31
0.0
  0
LINE
  5
782
  8
0
  6
BYBLOCK
 10
-35.078764763466097
 20
-943.82108966300973
 30
0.0
 11
-25.500715916287849
 21
-946.38752011667748
 31
0.0
  0
LINE
  5
785
  8
0
  6
BYBLOCK
 10
-2.6883194643696688
 20
-822.93830212700425
 30
0.0
 11
6.8897293828085822
 21
-825.50473258067188
 31
0.0
  0
LINE
  5
786
  8
0
  6
BYBLOCK
 10
-5.7941480055997081
 20
-834.52941204247304
 30
0.0
 11
3.783900841578542
 21
-837.09584249614056
 31
0.0
  0
INSERT
  5
82F
  8
0
  6
CONTINUOUS
  2
*U11
 10
0.0
 20
0.0
 30
0.0
1001
ACAD
1000
DSTYLE
1002
{
1070
   147
1040
1.0
1070
    77
1070
     0
1002
}
  0
INSERT
  5
830
  8
0
  6
CONTINUOUS
  2
*U12
 10
0.0
 20
0.0
 30
0.0
  0
INSERT
  5
831
  8
0
  6
CONTINUOUS
  2
*U13
 10
0.0
 20
0.0
 30
0.0
1001
ACAD
1000
DSTYLE
1002
{
1070
   147
1040
1.0
1070
    77
1070
     0
1002
}
  0
INSERT
  5
832
  8
0
  6
CONTINUOUS
  2
*U14
 10
0.0
 20
0.0
 30
0.0
  0
INSERT
  5
833
  8
0
  6
CONTINUOUS
  2
*U15
 10
0.0
 20
0.0
 30
0.0
1001
ACAD
1000
DSTYLE
1002
{
1070
   147
1040
1.0
1070
    77
1070
     0
1002
}
  0
INSERT
  5
834
  8
0
  6
CONTINUOUS
  2
*U16
 10
0.0
 20
0.0
 30
0.0
  0
INSERT
  5
835
  8
0
  6
CONTINUOUS
  2
*U17
 10
0.0
 20
0.0
 30
0.0
1001
ACAD
1000
DSTYLE
1002
{
1070
   147
1040
1.0
1070
    77
1070
     0
1002
}
  0
INSERT
  5
836
  8
0
  6
CONTINUOUS
  2
*U18
 10
0.0
 20
0.0
 30
0.0
  0
INSERT
  5
837
  8
0
  6
CONTINUOUS
  2
*U19
 10
0.0
 20
0.0
 30
0.0
1001
ACAD
1000
DSTYLE
1002
{
1070
   147
1040
1.0
1070
    77
1070
     0
1002
}
  0
INSERT
  5
838
  8
0
  6
CONTINUOUS
  2
*U20
 10
0.0
 20
0.0
 30
0.0
  0
INSERT
  5
83C
  8
0
  6
CONTINUOUS
  2
*U21
 10
0.0
 20
0.0
 30
0.0
1001
ACAD
1000
DSTYLE
1002
{
1070
   147
1040
1.0
1070
    77
1070
     0
1002
}
  0
INSERT
  5
83D
  8
0
  6
CONTINUOUS
  2
*U22
 10
0.0
 20
0.0
 30
0.0
  0
INSERT
  5
83E
  8
0
  6
CONTINUOUS
  2
*U23
 10
0.0
 20
0.0
 30
0.0
1001
ACAD
1000
DSTYLE
1002
{
1070
   147
1040
1.0
1070
    77
1070
     0
1002
}
  0
INSERT
  5
83F
  8
0
  6
CONTINUOUS
  2
*U24
 10
0.0
 20
0.0
 30
0.0
  0
INSERT
  5
842
  8
0
  6
CONTINUOUS
  2
*U25
 10
0.0
 20
0.0
 30
0.0
1001
ACAD
1000
DSTYLE
1002
{
1070
   147
1040
1.0
1070
    77
1070
     0
1002
}
  0
INSERT
  5
843
  8
0
  6
CONTINUOUS
  2
*U26
 10
0.0
 20
0.0
 30
0.0
  0
INSERT
  5
844
  8
0
  6
CONTINUOUS
  2
*U27
 10
0.0
 20
0.0
 30
0.0
1001
ACAD
1000
DSTYLE
1002
{
1070
   147
1040
1.0
1070
    77
1070
     0
1002
}
  0
INSERT
  5
845
  8
0
  6
CONTINUOUS
  2
*U28
 10
0.0
 20
0.0
 30
0.0
  0
INSERT
  5
84A
  8
0
  6
CONTINUOUS
  2
*U29
 10
0.0
 20
0.0
 30
0.0
1001
ACAD
1000
DSTYLE
1002
{
1070
   147
1040
1.0
1070
    77
1070
     0
1002
}
  0
INSERT
  5
84B
  8
0
  6
CONTINUOUS
  2
*U30
 10
0.0
 20
0.0
 30
0.0
  0
INSERT
  5
84C
  8
0
  6
CONTINUOUS
  2
*U31
 10
0.0
 20
0.0
 30
0.0
1001
ACAD
1000
DSTYLE
1002
{
1070
   147
1040
1.0
1070
    77
1070
     0
1002
}
  0
INSERT
  5
84D
  8
0
  6
CONTINUOUS
  2
*U32
 10
0.0
 20
0.0
 30
0.0
  0
INSERT
  5
84E
  8
0
  6
CONTINUOUS
  2
*U33
 10
0.0
 20
0.0
 30
0.0
1001
ACAD
1000
DSTYLE
1002
{
1070
   147
1040
1.0
1070
    77
1070
     0
1002
}
  0
INSERT
  5
84F
  8
0
  6
CONTINUOUS
  2
*U34
 10
0.0
 20
0.0
 30
0.0
  0
INSERT
  5
850
  8
0
  6
CONTINUOUS
  2
*U35
 10
0.0
 20
0.0
 30
0.0
1001
ACAD
1000
DSTYLE
1002
{
1070
   147
1040
1.0
1070
    77
1070
     0
1002
}
  0
INSERT
  5
851
  8
0
  6
CONTINUOUS
  2
*U36
 10
0.0
 20
0.0
 30
0.0
  0
INSERT
  5
852
  8
0
  6
CONTINUOUS
  2
*U37
 10
0.0
 20
0.0
 30
0.0
1001
ACAD
1000
DSTYLE
1002
{
1070
   147
1040
1.0
1070
    77
1070
     0
1002
}
  0
INSERT
  5
853
  8
0
  6
CONTINUOUS
  2
*U38
 10
0.0
 20
0.0
 30
0.0
  0
INSERT
  5
854
  8
0
  6
CONTINUOUS
  2
*U39
 10
0.0
 20
0.0
 30
0.0
1001
ACAD
1000
DSTYLE
1002
{
1070
   147
1040
1.0
1070
    77
1070
     0
1002
}
  0
INSERT
  5
855
  8
0
  6
CONTINUOUS
  2
*U40
 10
0.0
 20
0.0
 30
0.0
  0
INSERT
  5
856
  8
0
  6
CONTINUOUS
  2
*U41
 10
0.0
 20
0.0
 30
0.0
1001
ACAD
1000
DSTYLE
1002
{
1070
   147
1040
1.0
1070
    77
1070
     0
1002
}
  0
INSERT
  5
857
  8
0
  6
CONTINUOUS
  2
*U42
 10
0.0
 20
0.0
 30
0.0
  0
INSERT
  5
858
  8
0
  6
CONTINUOUS
  2
*U43
 10
0.0
 20
0.0
 30
0.0
1001
ACAD
1000
DSTYLE
1002
{
1070
   147
1040
1.0
1070
    77
1070
     0
1002
}
  0
INSERT
  5
859
  8
0
  6
CONTINUOUS
  2
*U44
 10
0.0
 20
0.0
 30
0.0
  0
INSERT
  5
85A
  8
0
  6
CONTINUOUS
  2
*U45
 10
0.0
 20
0.0
 30
0.0
1001
ACAD
1000
DSTYLE
1002
{
1070
   147
1040
1.0
1070
    77
1070
     0
1002
}
  0
INSERT
  5
85B
  8
0
  6
CONTINUOUS
  2
*U46
 10
0.0
 20
0.0
 30
0.0
  0
INSERT
  5
8C1
  8
0
  6
CONTINUOUS
  2
*U47
 10
0.0
 20
0.0
 30
0.0
1001
ACAD
1000
DSTYLE
1002
{
1070
   147
1040
1.0
1070
    77
1070
     0
1002
}
  0
INSERT
  5
8C2
  8
0
  6
CONTINUOUS
  2
*U48
 10
0.0
 20
0.0
 30
0.0
  0
INSERT
  5
8C3
  8
0
  6
CONTINUOUS
  2
*U49
 10
0.0
 20
0.0
 30
0.0
1001
ACAD
1000
DSTYLE
1002
{
1070
   147
1040
1.0
1070
    77
1070
     0
1002
}
  0
INSERT
  5
8C4
  8
0
  6
CONTINUOUS
  2
*U50
 10
0.0
 20
0.0
 30
0.0
  0
INSERT
  5
8C5
  8
0
  6
CONTINUOUS
  2
*U51
 10
0.0
 20
0.0
 30
0.0
1001
ACAD
1000
DSTYLE
1002
{
1070
   147
1040
1.0
1070
    77
1070
     0
1002
}
  0
INSERT
  5
8C6
  8
0
  6
CONTINUOUS
  2
*U52
 10
0.0
 20
0.0
 30
0.0
  0
INSERT
  5
8C7
  8
0
  6
CONTINUOUS
  2
*U53
 10
0.0
 20
0.0
 30
0.0
1001
ACAD
1000
DSTYLE
1002
{
1070
   147
1040
1.0
1070
    77
1070
     0
1002
}
  0
INSERT
  5
8C8
  8
0
  6
CONTINUOUS
  2
*U54
 10
0.0
 20
0.0
 30
0.0
  0
INSERT
  5
8C9
  8
0
  6
CONTINUOUS
  2
*U55
 10
0.0
 20
0.0
 30
0.0
1001
ACAD
1000
DSTYLE
1002
{
1070
   147
1040
1.0
1070
    77
1070
     0
1002
}
  0
INSERT
  5
8CA
  8
0
  6
CONTINUOUS
  2
*U56
 10
0.0
 20
0.0
 30
0.0
  0
INSERT
  5
A3E
  8
0
  6
CONTINUOUS
  2
*U57
 10
0.0
 20
0.0
 30
0.0
1001
ACAD
1000
DSTYLE
1002
{
1070
   147
1040
1.0
1070
    77
1070
     0
1002
}
  0
INSERT
  5
A3F
  8
0
  6
CONTINUOUS
  2
*U58
 10
0.0
 20
0.0
 30
0.0
  0
INSERT
  5
BC9
  8
0
  6
CONTINUOUS
  2
*U59
 10
0.0
 20
0.0
 30
0.0
  0
INSERT
  5
BCA
  8
0
  6
CONTINUOUS
  2
*U60
 10
0.0
 20
0.0
 30
0.0
  0
POLYLINE
  5
15BB
  8
0
  6
CONTINUOUS
 66
     1
 10
0.0
 20
0.0
 30
0.0
  0
VERTEX
  5
2C07
  8
0
  6
CONTINUOUS
 10
229.70641781697731
 20
279.32416339704241
 30
0.0
 42
0.4950997843158689
  0
VERTEX
  5
2C08
  8
0
  6
CONTINUOUS
 10
259.91760114025431
 20
302.65718182334081
 30
0.0
  0
VERTEX
  5
2C09
  8
0
  6
CONTINUOUS
 10
259.7244479174646
 20
333.39742729784871
 30
0.0
  0
VERTEX
  5
2C0A
  8
0
  6
CONTINUOUS
 10
259.53129469467478
 20
364.13767277234899
 30
0.0
 42
-0.4950997843158748
  0
VERTEX
  5
2C0B
  8
0
  6
CONTINUOUS
 10
289.74247801795229
 20
387.47069119865489
 30
0.0
  0
SEQEND
  5
2C0C
  8
0
  6
CONTINUOUS
  0
POLYLINE
  5
15BC
  8
0
  6
CONTINUOUS
 66
     1
 10
0.0
 20
0.0
 30
0.0
  0
VERTEX
  5
2C0D
  8
0
  6
CONTINUOUS
 10
-124.8068166772417
 20
498.536808265817
 30
0.0
 42
-0.5048249999531405
  0
VERTEX
  5
2C0E
  8
0
  6
CONTINUOUS
 10
-109.5853147214002
 20
463.04217017830013
 30
0.0
  0
VERTEX
  5
2C0F
  8
0
  6
CONTINUOUS
 10
-140.66011139142179
 20
409.99165640210953
 30
0.0
 42
0.4950997843158689
  0
VERTEX
  5
2C10
  8
0
  6
CONTINUOUS
 10
-126.1629683682244
 20
374.6790780363263
 30
0.0
  0
SEQEND
  5
2C11
  8
0
  6
CONTINUOUS
  0
POLYLINE
  5
15D1
  8
0
  6
CONTINUOUS
 66
     1
 10
0.0
 20
0.0
 30
0.0
  0
VERTEX
  5
2C12
  8
0
  6
CONTINUOUS
 10
228.96032955278119
 20
-964.04497535716484
 30
0.0
 42
0.4950997843158689
  0
VERTEX
  5
2C13
  8
0
  6
CONTINUOUS
 10
259.17151287605822
 20
-940.71195693086634
 30
0.0
  0
VERTEX
  5
2C14
  8
0
  6
CONTINUOUS
 10
258.97835965326863
 20
-909.97171145635855
 30
0.0
  0
VERTEX
  5
2C15
  8
0
  6
CONTINUOUS
 10
258.78520643047869
 20
-879.23146598185815
 30
0.0
 42
-0.5106374602818345
  0
VERTEX
  5
2C16
  8
0
  6
CONTINUOUS
 10
290.13825977235967
 20
-856.23497546932697
 30
0.0
  0
SEQEND
  5
2C17
  8
0
  6
CONTINUOUS
  0
POLYLINE
  5
15D2
  8
0
  6
CONTINUOUS
 66
     1
 10
0.0
 20
0.0
 30
0.0
  0
VERTEX
  5
2C18
  8
0
  6
CONTINUOUS
 10
-198.36231087674921
 20
-725.32310896663375
 30
0.0
 42
-0.5048249999531405
  0
VERTEX
  5
2C19
  8
0
  6
CONTINUOUS
 10
-183.14080892090769
 20
-760.81774705415046
 30
0.0
  0
VERTEX
  5
2C1A
  8
0
  6
CONTINUOUS
 10
-214.21560559092941
 20
-813.868260830341
 30
0.0
 42
0.4950997843158689
  0
VERTEX
  5
2C1B
  8
0
  6
CONTINUOUS
 10
-199.7184625677319
 20
-849.18083919612445
 30
0.0
  0
SEQEND
  5
2C1C
  8
0
  6
CONTINUOUS
  0
INSERT
  5
15D4
  8
0
  6
CONTINUOUS
  2
*U61
 10
0.0
 20
0.0
 30
0.0
1001
ACAD
1000
DSTYLE
1002
{
1070
   147
1040
1.0
1070
    77
1070
     0
1002
}
  0
INSERT
  5
15D5
  8
0
  6
CONTINUOUS
  2
*U62
 10
0.0
 20
0.0
 30
0.0
  0
INSERT
  5
15D7
  8
0
  6
CONTINUOUS
  2
*U63
 10
0.0
 20
0.0
 30
0.0
1001
ACAD
1000
DSTYLE
1002
{
1070
   147
1040
1.0
1070
    77
1070
     0
1002
}
  0
INSERT
  5
15D8
  8
0
  6
CONTINUOUS
  2
*U64
 10
0.0
 20
0.0
 30
0.0
  0
ARC
  5
284E
  8
0
  6
CONTINUOUS
 10
224.8291830939512
 20
-863.55152468033839
 30
0.0
 40
24.000000000000011
 50
329.639992503207
 51
180.360007496793
  0
ARC
  5
284F
  8
0
  6
CONTINUOUS
 10
235.17198663524169
 20
-940.86275552622703
 30
0.0
 40
24.000000000000011
 50
149.63999250320691
 51
255.0
  0
LINE
  5
2850
  8
0
  6
CONTINUOUS
 10
245.53798319960549
 20
-875.68188321519074
 30
0.0
 11
214.4631865295874
 21
-928.73239699137457
 31
0.0
  0
LINE
  5
2851
  8
0
  6
CONTINUOUS
 10
200.82965685313459
 20
-863.7023232757067
 30
0.0
 11
201.02281007592441
 21
-894.44256875020722
 31
0.0
  0
ARC
  5
2852
  8
0
  6
CONTINUOUS
 10
177.21643705789759
 20
-925.3336128200757
 30
0.0
 40
24.000000000000011
 50
255.0
 51
0.3600074967930704
  0
LINE
  5
2853
  8
0
  6
CONTINUOUS
 10
201.02281007592441
 20
-894.44256875020722
 30
0.0
 11
201.21596329871431
 21
-925.18281422470761
 31
0.0
  0
ARC
  5
2854
  8
0
  6
CONTINUOUS
 10
-145.89405944921791
 20
-764.21653122544944
 30
0.0
 40
24.000000000000011
 50
329.639992503207
 51
180.360007496793
  0
ARC
  5
2855
  8
0
  6
CONTINUOUS
 10
-135.55125590792741
 20
-841.52776207133797
 30
0.0
 40
24.000000000000011
 50
149.63999250320691
 51
255.0
  0
LINE
  5
2856
  8
0
  6
CONTINUOUS
 10
-125.1852593435636
 20
-776.34688976030179
 30
0.0
 11
-156.2600560135817
 21
-829.39740353648585
 31
0.0
  0
LINE
  5
2857
  8
0
  6
CONTINUOUS
 10
-169.89358569003451
 20
-764.36732982081776
 30
0.0
 11
-169.7004324672447
 21
-795.10757529531816
 31
0.0
  0
ARC
  5
2858
  8
0
  6
CONTINUOUS
 10
-193.50680548527151
 20
-825.99861936518687
 30
0.0
 40
24.000000000000011
 50
255.0
 51
0.3600074967930704
  0
LINE
  5
2859
  8
0
  6
CONTINUOUS
 10
-169.7004324672447
 20
-795.10757529531816
 30
0.0
 11
-169.50727924445479
 21
-825.84782076981855
 31
0.0
  0
ARC
  5
285A
  8
0
  6
CONTINUOUS
 10
-87.938509871873833
 20
-779.74567393160066
 30
0.0
 40
24.000000000000011
 50
329.639992503207
 51
180.360007496793
  0
ARC
  5
285B
  8
0
  6
CONTINUOUS
 10
-77.595706330583269
 20
-857.05690477748919
 30
0.0
 40
24.000000000000011
 50
149.63999250320691
 51
255.0
  0
LINE
  5
285C
  8
0
  6
CONTINUOUS
 10
-67.229709766219528
 20
-791.87603246645278
 30
0.0
 11
-98.304506436237574
 21
-844.92654624263673
 31
0.0
  0
LINE
  5
285D
  8
0
  6
CONTINUOUS
 10
-111.9380361126905
 20
-779.89647252696898
 30
0.0
 11
-111.74488288990059
 21
-810.63671800146926
 31
0.0
  0
ARC
  5
285E
  8
0
  6
CONTINUOUS
 10
-135.55125590792741
 20
-841.52776207133786
 30
0.0
 40
24.000000000000011
 50
255.0
 51
0.3600074967930704
  0
LINE
  5
285F
  8
0
  6
CONTINUOUS
 10
-111.74488288990059
 20
-810.63671800146926
 30
0.0
 11
-111.55172966711071
 21
-841.37696347596966
 31
0.0
  0
ARC
  5
2860
  8
0
  6
CONTINUOUS
 10
166.8736335166071
 20
-848.02238197418728
 30
0.0
 40
24.000000000000011
 50
329.639992503207
 51
180.360007496793
  0
ARC
  5
2861
  8
0
  6
CONTINUOUS
 10
177.21643705789771
 20
-925.3336128200757
 30
0.0
 40
24.000000000000011
 50
149.63999250320691
 51
255.0
  0
LINE
  5
2862
  8
0
  6
CONTINUOUS
 10
187.58243362226139
 20
-860.15274050903952
 30
0.0
 11
156.50763695224339
 21
-913.20325428522335
 31
0.0
  0
LINE
  5
2863
  8
0
  6
CONTINUOUS
 10
142.87410727579049
 20
-848.1731805695556
 30
0.0
 11
143.06726049858031
 21
-878.91342604405577
 31
0.0
  0
ARC
  5
2864
  8
0
  6
CONTINUOUS
 10
119.26088748055361
 20
-909.80447011392459
 30
0.0
 40
24.000000000000011
 50
255.0
 51
0.3600074967930161
  0
LINE
  5
2865
  8
0
  6
CONTINUOUS
 10
143.06726049858031
 20
-878.91342604405577
 30
0.0
 11
143.26041372137021
 21
-909.65367151855617
 31
0.0
  0
ARC
  5
2866
  8
0
  6
CONTINUOUS
 10
108.918083939263
 20
-832.49323926803606
 30
0.0
 40
24.000000000000011
 50
329.639992503207
 51
180.360007496793
  0
ARC
  5
2867
  8
0
  6
CONTINUOUS
 10
119.26088748055361
 20
-909.80447011392459
 30
0.0
 40
24.000000000000011
 50
149.63999250320691
 51
255.0
  0
LINE
  5
2868
  8
0
  6
CONTINUOUS
 10
129.62688404491729
 20
-844.62359780288818
 30
0.0
 11
98.552087374899315
 21
-897.67411157907225
 31
0.0
  0
LINE
  5
2869
  8
0
  6
CONTINUOUS
 10
84.918557698446406
 20
-832.64403786340426
 30
0.0
 11
85.111710921236281
 21
-863.38428333790466
 31
0.0
  0
ARC
  5
286A
  8
0
  6
CONTINUOUS
 10
61.305337903209498
 20
-894.27532740777337
 30
0.0
 40
24.000000000000011
 50
255.0
 51
0.3600074967930704
  0
LINE
  5
286B
  8
0
  6
CONTINUOUS
 10
85.111710921236281
 20
-863.38428333790466
 30
0.0
 11
85.304864144026155
 21
-894.12452881240506
 31
0.0
  0
ARC
  5
286C
  8
0
  6
CONTINUOUS
 10
-29.982960294529779
 20
-795.27481663775166
 30
0.0
 40
24.000000000000011
 50
329.639992503207
 51
180.360007496793
  0
ARC
  5
286D
  8
0
  6
CONTINUOUS
 10
-19.640156753239211
 20
-872.5860474836403
 30
0.0
 40
24.000000000000011
 50
149.63999250320691
 51
255.0
  0
LINE
  5
286E
  8
0
  6
CONTINUOUS
 10
-9.2741601888754701
 20
-807.405175172604
 30
0.0
 11
-40.348956858893523
 21
-860.45568894878795
 31
0.0
  0
LINE
  5
286F
  8
0
  6
CONTINUOUS
 10
-53.982486535346432
 20
-795.42561523311997
 30
0.0
 11
-53.78933331255655
 21
-826.16586070762025
 31
0.0
  0
ARC
  5
2870
  8
0
  6
CONTINUOUS
 10
-77.595706330583326
 20
-857.05690477748897
 30
0.0
 40
24.000000000000011
 50
255.0
 51
0.3600074967930704
  0
LINE
  5
2871
  8
0
  6
CONTINUOUS
 10
-53.78933331255655
 20
-826.16586070762025
 30
0.0
 11
-53.596180089766683
 21
-856.90610618212065
 31
0.0
  0
ARC
  5
2872
  8
0
  6
CONTINUOUS
 10
50.962534361918927
 20
-816.96409656188484
 30
0.0
 40
24.000000000000011
 50
329.639992503207
 51
180.360007496793
  0
ARC
  5
2873
  8
0
  6
CONTINUOUS
 10
61.305337903209491
 20
-894.27532740777337
 30
0.0
 40
24.000000000000011
 50
149.63999250320691
 51
255.0
  0
LINE
  5
2874
  8
0
  6
CONTINUOUS
 10
71.671334467573232
 20
-829.09445509673697
 30
0.0
 11
40.596537797555172
 21
-882.14496887292091
 31
0.0
  0
LINE
  5
2875
  8
0
  6
CONTINUOUS
 10
26.963008121102281
 20
-817.11489515725304
 30
0.0
 11
27.156161343892151
 21
-847.85514063175333
 31
0.0
  0
ARC
  5
2876
  8
0
  6
CONTINUOUS
 10
3.3497883258653718
 20
-878.74618470162216
 30
0.0
 40
24.000000000000011
 50
255.0
 51
0.3600074967930161
  0
LINE
  5
2877
  8
0
  6
CONTINUOUS
 10
27.156161343892151
 20
-847.85514063175333
 30
0.0
 11
27.349314566682018
 21
-878.59538610625373
 31
0.0
  0
LINE
  5
2878
  8
0
 10
9.3275582149376604
 20
-904.05562660334726
 30
0.0
 11
8.9263886950286775
 21
-905.55281163409575
 31
0.0
  0
LINE
  5
2879
  8
0
 10
10.776446954371229
 20
-904.44385517100102
 30
0.0
 11
10.37527743446225
 21
-905.94104020174939
 31
0.0
  0
LINE
  5
287A
  8
0
 10
14.00492474044543
 20
-910.63024275386886
 30
0.0
 11
14.27021426167542
 21
-909.64016878192285
 31
0.0
  0
LINE
  5
287B
  8
0
 10
3.4384206452133048
 20
-907.79895651473123
 30
0.0
 11
3.7037101664432668
 21
-906.80888254278511
 31
0.0
  0
LINE
  5
287C
  8
0
 10
14.27021426167542
 20
-909.64016878192285
 30
0.0
 11
13.17754179025518
 21
-908.9850414124702
 31
0.0
  0
LINE
  5
287D
  8
0
 10
9.3275582149376604
 20
-904.05562660334726
 30
0.0
 11
6.9770079018441686
 21
-903.42579854518419
 31
0.0
  0
ARC
  5
287E
  8
0
 10
8.0902351037292206
 20
-911.57115679862352
 30
0.0
 40
7.5796874999999977
 50
80.678633468273915
 51
91.260204708354195
  0
ARC
  5
287F
  8
0
 10
12.60712888501987
 20
-907.01385844569677
 30
0.0
 40
2.0086171874996772
 50
43.109208198176582
 51
106.89079180181859
  0
ARC
  5
2880
  8
0
 10
6.4571395193989316
 20
-905.36597376171858
 30
0.0
 40
2.0086171874996772
 50
43.109208198176582
 51
106.89079180181859
  0
ARC
  5
2881
  8
0
 10
8.0902351037292206
 20
-911.57115679862352
 30
0.0
 40
7.5796874999999977
 50
58.739795291644803
 51
69.321366531725658
  0
LINE
  5
2882
  8
0
 10
13.126997267464899
 20
-905.07368322916307
 30
0.0
 11
10.776446954371229
 21
-904.44385517100102
 31
0.0
  0
LINE
  5
2883
  8
0
 10
14.00492474044543
 20
-910.63024275386886
 30
0.0
 11
3.4384206452133048
 21
-907.79895651473123
 31
0.0
  0
LINE
  5
2884
  8
0
 10
4.9775559694354881
 20
-906.78786183383488
 30
0.0
 11
5.873538975005844
 21
-903.44400773431391
 31
0.0
  0
LINE
  5
2885
  8
0
 10
13.17754179025518
 20
-908.9850414124702
 30
0.0
 11
14.07352479582908
 21
-905.64118731295014
 31
0.0
  0
LINE
  5
2886
  8
0
 10
11.127545335049369
 20
-908.43574651781114
 30
0.0
 11
12.023528340623271
 21
-905.09189241829097
 31
0.0
  0
LINE
  5
2887
  8
0
 10
7.0275524246412981
 20
-907.33715672849382
 30
0.0
 11
7.9235354302151961
 21
-903.99330262897388
 31
0.0
  0
LINE
  5
2888
  8
0
 10
2.251196565264582
 20
-933.36274529152615
 30
0.0
 11
4.4765424400053027
 21
-930.85319638031456
 31
0.0
  0
LINE
  5
2889
  8
0
 10
2.251196565264582
 20
-933.36274529152615
 30
0.0
 11
1.578764961138541
 21
-930.07673924500534
 31
0.0
  0
LINE
  5
288A
  8
0
 10
7.2727839533939971
 20
-908.82637106664561
 30
0.0
 11
1.578764961138541
 21
-930.07673924500534
 31
0.0
  0
LINE
  5
288B
  8
0
 10
10.170561432261231
 20
-909.60282820195334
 30
0.0
 11
4.4765424400053027
 21
-930.85319638031456
 31
0.0
  0
LINE
  5
288C
  8
0
 10
10.37527743446225
 20
-905.94104020174939
 30
0.0
 11
8.9263886950286775
 21
-905.55281163409575
 31
0.0
  0
LINE
  5
288D
  8
0
 10
1.89742561981733
 20
-931.6339546477127
 30
0.0
 11
3.7842039955300009
 21
-931.63395464771247
 31
0.0
  0
LINE
  5
288E
  8
0
 10
3.934857439262927
 20
-921.28368240931434
 30
0.0
 11
7.0406859804932642
 21
-921.28368240931388
 31
0.0
  0
LINE
  5
288F
  8
0
 10
5.5992659381670453
 20
-915.07202532685449
 30
0.0
 11
8.705094479397383
 21
-915.07202532685426
 31
0.0
  0
LINE
  5
2890
  8
0
 10
6.4314701876191043
 20
-911.96619678562467
 30
0.0
 11
9.5372987288494411
 21
-911.96619678562445
 31
0.0
  0
LINE
  5
2891
  8
0
 10
13.17754179025518
 20
-908.9850414124702
 30
0.0
 11
4.9775559694354881
 21
-906.78786183383488
 31
0.0
  0
LINE
  5
2892
  8
0
 10
4.9775559694314762
 20
-906.78786183383556
 30
0.0
 11
3.7037101664432668
 21
-906.80888254278511
 31
0.0
  0
LINE
  5
2893
  8
0
 10
3.0168037253590771
 20
-924.7099055136805
 30
-0.0000000000000561
 11
6.1226322665894424
 21
-924.70990551368016
 31
-0.0000000000000561
  0
LINE
  5
2894
  8
0
 10
4.8529111531667493
 20
-917.85745930494795
 30
0.0000000000000561
 11
7.9587396943970861
 21
-917.8574593049475
 31
0.0000000000000561
  0
LINE
  5
2895
  8
0
 10
2.0987500114552549
 20
-928.13612861804688
 30
-0.0000000000001123
 11
5.2045785526855921
 21
-928.13612861804665
 31
-0.0000000000001123
  0
LINE
  5
2896
  8
0
 10
27.330566245111712
 20
334.73082423895198
 30
0.0
 11
26.929396725202722
 21
333.23363920820361
 31
0.0
  0
LINE
  5
2897
  8
0
 10
28.779454984545279
 20
334.34259567129823
 30
0.0
 11
28.378285464636299
 21
332.8454106405498
 31
0.0
  0
LINE
  5
2898
  8
0
 10
32.007932770619483
 20
328.15620808843028
 30
0.0
 11
32.273222291849471
 21
329.14628206037639
 31
0.0
  0
LINE
  5
2899
  8
0
 10
21.44142867538735
 20
330.98749432756807
 30
0.0
 11
21.70671819661731
 21
331.97756829951402
 31
0.0
  0
LINE
  5
289A
  8
0
 10
32.273222291849471
 20
329.14628206037639
 30
0.0
 11
31.180549820429231
 21
329.80140942982911
 31
0.0
  0
LINE
  5
289B
  8
0
 10
27.330566245111712
 20
334.73082423895198
 30
0.0
 11
24.980015932018219
 21
335.360652297115
 31
0.0
  0
ARC
  5
289C
  8
0
 10
26.093243133903261
 20
327.21529404367573
 30
0.0
 40
7.5796874999999977
 50
80.678633468274356
 51
91.260204708354223
  0
ARC
  5
289D
  8
0
 10
30.61013691519392
 20
331.77259239660242
 30
0.0
 40
2.0086171874996772
 50
43.109208198176503
 51
106.8907918018176
  0
ARC
  5
289E
  8
0
 10
24.46014754957298
 20
333.42047708058072
 30
0.0
 40
2.0086171874996772
 50
43.109208198176503
 51
106.8907918018176
  0
ARC
  5
289F
  8
0
 10
26.093243133903261
 20
327.21529404367573
 30
0.0
 40
7.5796874999999977
 50
58.739795291646573
 51
69.321366531725744
  0
LINE
  5
28A0
  8
0
 10
31.130005297638949
 20
333.71276761313601
 30
0.0
 11
28.779454984545279
 21
334.34259567129823
 31
0.0
  0
LINE
  5
28A1
  8
0
 10
32.007932770619483
 20
328.15620808843028
 30
0.0
 11
21.44142867538735
 21
330.98749432756807
 31
0.0
  0
LINE
  5
28A2
  8
0
 10
22.98056399960954
 20
331.99858900846442
 30
0.0
 11
23.876547005179891
 21
335.34244310798539
 31
0.0
  0
LINE
  5
28A3
  8
0
 10
31.180549820429231
 20
329.80140942982911
 30
0.0
 11
32.076532826003131
 21
333.14526352934922
 31
0.0
  0
LINE
  5
28A4
  8
0
 10
29.13055336522342
 20
330.35070432448822
 30
0.0
 11
30.02653637079732
 21
333.69455842400822
 31
0.0
  0
LINE
  5
28A5
  8
0
 10
25.03056045481534
 20
331.44929411380531
 30
0.0
 11
25.92654346038924
 21
334.79314821332542
 31
0.0
  0
LINE
  5
28A6
  8
0
 10
20.254204595438619
 20
305.42370555077298
 30
0.0
 11
22.479550470179351
 21
307.93325446198469
 31
0.0
  0
LINE
  5
28A7
  8
0
 10
20.254204595438619
 20
305.42370555077298
 30
0.0
 11
19.58177299131259
 21
308.70971159729402
 31
0.0
  0
LINE
  5
28A8
  8
0
 10
25.275791983568041
 20
329.96007977565353
 30
0.0
 11
19.58177299131259
 21
308.70971159729402
 31
0.0
  0
LINE
  5
28A9
  8
0
 10
28.173569462435282
 20
329.1836226403459
 30
0.0
 11
22.479550470179351
 21
307.93325446198469
 31
0.0
  0
LINE
  5
28AA
  8
0
 10
28.378285464636299
 20
332.8454106405498
 30
0.0
 11
26.929396725202722
 21
333.23363920820361
 31
0.0
  0
LINE
  5
28AB
  8
0
 10
19.900433649991371
 20
307.15249619458649
 30
0.0
 11
21.78721202570404
 21
307.15249619458672
 31
0.0
  0
LINE
  5
28AC
  8
0
 10
21.937865469436971
 20
317.50276843298502
 30
0.0
 11
25.043694010667309
 21
317.50276843298531
 31
0.0
  0
LINE
  5
28AD
  8
0
 10
23.602273968341091
 20
323.71442551544459
 30
0.0
 11
26.708102509571422
 21
323.71442551544487
 31
0.0
  0
LINE
  5
28AE
  8
0
 10
24.434478217793149
 20
326.8202540566744
 30
0.0
 11
27.54030675902349
 21
326.82025405667468
 31
0.0
  0
LINE
  5
28AF
  8
0
 10
31.180549820429231
 20
329.80140942982911
 30
0.0
 11
22.98056399960954
 21
331.99858900846442
 31
0.0
  0
LINE
  5
28B0
  8
0
 10
22.980563999605518
 20
331.99858900846363
 30
0.0
 11
21.70671819661731
 21
331.97756829951402
 31
0.0
  0
LINE
  5
28B1
  8
0
 10
21.019811755533119
 20
314.07654532861858
 30
-0.0000000000000561
 11
24.125640296763489
 21
314.07654532861892
 31
-0.0000000000000561
  0
LINE
  5
28B2
  8
0
 10
22.855919183340799
 20
320.92899153735129
 30
0.0000000000000561
 11
25.961747724571129
 21
320.92899153735169
 31
0.0000000000000561
  0
LINE
  5
28B3
  8
0
 10
20.101758041629299
 20
310.65032222425231
 30
-0.0000000000001123
 11
23.207586582859641
 21
310.65032222425259
 31
-0.0000000000001123
  0
POLYLINE
  5
28B5
  8
0
  6
DASHED
 66
     1
 10
0.0
 20
0.0
 30
0.0
 70
     1
  0
VERTEX
  5
2C37
  8
0
  6
DASHED
 10
100.67065331023559
 20
478.82369758970111
 30
0.0
  0
VERTEX
  5
2C38
  8
0
  6
DASHED
 10
133.90409577467031
 20
469.91882351964972
 30
0.0
  0
VERTEX
  5
2C39
  8
0
  6
DASHED
 10
144.87802328701699
 20
510.87407855430519
 30
0.0
  0
VERTEX
  5
2C3A
  8
0
  6
DASHED
 10
111.6445808225823
 20
519.77895262435675
 30
0.0
  0
SEQEND
  5
2C3B
  8
0
  6
DASHED
  0
POLYLINE
  5
28B7
  8
0
  6
CONTINUOUS
 66
     1
 10
0.0
 20
0.0
 30
0.0
 70
     1
  0
VERTEX
  5
2C3C
  8
0
  6
CONTINUOUS
 10
101.3664555525486
 20
474.53995573025259
 30
0.0
  0
VERTEX
  5
2C3D
  8
0
  6
CONTINUOUS
 10
131.1596424270929
 20
466.55689536726879
 30
0.0
  0
VERTEX
  5
2C3E
  8
0
  6
CONTINUOUS
 10
129.13975917538369
 20
459.01858844653299
 30
0.0
  0
VERTEX
  5
2C3F
  8
0
  6
CONTINUOUS
 10
99.346572300839554
 20
467.00164880951672
 30
0.0
  0
SEQEND
  5
2C40
  8
0
  6
CONTINUOUS
  0
POLYLINE
  5
28B9
  8
0
  6
DASHED
 66
     1
 10
0.0
 20
0.0
 30
0.0
 70
     1
  0
VERTEX
  5
2C41
  8
0
  6
DASHED
 10
-14.44257543904142
 20
-733.9008582308719
 30
0.0
  0
VERTEX
  5
2C42
  8
0
  6
DASHED
 10
18.790867025393251
 20
-742.8057323009233
 30
0.0
  0
VERTEX
  5
2C43
  8
0
  6
DASHED
 10
29.764794537739942
 20
-701.85047726626772
 30
0.0
  0
VERTEX
  5
2C44
  8
0
  6
DASHED
 10
-3.4686479266947559
 20
-692.94560319621598
 30
0.0
  0
SEQEND
  5
2C45
  8
0
  6
DASHED
  0
POLYLINE
  5
28BB
  8
0
  6
CONTINUOUS
 66
     1
 10
0.0
 20
0.0
 30
0.0
 70
     1
  0
VERTEX
  5
2C46
  8
0
  6
CONTINUOUS
 10
-13.746773196728441
 20
-738.18460009032037
 30
0.0
  0
VERTEX
  5
2C47
  8
0
  6
CONTINUOUS
 10
16.046413677815771
 20
-746.16766045330405
 30
0.0
  0
VERTEX
  5
2C48
  8
0
  6
CONTINUOUS
 10
14.02653042610666
 20
-753.70596737404003
 30
0.0
  0
VERTEX
  5
2C49
  8
0
  6
CONTINUOUS
 10
-15.76665644843755
 20
-745.72290701105624
 30
0.0
  0
SEQEND
  5
2C4A
  8
0
  6
CONTINUOUS
  0
LINE
  5
28BC
  8
0
  6
BYBLOCK
 10
-7.3470622762155626
 20
-840.32496700020715
 30
0.0
 11
-1.135405193754724
 21
-817.14274716926957
 31
0.0
  0
LINE
  5
28BD
  8
0
  6
BYBLOCK
 10
-15.26393757750961
 20
-835.09781811541723
 30
0.0
 11
-10.60519476566401
 21
-817.7111532422141
 31
0.0
  0
LINE
  5
28BE
  8
0
  6
BYBLOCK
 10
-13.14261723395002
 20
-838.77205272959202
 30
0.0
 11
-7.3470622762155626
 21
-840.32496700020715
 31
0.0
  0
LINE
  5
28BF
  8
0
  6
BYBLOCK
 10
-6.9309601514892192
 20
-815.58983289865455
 30
0.0
 11
-1.135405193754724
 21
-817.14274716926957
 31
0.0
  0
LINE
  5
28C0
  8
0
  6
BYBLOCK
 10
-11.589702963334821
 20
-832.97649777185768
 30
0.0
 11
-5.7941480056003547
 21
-834.52941204247281
 31
0.0
  0
LINE
  5
28C1
  8
0
  6
BYBLOCK
 10
-8.4838744221044173
 20
-821.38538785638877
 30
0.0
 11
-2.688319464369934
 21
-822.93830212700425
 31
0.0
  0
ARC
  5
28C2
  8
0
  6
BYBLOCK
 10
-12.366160098642411
 20
-835.87427525072485
 30
0.0
 40
3.0
 50
164.99999999999881
 51
254.99999999999969
  0
ARC
  5
28C3
  8
0
  6
BYBLOCK
 10
-7.7074172867968178
 20
-818.48761037752161
 30
0.0
 40
3.0
 50
74.999999999999716
 51
164.99999999999881
  0
ARC
  5
28C4
  8
0
  6
BYBLOCK
 10
-7.7074172867968178
 20
-818.48761037752161
 30
0.0
 40
3.0
 50
164.99999999999881
 51
254.99999999999969
  0
ARC
  5
28C5
  8
0
  6
BYBLOCK
 10
-12.366160098642411
 20
-835.87427525072485
 30
0.0
 40
3.0
 50
74.999999999999716
 51
164.99999999999881
  0
ARC
  5
28C6
  8
0
  6
BYBLOCK
 10
-5.6901224744188239
 20
-828.34562851708461
 30
0.0
 40
7.5
 50
111.8698976458432
 51
218.13010235415609
  0
LINE
  5
28C7
  8
0
  6
BYBLOCK
 10
4.1281630464813954
 20
-845.47029671920939
 30
0.0
 11
11.375096309351971
 21
-818.42437358311565
 31
0.0
  0
LINE
  5
28C8
  8
0
  6
BYBLOCK
 10
1.713348480758669
 20
-844.8232491064532
 30
0.0
 11
8.9602817436293059
 21
-817.77732597035924
 31
0.0
  0
LINE
  5
28C9
  8
0
  6
BYBLOCK
 10
1.713348480758669
 20
-844.8232491064532
 30
0.0
 11
4.1281630464813954
 21
-845.47029671920939
 31
0.0
  0
LINE
  5
28CA
  8
0
  6
BYBLOCK
 10
8.9602817436293059
 20
-817.77732597035924
 30
0.0
 11
11.375096309351971
 21
-818.42437358311565
 31
0.0
  0
ARC
  5
28CB
  8
0
  6
BYBLOCK
 10
19.740259346730049
 20
-825.84219316558597
 30
0.0
 40
3.0
 50
344.99999999999892
 51
75.000000000000384
  0
ARC
  5
28CC
  8
0
  6
BYBLOCK
 10
19.740259346730049
 20
-825.84219316558597
 30
0.0
 40
3.0
 50
255.0000000000004
 51
344.99999999999892
  0
ARC
  5
28CD
  8
0
  6
BYBLOCK
 10
13.064221722506559
 20
-833.37083989922644
 30
0.0
 40
7.5
 50
291.86989764584382
 51
38.130102354156342
  0
ARC
  5
28CE
  8
0
  6
BYBLOCK
 10
15.081516534884679
 20
-843.22885803878933
 30
0.0
 40
3.0
 50
344.99999999999892
 51
75.000000000000384
  0
ARC
  5
28CF
  8
0
  6
BYBLOCK
 10
15.081516534884679
 20
-843.22885803878933
 30
0.0
 40
3.0
 50
255.0000000000004
 51
344.99999999999892
  0
ARC
  5
28D0
  8
0
  6
BYBLOCK
 10
14.9960733750847
 20
-833.88847798943141
 30
0.0
 40
7.5
 50
111.86989764584369
 51
218.13010235415629
  0
ARC
  5
28D1
  8
0
  6
BYBLOCK
 10
8.3200357508612051
 20
-841.41712472307165
 30
0.0
 40
3.0
 50
75.000000000000384
 51
164.99999999999881
  0
ARC
  5
28D2
  8
0
  6
BYBLOCK
 10
8.3200357508612051
 20
-841.41712472307165
 30
0.0
 40
3.0
 50
164.99999999999881
 51
255.0000000000004
  0
ARC
  5
28D3
  8
0
  6
BYBLOCK
 10
12.978778562706569
 20
-824.03045984986852
 30
0.0
 40
3.0
 50
164.99999999999881
 51
255.0000000000004
  0
ARC
  5
28D4
  8
0
  6
BYBLOCK
 10
12.978778562706569
 20
-824.03045984986852
 30
0.0
 40
3.0
 50
75.000000000000384
 51
164.99999999999881
  0
LINE
  5
28D5
  8
0
  6
BYBLOCK
 10
13.75523569801414
 20
-821.13268237100112
 30
0.0
 11
20.516716482037619
 21
-822.9444156867188
 31
0.0
  0
LINE
  5
28D6
  8
0
  6
BYBLOCK
 10
12.20232142739901
 20
-826.92823732873569
 30
0.0
 11
18.96380221142249
 21
-828.73997064445325
 31
0.0
  0
LINE
  5
28D7
  8
0
  6
BYBLOCK
 10
9.0964928861687664
 20
-838.51934724420448
 30
0.0
 11
15.857973670192241
 21
-840.33108055992216
 31
0.0
  0
LINE
  5
28D8
  8
0
  6
BYBLOCK
 10
7.5435786155536411
 20
-844.31490220193882
 30
0.0
 11
14.30505939957712
 21
-846.1266355176565
 31
0.0
  0
LINE
  5
28D9
  8
0
  6
BYBLOCK
 10
5.422258271994
 20
-840.64066758776426
 30
0.0
 11
10.08100108383937
 21
-823.25400271456078
 31
0.0
  0
LINE
  5
28DA
  8
0
  6
BYBLOCK
 10
17.97929401375189
 20
-844.00531517409684
 30
0.0
 11
22.638036825597261
 21
-826.61865030089359
 31
0.0
  0
LINE
  5
28DB
  8
0
  6
BYBLOCK
 10
21.861579690289691
 20
-829.51642777976076
 30
0.0
 11
23.310468429723311
 21
-829.90465634741474
 31
0.0
  0
LINE
  5
28DC
  8
0
  6
BYBLOCK
 10
21.473351122635911
 20
-830.9653165191944
 30
0.0
 11
24.371128601503131
 21
-831.74177365450214
 31
0.0
  0
LINE
  5
28DD
  8
0
  6
BYBLOCK
 10
19.143979716713218
 20
-839.65864895579614
 30
0.0
 11
22.041757195580441
 21
-840.43510609110365
 31
0.0
  0
LINE
  5
28DE
  8
0
  6
BYBLOCK
 10
18.755751149059439
 20
-841.10753769522967
 30
0.0
 11
20.204639888493059
 21
-841.49576626288342
 31
0.0
  0
LINE
  5
28DF
  8
0
  6
BYBLOCK
 10
22.041757195580441
 20
-840.43510609110365
 30
0.0
 11
20.204639888493059
 21
-841.49576626288342
 31
0.0
  0
LINE
  5
28E0
  8
0
  6
BYBLOCK
 10
23.310468429723311
 20
-829.90465634741474
 30
0.0
 11
24.371128601503131
 21
-831.74177365450214
 31
0.0
  0
LINE
  5
28E1
  8
0
  6
BYBLOCK
 10
23.310468429723311
 20
-829.90465634741474
 30
0.0
 11
20.204639888493059
 21
-841.49576626288342
 31
0.0
  0
LINE
  5
28E2
  8
0
  6
BYBLOCK
 10
24.371128601503131
 20
-831.74177365450214
 30
0.0
 11
22.041757195580441
 21
-840.43510609110365
 31
0.0
  0
LINE
  5
28E3
  8
0
  6
BYBLOCK
 10
-36.631679034081962
 20
-949.61664462074407
 30
0.0
 11
-30.420021951621109
 21
-926.43442478980637
 31
0.0
  0
LINE
  5
28E4
  8
0
  6
BYBLOCK
 10
-44.548554335375989
 20
-944.38949573595414
 30
0.0
 11
-39.889811523530398
 21
-927.0028308627509
 31
0.0
  0
LINE
  5
28E5
  8
0
  6
BYBLOCK
 10
-42.427233991816408
 20
-948.06373035012871
 30
0.0
 11
-36.631679034081962
 21
-949.61664462074407
 31
0.0
  0
LINE
  5
28E6
  8
0
  6
BYBLOCK
 10
-36.215576909355597
 20
-924.88151051919124
 30
0.0
 11
-30.420021951621109
 21
-926.43442478980637
 31
0.0
  0
LINE
  5
28E7
  8
0
  6
BYBLOCK
 10
-40.874319721201203
 20
-942.26817539239437
 30
0.0
 11
-35.078764763466737
 21
-943.82108966300962
 31
0.0
  0
LINE
  5
28E8
  8
0
  6
BYBLOCK
 10
-37.768491179970809
 20
-930.67706547692569
 30
0.0
 11
-31.972936222236331
 21
-932.22997974754094
 31
0.0
  0
ARC
  5
28E9
  8
0
  6
BYBLOCK
 10
-41.650776856508813
 20
-945.16595287126165
 30
0.0
 40
3.0
 50
164.99999999999881
 51
254.99999999999969
  0
ARC
  5
28EA
  8
0
  6
BYBLOCK
 10
-36.992034044663207
 20
-927.77928799805852
 30
0.0
 40
3.0
 50
74.999999999999659
 51
164.99999999999881
  0
ARC
  5
28EB
  8
0
  6
BYBLOCK
 10
-36.992034044663207
 20
-927.77928799805852
 30
0.0
 40
3.0
 50
164.99999999999881
 51
254.99999999999969
  0
ARC
  5
28EC
  8
0
  6
BYBLOCK
 10
-41.650776856508813
 20
-945.16595287126165
 30
0.0
 40
3.0
 50
74.999999999999659
 51
164.99999999999881
  0
ARC
  5
28ED
  8
0
  6
BYBLOCK
 10
-34.974739232285209
 20
-937.63730613762129
 30
0.0
 40
7.5
 50
111.8698976458432
 51
218.13010235415601
  0
LINE
  5
28EE
  8
0
  6
BYBLOCK
 10
-25.156453711384991
 20
-954.7619743397463
 30
0.0
 11
-17.90952044851441
 21
-927.71605120365234
 31
0.0
  0
LINE
  5
28EF
  8
0
  6
BYBLOCK
 10
-27.57126827710772
 20
-954.11492672698989
 30
0.0
 11
-20.324335014237079
 21
-927.06900359089605
 31
0.0
  0
LINE
  5
28F0
  8
0
  6
BYBLOCK
 10
-27.57126827710772
 20
-954.11492672698989
 30
0.0
 11
-25.156453711384991
 21
-954.7619743397463
 31
0.0
  0
LINE
  5
28F1
  8
0
  6
BYBLOCK
 10
-20.324335014237079
 20
-927.06900359089605
 30
0.0
 11
-17.90952044851441
 21
-927.71605120365234
 31
0.0
  0
ARC
  5
28F2
  8
0
  6
BYBLOCK
 10
-9.5443574111363318
 20
-935.13387078612288
 30
0.0
 40
3.0
 50
344.99999999999892
 51
75.000000000000441
  0
ARC
  5
28F3
  8
0
  6
BYBLOCK
 10
-9.5443574111363318
 20
-935.13387078612288
 30
0.0
 40
3.0
 50
255.0000000000004
 51
344.99999999999892
  0
ARC
  5
28F4
  8
0
  6
BYBLOCK
 10
-16.220395035359829
 20
-942.66251751976313
 30
0.0
 40
7.5
 50
291.86989764584382
 51
38.130102354156371
  0
ARC
  5
28F5
  8
0
  6
BYBLOCK
 10
-14.2031002229817
 20
-952.52053565932613
 30
0.0
 40
3.0
 50
344.99999999999892
 51
75.000000000000441
  0
ARC
  5
28F6
  8
0
  6
BYBLOCK
 10
-14.2031002229817
 20
-952.52053565932613
 30
0.0
 40
3.0
 50
255.0000000000004
 51
344.99999999999892
  0
ARC
  5
28F7
  8
0
  6
BYBLOCK
 10
-14.28854338278169
 20
-943.1801556099681
 30
0.0
 40
7.5
 50
111.86989764584359
 51
218.13010235415641
  0
ARC
  5
28F8
  8
0
  6
BYBLOCK
 10
-20.964581007005179
 20
-950.70880234360845
 30
0.0
 40
3.0
 50
75.000000000000441
 51
164.99999999999889
  0
ARC
  5
28F9
  8
0
  6
BYBLOCK
 10
-20.964581007005179
 20
-950.70880234360845
 30
0.0
 40
3.0
 50
164.99999999999889
 51
255.0000000000004
  0
ARC
  5
28FA
  8
0
  6
BYBLOCK
 10
-16.305838195159811
 20
-933.32213747040521
 30
0.0
 40
3.0
 50
164.99999999999889
 51
255.0000000000004
  0
ARC
  5
28FB
  8
0
  6
BYBLOCK
 10
-16.305838195159811
 20
-933.32213747040521
 30
0.0
 40
3.0
 50
75.000000000000441
 51
164.99999999999889
  0
LINE
  5
28FC
  8
0
  6
BYBLOCK
 10
-15.52938105985225
 20
-930.42435999153804
 30
0.0
 11
-8.7679002758287723
 21
-932.23609330725571
 31
0.0
  0
LINE
  5
28FD
  8
0
  6
BYBLOCK
 10
-17.082295330467371
 20
-936.21991494927238
 30
0.0
 11
-10.32081454644389
 21
-938.03164826499005
 31
0.0
  0
LINE
  5
28FE
  8
0
  6
BYBLOCK
 10
-20.18812387169762
 20
-947.81102486474117
 30
0.0
 11
-13.42664308767414
 21
-949.62275818045885
 31
0.0
  0
LINE
  5
28FF
  8
0
  6
BYBLOCK
 10
-21.741038142312739
 20
-953.60657982247585
 30
0.0
 11
-14.97955735828927
 21
-955.41831313819318
 31
0.0
  0
LINE
  5
2900
  8
0
  6
BYBLOCK
 10
-23.862358485872392
 20
-949.93234520830094
 30
0.0
 11
-19.20361567402702
 21
-932.5456803350977
 31
0.0
  0
LINE
  5
2901
  8
0
  6
BYBLOCK
 10
-11.3053227441145
 20
-953.29699279463375
 30
0.0
 11
-6.6465799322691259
 21
-935.91032792143062
 31
0.0
  0
LINE
  5
2902
  8
0
  6
BYBLOCK
 10
-7.423037067576697
 20
-938.80810540029768
 30
0.0
 11
-5.9741483281430803
 21
-939.19633396795155
 31
0.0
  0
LINE
  5
2903
  8
0
  6
BYBLOCK
 10
-7.8112656352304803
 20
-940.25699413973132
 30
0.0
 11
-4.9134881563632611
 21
-941.03345127503906
 31
0.0
  0
LINE
  5
2904
  8
0
  6
BYBLOCK
 10
-10.140637041153161
 20
-948.95032657633305
 30
0.0
 11
-7.242859562285946
 21
-949.72678371164045
 31
0.0
  0
LINE
  5
2905
  8
0
  6
BYBLOCK
 10
-10.528865608806941
 20
-950.39921531576658
 30
0.0
 11
-9.0799768693733292
 21
-950.78744388342034
 31
0.0
  0
LINE
  5
2906
  8
0
  6
BYBLOCK
 10
-7.242859562285946
 20
-949.72678371164045
 30
0.0
 11
-9.0799768693733292
 21
-950.78744388342034
 31
0.0
  0
LINE
  5
2907
  8
0
  6
BYBLOCK
 10
-5.9741483281430803
 20
-939.19633396795155
 30
0.0
 11
-4.9134881563632611
 21
-941.03345127503906
 31
0.0
  0
LINE
  5
2908
  8
0
  6
BYBLOCK
 10
-5.9741483281430803
 20
-939.19633396795155
 30
0.0
 11
-9.0799768693733292
 21
-950.78744388342034
 31
0.0
  0
LINE
  5
2909
  8
0
  6
BYBLOCK
 10
-4.9134881563632611
 20
-941.03345127503906
 30
0.0
 11
-7.242859562285946
 21
-949.72678371164045
 31
0.0
  0
LINE
  5
290A
  8
0
  6
BYBLOCK
 10
-97.814651899259303
 20
-1177.9546079116931
 30
0.0
 11
-91.602994816798486
 21
-1154.7723880807559
 31
0.0
  0
LINE
  5
290B
  8
0
  6
BYBLOCK
 10
-105.7315272005533
 20
-1172.727459026903
 30
0.0
 11
-101.0727843887077
 21
-1155.3407941537
 31
0.0
  0
LINE
  5
290C
  8
0
  6
BYBLOCK
 10
-103.6102068569938
 20
-1176.4016936410781
 30
0.0
 11
-97.814651899259303
 21
-1177.9546079116931
 31
0.0
  0
LINE
  5
290D
  8
0
  6
BYBLOCK
 10
-97.398549774532981
 20
-1153.2194738101409
 30
0.0
 11
-91.602994816798486
 21
-1154.7723880807559
 31
0.0
  0
LINE
  5
290E
  8
0
  6
BYBLOCK
 10
-102.05729258637849
 20
-1170.6061386833439
 30
0.0
 11
-96.261737628644113
 21
-1172.159052953959
 31
0.0
  0
LINE
  5
290F
  8
0
  6
BYBLOCK
 10
-98.951464045148185
 20
-1159.015028767875
 30
0.0
 11
-93.155909087413676
 21
-1160.5679430384901
 31
0.0
  0
ARC
  5
2910
  8
0
  6
BYBLOCK
 10
-102.8337497216861
 20
-1173.503916162211
 30
0.0
 40
3.0
 50
165.00000000000509
 51
255.0
  0
ARC
  5
2911
  8
0
  6
BYBLOCK
 10
-98.175006909840562
 20
-1156.117251289008
 30
0.0
 40
3.0
 50
75.000000000000043
 51
165.00000000000509
  0
ARC
  5
2912
  8
0
  6
BYBLOCK
 10
-98.175006909840562
 20
-1156.117251289008
 30
0.0
 40
3.0
 50
165.00000000000509
 51
255.0
  0
ARC
  5
2913
  8
0
  6
BYBLOCK
 10
-102.8337497216861
 20
-1173.503916162211
 30
0.0
 40
3.0
 50
75.000000000000043
 51
165.00000000000509
  0
ARC
  5
2914
  8
0
  6
BYBLOCK
 10
-96.157712097462579
 20
-1165.975269428571
 30
0.0
 40
7.5
 50
111.8698976458428
 51
218.13010235415109
  0
LINE
  5
2915
  8
0
  6
BYBLOCK
 10
-86.33942657656236
 20
-1183.0999376306961
 30
0.0
 11
-79.092493313691776
 21
-1156.0540144946019
 31
0.0
  0
LINE
  5
2916
  8
0
  6
BYBLOCK
 10
-88.754241142285082
 20
-1182.4528900179389
 30
0.0
 11
-81.507307879414441
 21
-1155.4069668818449
 31
0.0
  0
LINE
  5
2917
  8
0
  6
BYBLOCK
 10
-88.754241142285082
 20
-1182.4528900179389
 30
0.0
 11
-86.33942657656236
 21
-1183.0999376306961
 31
0.0
  0
LINE
  5
2918
  8
0
  6
BYBLOCK
 10
-81.507307879414441
 20
-1155.4069668818449
 30
0.0
 11
-79.092493313691776
 21
-1156.0540144946019
 31
0.0
  0
ARC
  5
2919
  8
0
  6
BYBLOCK
 10
-70.727330276313694
 20
-1163.4718340770719
 30
0.0
 40
3.0
 50
345.00000000000512
 51
75.000000000000043
  0
ARC
  5
291A
  8
0
  6
BYBLOCK
 10
-70.727330276313694
 20
-1163.4718340770719
 30
0.0
 40
3.0
 50
255.0
 51
345.00000000000512
  0
ARC
  5
291B
  8
0
  6
BYBLOCK
 10
-77.403367900537191
 20
-1171.000480810713
 30
0.0
 40
7.5
 50
291.86989764584359
 51
38.130102354151113
  0
ARC
  5
291C
  8
0
  6
BYBLOCK
 10
-75.386073088159065
 20
-1180.858498950276
 30
0.0
 40
3.0
 50
345.00000000000512
 51
75.000000000000043
  0
ARC
  5
291D
  8
0
  6
BYBLOCK
 10
-75.386073088159065
 20
-1180.858498950276
 30
0.0
 40
3.0
 50
255.0
 51
345.00000000000512
  0
ARC
  5
291E
  8
0
  6
BYBLOCK
 10
-75.471516247959045
 20
-1171.5181189009179
 30
0.0
 40
7.5
 50
111.86989764584359
 51
218.13010235415109
  0
ARC
  5
291F
  8
0
  6
BYBLOCK
 10
-82.147553872182542
 20
-1179.0467656345579
 30
0.0
 40
3.0
 50
75.000000000000043
 51
165.00000000000509
  0
ARC
  5
2920
  8
0
  6
BYBLOCK
 10
-82.147553872182542
 20
-1179.0467656345579
 30
0.0
 40
3.0
 50
165.00000000000509
 51
255.0
  0
ARC
  5
2921
  8
0
  6
BYBLOCK
 10
-77.48881106033717
 20
-1161.6601007613549
 30
0.0
 40
3.0
 50
165.00000000000509
 51
255.0
  0
ARC
  5
2922
  8
0
  6
BYBLOCK
 10
-77.48881106033717
 20
-1161.6601007613549
 30
0.0
 40
3.0
 50
75.000000000000043
 51
165.00000000000509
  0
LINE
  5
2923
  8
0
  6
BYBLOCK
 10
-76.712353925029603
 20
-1158.7623232824869
 30
0.0
 11
-69.950873141006113
 21
-1160.5740565982051
 31
0.0
  0
LINE
  5
2924
  8
0
  6
BYBLOCK
 10
-78.265268195644737
 20
-1164.557878240222
 30
0.0
 11
-71.503787411621261
 21
-1166.3696115559389
 31
0.0
  0
LINE
  5
2925
  8
0
  6
BYBLOCK
 10
-81.371096736874989
 20
-1176.1489881556911
 30
0.0
 11
-74.609615952851499
 21
-1177.9607214714081
 31
0.0
  0
LINE
  5
2926
  8
0
  6
BYBLOCK
 10
-82.924011007490094
 20
-1181.944543113425
 30
0.0
 11
-76.162530223466632
 21
-1183.7562764291431
 31
0.0
  0
LINE
  5
2927
  8
0
  6
BYBLOCK
 10
-85.045331351049754
 20
-1178.2703084992499
 30
0.0
 11
-80.386588539204382
 21
-1160.8836436260469
 31
0.0
  0
LINE
  5
2928
  8
0
  6
BYBLOCK
 10
-72.488295609291868
 20
-1181.6349560855831
 30
0.0
 11
-67.829552797446496
 21
-1164.2482912123801
 31
0.0
  0
LINE
  5
2929
  8
0
  6
BYBLOCK
 10
-68.606009932754063
 20
-1167.1460686912469
 30
0.0
 11
-67.157121193320449
 21
-1167.534297258901
 31
0.0
  0
LINE
  5
292A
  8
0
  6
BYBLOCK
 10
-68.994238500407846
 20
-1168.594957430681
 30
0.0
 11
-66.09646102154062
 21
-1169.3714145659881
 31
0.0
  0
LINE
  5
292B
  8
0
  6
BYBLOCK
 10
-71.323609906330532
 20
-1177.2882898672819
 30
0.0
 11
-68.425832427463305
 21
-1178.0647470025899
 31
0.0
  0
LINE
  5
292C
  8
0
  6
BYBLOCK
 10
-71.711838473984301
 20
-1178.737178606716
 30
0.0
 11
-70.262949734550688
 21
-1179.1254071743699
 31
0.0
  0
LINE
  5
292D
  8
0
  6
BYBLOCK
 10
-68.425832427463305
 20
-1178.0647470025899
 30
0.0
 11
-70.262949734550688
 21
-1179.1254071743699
 31
0.0
  0
LINE
  5
292E
  8
0
  6
BYBLOCK
 10
-67.157121193320449
 20
-1167.534297258901
 30
0.0
 11
-66.09646102154062
 21
-1169.3714145659881
 31
0.0
  0
LINE
  5
292F
  8
0
  6
BYBLOCK
 10
-67.157121193320449
 20
-1167.534297258901
 30
0.0
 11
-70.262949734550688
 21
-1179.1254071743699
 31
0.0
  0
LINE
  5
2930
  8
0
  6
BYBLOCK
 10
-66.09646102154062
 20
-1169.3714145659881
 30
0.0
 11
-68.425832427463305
 21
-1178.0647470025899
 31
0.0
  0
LINE
  5
2931
  8
0
  6
BYBLOCK
 10
-36.631679034081962
 20
293.95240788133691
 30
0.0
 11
-30.420021951621109
 21
317.13462771227438
 31
0.0
  0
LINE
  5
2932
  8
0
  6
BYBLOCK
 10
-44.548554335375989
 20
299.17955676612689
 30
0.0
 11
-39.889811523530398
 21
316.56622163933002
 31
0.0
  0
LINE
  5
2933
  8
0
  6
BYBLOCK
 10
-42.427233991816408
 20
295.5053221519521
 30
0.0
 11
-36.631679034081962
 21
293.95240788133691
 31
0.0
  0
LINE
  5
2934
  8
0
  6
BYBLOCK
 10
-36.215576909355597
 20
318.68754198288963
 30
0.0
 11
-30.420021951621109
 21
317.13462771227438
 31
0.0
  0
LINE
  5
2935
  8
0
  6
BYBLOCK
 10
-40.874319721201203
 20
301.3008771096865
 30
0.0
 11
-35.078764763466737
 21
299.74796283907131
 31
0.0
  0
LINE
  5
2936
  8
0
  6
BYBLOCK
 10
-37.768491179970809
 20
312.89198702515517
 30
0.0
 11
-31.972936222236331
 21
311.3390727545401
 31
0.0
  0
ARC
  5
2937
  8
0
  6
BYBLOCK
 10
-41.650776856508813
 20
298.40309963081933
 30
0.0
 40
3.0
 50
164.99999999999881
 51
254.99999999999881
  0
ARC
  5
2938
  8
0
  6
BYBLOCK
 10
-36.992034044663207
 20
315.7897645040224
 30
0.0
 40
3.0
 50
74.999999999998806
 51
164.99999999999881
  0
ARC
  5
2939
  8
0
  6
BYBLOCK
 10
-36.992034044663207
 20
315.7897645040224
 30
0.0
 40
3.0
 50
164.99999999999881
 51
254.99999999999881
  0
ARC
  5
293A
  8
0
  6
BYBLOCK
 10
-41.650776856508813
 20
298.40309963081933
 30
0.0
 40
3.0
 50
74.999999999998806
 51
164.99999999999881
  0
ARC
  5
293B
  8
0
  6
BYBLOCK
 10
-34.974739232285209
 20
305.93174636445951
 30
0.0
 40
7.5
 50
111.8698976458432
 51
218.13010235415601
  0
LINE
  5
293C
  8
0
  6
BYBLOCK
 10
-25.156453711384991
 20
288.80707816233462
 30
0.0
 11
-17.90952044851441
 21
315.85300129842858
 31
0.0
  0
LINE
  5
293D
  8
0
  6
BYBLOCK
 10
-27.57126827710772
 20
289.45412577509097
 30
0.0
 11
-20.324335014237079
 21
316.50004891118488
 31
0.0
  0
LINE
  5
293E
  8
0
  6
BYBLOCK
 10
-27.57126827710772
 20
289.45412577509097
 30
0.0
 11
-25.156453711384991
 21
288.80707816233462
 31
0.0
  0
LINE
  5
293F
  8
0
  6
BYBLOCK
 10
-20.324335014237079
 20
316.50004891118488
 30
0.0
 11
-17.90952044851441
 21
315.85300129842858
 31
0.0
  0
ARC
  5
2940
  8
0
  6
BYBLOCK
 10
-9.5443574111363318
 20
308.43518171595798
 30
0.0
 40
3.0
 50
344.99999999999892
 51
75.000000000000441
  0
ARC
  5
2941
  8
0
  6
BYBLOCK
 10
-9.5443574111363318
 20
308.43518171595798
 30
0.0
 40
3.0
 50
255.0000000000004
 51
344.99999999999892
  0
ARC
  5
2942
  8
0
  6
BYBLOCK
 10
-16.220395035359829
 20
300.90653498231779
 30
0.0
 40
7.5
 50
291.86989764584382
 51
38.130102354156371
  0
ARC
  5
2943
  8
0
  6
BYBLOCK
 10
-14.2031002229817
 20
291.04851684275479
 30
0.0
 40
3.0
 50
344.99999999999892
 51
75.000000000000441
  0
ARC
  5
2944
  8
0
  6
BYBLOCK
 10
-14.2031002229817
 20
291.04851684275479
 30
0.0
 40
3.0
 50
255.0000000000004
 51
344.99999999999892
  0
ARC
  5
2945
  8
0
  6
BYBLOCK
 10
-14.28854338278169
 20
300.38889689211271
 30
0.0
 40
7.5
 50
111.86989764584359
 51
218.13010235415641
  0
ARC
  5
2946
  8
0
  6
BYBLOCK
 10
-20.964581007005179
 20
292.86025015847241
 30
0.0
 40
3.0
 50
75.000000000000441
 51
164.99999999999889
  0
ARC
  5
2947
  8
0
  6
BYBLOCK
 10
-20.964581007005179
 20
292.86025015847241
 30
0.0
 40
3.0
 50
164.99999999999889
 51
255.0000000000004
  0
ARC
  5
2948
  8
0
  6
BYBLOCK
 10
-16.305838195159811
 20
310.2469150316756
 30
0.0
 40
3.0
 50
164.99999999999889
 51
255.0000000000004
  0
ARC
  5
2949
  8
0
  6
BYBLOCK
 10
-16.305838195159811
 20
310.2469150316756
 30
0.0
 40
3.0
 50
75.000000000000441
 51
164.99999999999889
  0
LINE
  5
294A
  8
0
  6
BYBLOCK
 10
-15.52938105985225
 20
313.14469251054288
 30
0.0
 11
-8.7679002758287723
 21
311.33295919482521
 31
0.0
  0
LINE
  5
294B
  8
0
  6
BYBLOCK
 10
-17.082295330467371
 20
307.34913755280837
 30
0.0
 11
-10.32081454644389
 21
305.53740423709081
 31
0.0
  0
LINE
  5
294C
  8
0
  6
BYBLOCK
 10
-20.18812387169762
 20
295.75802763733958
 30
0.0
 11
-13.42664308767414
 21
293.94629432162202
 31
0.0
  0
LINE
  5
294D
  8
0
  6
BYBLOCK
 10
-21.741038142312739
 20
289.96247267960518
 30
0.0
 11
-14.97955735828927
 21
288.15073936388762
 31
0.0
  0
LINE
  5
294E
  8
0
  6
BYBLOCK
 10
-23.862358485872392
 20
293.63670729377998
 30
0.0
 11
-19.20361567402702
 21
311.02337216698322
 31
0.0
  0
LINE
  5
294F
  8
0
  6
BYBLOCK
 10
-11.3053227441145
 20
290.27205970744723
 30
0.0
 11
-6.6465799322691259
 21
307.65872458065041
 31
0.0
  0
LINE
  5
2950
  8
0
  6
BYBLOCK
 10
-7.423037067576697
 20
304.76094710178319
 30
0.0
 11
-5.9741483281430803
 21
304.37271853412938
 31
0.0
  0
LINE
  5
2951
  8
0
  6
BYBLOCK
 10
-7.8112656352304803
 20
303.3120583623496
 30
0.0
 11
-4.9134881563632611
 21
302.53560122704209
 31
0.0
  0
LINE
  5
2952
  8
0
  6
BYBLOCK
 10
-10.140637041153161
 20
294.61872592574798
 30
0.0
 11
-7.242859562285946
 21
293.84226879044041
 31
0.0
  0
LINE
  5
2953
  8
0
  6
BYBLOCK
 10
-10.528865608806941
 20
293.1698371863144
 30
0.0
 11
-9.0799768693733292
 21
292.78160861866058
 31
0.0
  0
LINE
  5
2954
  8
0
  6
BYBLOCK
 10
-7.242859562285946
 20
293.84226879044041
 30
0.0
 11
-9.0799768693733292
 21
292.78160861866058
 31
0.0
  0
LINE
  5
2955
  8
0
  6
BYBLOCK
 10
-5.9741483281430803
 20
304.37271853412938
 30
0.0
 11
-4.9134881563632611
 21
302.53560122704209
 31
0.0
  0
LINE
  5
2956
  8
0
  6
BYBLOCK
 10
-5.9741483281430803
 20
304.37271853412938
 30
0.0
 11
-9.0799768693733292
 21
292.78160861866058
 31
0.0
  0
LINE
  5
2957
  8
0
  6
BYBLOCK
 10
-4.9134881563632611
 20
302.53560122704209
 30
0.0
 11
-7.242859562285946
 21
293.84226879044041
 31
0.0
  0
LINE
  5
2958
  8
0
  6
BYBLOCK
 10
-97.814651899259303
 20
65.614444590387308
 30
0.0
 11
-91.602994816798486
 21
88.796664421324834
 31
0.0
  0
LINE
  5
2959
  8
0
  6
BYBLOCK
 10
-105.7315272005533
 20
70.841593475177305
 30
0.0
 11
-101.0727843887077
 21
88.228258348380464
 31
0.0
  0
LINE
  5
295A
  8
0
  6
BYBLOCK
 10
-103.6102068569938
 20
67.167358861002512
 30
0.0
 11
-97.814651899259303
 21
65.614444590387308
 31
0.0
  0
LINE
  5
295B
  8
0
  6
BYBLOCK
 10
-97.398549774532981
 20
90.349578691940067
 30
0.0
 11
-91.602994816798486
 21
88.796664421324834
 31
0.0
  0
LINE
  5
295C
  8
0
  6
BYBLOCK
 10
-102.05729258637849
 20
72.962913818736894
 30
0.0
 11
-96.261737628644113
 21
71.409999548121675
 31
0.0
  0
LINE
  5
295D
  8
0
  6
BYBLOCK
 10
-98.951464045148185
 20
84.554023734205686
 30
0.0
 11
-93.155909087413676
 21
83.001109463590467
 31
0.0
  0
ARC
  5
295E
  8
0
  6
BYBLOCK
 10
-102.8337497216861
 20
70.06513633986971
 30
0.0
 40
3.0
 50
164.9999999999996
 51
254.9999999999996
  0
ARC
  5
295F
  8
0
  6
BYBLOCK
 10
-98.175006909840562
 20
87.451801213072869
 30
0.0
 40
3.0
 50
74.999999999999616
 51
164.9999999999996
  0
ARC
  5
2960
  8
0
  6
BYBLOCK
 10
-98.175006909840562
 20
87.451801213072869
 30
0.0
 40
3.0
 50
164.9999999999996
 51
254.9999999999996
  0
ARC
  5
2961
  8
0
  6
BYBLOCK
 10
-102.8337497216861
 20
70.06513633986971
 30
0.0
 40
3.0
 50
74.999999999999616
 51
164.9999999999996
  0
ARC
  5
2962
  8
0
  6
BYBLOCK
 10
-96.157712097462579
 20
77.593783073509897
 30
0.0
 40
7.5
 50
111.8698976458428
 51
218.13010235415561
  0
LINE
  5
2963
  8
0
  6
BYBLOCK
 10
-86.33942657656236
 20
60.469114871385067
 30
0.0
 11
-79.092493313691776
 21
87.515038007478964
 31
0.0
  0
LINE
  5
2964
  8
0
  6
BYBLOCK
 10
-88.754241142285082
 20
61.116162484141377
 30
0.0
 11
-81.507307879414441
 21
88.162085620235274
 31
0.0
  0
LINE
  5
2965
  8
0
  6
BYBLOCK
 10
-88.754241142285082
 20
61.116162484141377
 30
0.0
 11
-86.33942657656236
 21
60.469114871385067
 31
0.0
  0
LINE
  5
2966
  8
0
  6
BYBLOCK
 10
-81.507307879414441
 20
88.162085620235274
 30
0.0
 11
-79.092493313691776
 21
87.515038007478964
 31
0.0
  0
ARC
  5
2967
  8
0
  6
BYBLOCK
 10
-70.727330276313694
 20
80.097218425008435
 30
0.0
 40
3.0
 50
344.9999999999996
 51
74.999999999999616
  0
ARC
  5
2968
  8
0
  6
BYBLOCK
 10
-70.727330276313694
 20
80.097218425008435
 30
0.0
 40
3.0
 50
254.9999999999996
 51
344.9999999999996
  0
ARC
  5
2969
  8
0
  6
BYBLOCK
 10
-77.403367900537191
 20
72.568571691368163
 30
0.0
 40
7.5
 50
291.86989764584388
 51
38.130102354155611
  0
ARC
  5
296A
  8
0
  6
BYBLOCK
 10
-75.386073088159065
 20
62.710553551805198
 30
0.0
 40
3.0
 50
344.9999999999996
 51
74.999999999999616
  0
ARC
  5
296B
  8
0
  6
BYBLOCK
 10
-75.386073088159065
 20
62.710553551805198
 30
0.0
 40
3.0
 50
254.9999999999996
 51
344.9999999999996
  0
ARC
  5
296C
  8
0
  6
BYBLOCK
 10
-75.471516247959045
 20
72.050933601163123
 30
0.0
 40
7.5
 50
111.86989764584391
 51
218.13010235415561
  0
ARC
  5
296D
  8
0
  6
BYBLOCK
 10
-82.147553872182542
 20
64.522286867522851
 30
0.0
 40
3.0
 50
74.999999999999616
 51
164.9999999999996
  0
ARC
  5
296E
  8
0
  6
BYBLOCK
 10
-82.147553872182542
 20
64.522286867522851
 30
0.0
 40
3.0
 50
164.9999999999996
 51
254.9999999999996
  0
ARC
  5
296F
  8
0
  6
BYBLOCK
 10
-77.48881106033717
 20
81.908951740726081
 30
0.0
 40
3.0
 50
164.9999999999996
 51
254.9999999999996
  0
ARC
  5
2970
  8
0
  6
BYBLOCK
 10
-77.48881106033717
 20
81.908951740726081
 30
0.0
 40
3.0
 50
74.999999999999616
 51
164.9999999999996
  0
LINE
  5
2971
  8
0
  6
BYBLOCK
 10
-76.712353925029603
 20
84.806729219593279
 30
0.0
 11
-69.950873141006113
 21
82.994995903875633
 31
0.0
  0
LINE
  5
2972
  8
0
  6
BYBLOCK
 10
-78.265268195644737
 20
79.011174261858869
 30
0.0
 11
-71.503787411621261
 21
77.199440946141223
 31
0.0
  0
LINE
  5
2973
  8
0
  6
BYBLOCK
 10
-81.371096736874989
 20
67.420064346390049
 30
0.0
 11
-74.609615952851499
 21
65.608331030672403
 31
0.0
  0
LINE
  5
2974
  8
0
  6
BYBLOCK
 10
-82.924011007490094
 20
61.624509388655639
 30
0.0
 11
-76.162530223466632
 21
59.812776072937993
 31
0.0
  0
LINE
  5
2975
  8
0
  6
BYBLOCK
 10
-85.045331351049754
 20
65.298744002830404
 30
0.0
 11
-80.386588539204382
 21
82.685408876033634
 31
0.0
  0
LINE
  5
2976
  8
0
  6
BYBLOCK
 10
-72.488295609291868
 20
61.934096416497638
 30
0.0
 11
-67.829552797446496
 21
79.320761289700869
 31
0.0
  0
LINE
  5
2977
  8
0
  6
BYBLOCK
 10
-68.606009932754063
 20
76.422983810833628
 30
0.0
 11
-67.157121193320449
 21
76.034755243179845
 31
0.0
  0
LINE
  5
2978
  8
0
  6
BYBLOCK
 10
-68.994238500407846
 20
74.974095071400029
 30
0.0
 11
-66.09646102154062
 21
74.197637936092462
 31
0.0
  0
LINE
  5
2979
  8
0
  6
BYBLOCK
 10
-71.323609906330532
 20
66.280762634798407
 30
0.0
 11
-68.425832427463305
 21
65.50430549949084
 31
0.0
  0
LINE
  5
297A
  8
0
  6
BYBLOCK
 10
-71.711838473984301
 20
64.831873895364808
 30
0.0
 11
-70.262949734550688
 21
64.443645327711025
 31
0.0
  0
LINE
  5
297B
  8
0
  6
BYBLOCK
 10
-68.425832427463305
 20
65.50430549949084
 30
0.0
 11
-70.262949734550688
 21
64.443645327711025
 31
0.0
  0
LINE
  5
297C
  8
0
  6
BYBLOCK
 10
-67.157121193320449
 20
76.034755243179845
 30
0.0
 11
-66.09646102154062
 21
74.197637936092462
 31
0.0
  0
LINE
  5
297D
  8
0
  6
BYBLOCK
 10
-67.157121193320449
 20
76.034755243179845
 30
0.0
 11
-70.262949734550688
 21
64.443645327711025
 31
0.0
  0
LINE
  5
297E
  8
0
  6
BYBLOCK
 10
-66.09646102154062
 20
74.197637936092462
 30
0.0
 11
-68.425832427463305
 21
65.50430549949084
 31
0.0
  0
ARC
  5
297F
  8
0
  6
CONTINUOUS
 10
-72.338565249710413
 20
459.64338600700108
 30
0.0
 40
24.000000000000011
 50
329.639992503207
 51
180.360007496793
  0
ARC
  5
2980
  8
0
  6
CONTINUOUS
 10
-61.995761708419863
 20
382.33215516111261
 30
0.0
 40
24.000000000000011
 50
149.63999250320691
 51
255.0
  0
LINE
  5
2981
  8
0
  6
CONTINUOUS
 10
-51.629765144056122
 20
447.51302747214891
 30
0.0
 11
-82.704561814074154
 21
394.46251369596501
 31
0.0
  0
LINE
  5
2982
  8
0
  6
CONTINUOUS
 10
-96.338091490527091
 20
459.49258741163283
 30
0.0
 11
-96.144938267737203
 21
428.75234193713248
 31
0.0
  0
ARC
  5
2983
  8
0
  6
CONTINUOUS
 10
-119.95131128576389
 20
397.86129786726389
 30
0.0
 40
24.000000000000011
 50
255.0
 51
0.3600074967930432
  0
LINE
  5
2984
  8
0
  6
CONTINUOUS
 10
-96.144938267737203
 20
428.75234193713248
 30
0.0
 11
-95.951785044947343
 21
398.01209646263231
 31
0.0
  0
ARC
  5
2985
  8
0
  6
CONTINUOUS
 10
-14.38301567236633
 20
444.11424330084998
 30
0.0
 40
24.000000000000011
 50
329.639992503207
 51
180.360007496793
  0
ARC
  5
2986
  8
0
  6
CONTINUOUS
 10
-4.0402121310757622
 20
366.80301245496139
 30
0.0
 40
24.000000000000011
 50
149.63999250320691
 51
255.0
  0
LINE
  5
2987
  8
0
  6
CONTINUOUS
 10
6.3257844332879776
 20
431.98388476599757
 30
0.0
 11
-24.749012236730081
 21
378.9333709898138
 31
0.0
  0
LINE
  5
2988
  8
0
  6
CONTINUOUS
 10
-38.382541913182983
 20
443.96344470548172
 30
0.0
 11
-38.189388690393102
 21
413.22319923098121
 31
0.0
  0
ARC
  5
2989
  8
0
  6
CONTINUOUS
 10
-61.995761708419877
 20
382.33215516111261
 30
0.0
 40
24.000000000000011
 50
255.0
 51
0.3600074967930432
  0
LINE
  5
298A
  8
0
  6
CONTINUOUS
 10
-38.189388690393102
 20
413.22319923098121
 30
0.0
 11
-37.996235467603242
 21
382.48295375648098
 31
0.0
  0
ARC
  5
298B
  8
0
  6
CONTINUOUS
 10
225.57527135814729
 20
379.81761407386858
 30
0.0
 40
24.000000000000011
 50
329.639992503207
 51
180.360007496793
  0
ARC
  5
298C
  8
0
  6
CONTINUOUS
 10
235.91807489943781
 20
302.50638322798
 30
0.0
 40
24.000000000000011
 50
149.63999250320691
 51
255.0
  0
LINE
  5
298D
  8
0
  6
CONTINUOUS
 10
246.28407146380161
 20
367.68725553901629
 30
0.0
 11
215.20927479378349
 21
314.6367417628324
 31
0.0
  0
LINE
  5
298E
  8
0
  6
CONTINUOUS
 10
201.5757451173306
 20
379.66681547850033
 30
0.0
 11
201.7688983401205
 21
348.92657000399993
 31
0.0
  0
ARC
  5
298F
  8
0
  6
CONTINUOUS
 10
177.96252532209371
 20
318.03552593413127
 30
0.0
 40
24.000000000000011
 50
255.0
 51
0.3600074967930433
  0
LINE
  5
2990
  8
0
  6
CONTINUOUS
 10
201.7688983401205
 20
348.92657000399993
 30
0.0
 11
201.9620515629104
 21
318.1863245294997
 31
0.0
  0
ARC
  5
2991
  8
0
  6
CONTINUOUS
 10
167.6197217808031
 20
395.34675678001992
 30
0.0
 40
24.000000000000011
 50
329.639992503207
 51
180.360007496793
  0
ARC
  5
2992
  8
0
  6
CONTINUOUS
 10
177.96252532209371
 20
318.03552593413127
 30
0.0
 40
24.000000000000011
 50
149.63999250320691
 51
255.0
  0
LINE
  5
2993
  8
0
  6
CONTINUOUS
 10
188.32852188645739
 20
383.21639824516751
 30
0.0
 11
157.25372521643939
 21
330.16588446898362
 31
0.0
  0
LINE
  5
2994
  8
0
  6
CONTINUOUS
 10
143.6201955399865
 20
395.19595818465149
 30
0.0
 11
143.8133487627764
 21
364.4557127101512
 31
0.0
  0
ARC
  5
2995
  8
0
  6
CONTINUOUS
 10
120.0069757447496
 20
333.56466864028249
 30
0.0
 40
24.000000000000011
 50
255.0
 51
0.3600074967930432
  0
LINE
  5
2996
  8
0
  6
CONTINUOUS
 10
143.8133487627764
 20
364.4557127101512
 30
0.0
 11
144.00650198556619
 21
333.71546723565092
 31
0.0
  0
POLYLINE
  5
2997
  8
0
  6
CONTINUOUS
 66
     1
 10
0.0
 20
0.0
 30
0.0
 70
     1
  0
VERTEX
  5
2C4B
  8
0
  6
CONTINUOUS
 10
-29.52397514824904
 20
-760.23970100632243
 30
0.0
  0
VERTEX
  5
2C4C
  8
0
  6
CONTINUOUS
 10
-26.159327561915561
 20
-747.68266526456466
 30
0.0
 42
-0.4142135623730951
  0
VERTEX
  5
2C4D
  8
0
  6
CONTINUOUS
 10
-23.709837819132289
 20
-746.26845170219178
 30
0.0
  0
VERTEX
  5
2C4E
  8
0
  6
CONTINUOUS
 10
21.688676016453218
 20
-758.4329468220127
 30
0.0
 42
-0.4142135623730951
  0
VERTEX
  5
2C4F
  8
0
  6
CONTINUOUS
 10
23.102889578826179
 20
-760.88243656479608
 30
0.0
  0
VERTEX
  5
2C50
  8
0
  6
CONTINUOUS
 10
-14.68469100614986
 20
-901.90760720299795
 30
0.0
 42
0.4142135623730951
  0
VERTEX
  5
2C51
  8
0
  6
CONTINUOUS
 10
-13.97758422496339
 20
-903.13235207438936
 30
0.0
  0
VERTEX
  5
2C52
  8
0
  6
CONTINUOUS
 10
31.420929610622132
 20
-915.29684719421061
 30
0.0
 42
0.4142135623730951
  0
VERTEX
  5
2C53
  8
0
  6
CONTINUOUS
 10
32.64567448201376
 20
-914.58974041302395
 30
0.0
  0
VERTEX
  5
2C54
  8
0
  6
CONTINUOUS
 10
36.010322068347243
 20
-902.03270467126629
 30
0.0
  0
VERTEX
  5
2C55
  8
0
  6
CONTINUOUS
 10
36.976247894636302
 20
-902.29152371636883
 30
0.0
  0
VERTEX
  5
2C56
  8
0
  6
CONTINUOUS
 10
33.611600308302812
 20
-914.8485594581266
 30
0.0
 42
-0.4142135623730951
  0
VERTEX
  5
2C57
  8
0
  6
CONTINUOUS
 10
31.162110565519551
 20
-916.26277302049948
 30
0.0
  0
VERTEX
  5
2C58
  8
0
  6
CONTINUOUS
 10
-14.23640327006596
 20
-904.09827790067845
 30
0.0
 42
-0.4142135623730951
  0
VERTEX
  5
2C59
  8
0
  6
CONTINUOUS
 10
-15.650616832438921
 20
-901.6487881578953
 30
0.0
  0
VERTEX
  5
2C5A
  8
0
  6
CONTINUOUS
 10
22.13696375253712
 20
-760.62361751969354
 30
0.0
 42
0.4142135623730951
  0
VERTEX
  5
2C5B
  8
0
  6
CONTINUOUS
 10
21.429856971350649
 20
-759.3988726483019
 30
0.0
  0
VERTEX
  5
2C5C
  8
0
  6
CONTINUOUS
 10
-23.968656864234859
 20
-747.23437752848065
 30
0.0
 42
0.4142135623730951
  0
VERTEX
  5
2C5D
  8
0
  6
CONTINUOUS
 10
-25.193401735626502
 20
-747.94148430966732
 30
0.0
  0
VERTEX
  5
2C5E
  8
0
  6
CONTINUOUS
 10
-28.558049321959981
 20
-760.49852005142486
 30
0.0
  0
SEQEND
  5
2C5F
  8
0
  6
CONTINUOUS
  0
POLYLINE
  5
2998
  8
0
  6
CONTINUOUS
 66
     1
 10
0.0
 20
0.0
 30
0.0
 40
1.0
 41
1.0
  0
VERTEX
  5
2C60
  8
0
  6
CONTINUOUS
 10
-29.04101223510451
 20
-760.36911052887376
 30
0.0
  0
VERTEX
  5
2C61
  8
0
  6
CONTINUOUS
 10
-25.676364648771031
 20
-747.81207478711599
 30
0.0
 42
-0.4142135623730951
  0
VERTEX
  5
2C62
  8
0
  6
CONTINUOUS
 10
-23.839247341683581
 20
-746.75141461533633
 30
0.0
  0
VERTEX
  5
2C63
  8
0
  6
CONTINUOUS
 10
21.559266493901902
 20
-758.91590973515736
 30
0.0
 42
-0.4142135623730951
  0
VERTEX
  5
2C64
  8
0
  6
CONTINUOUS
 10
22.619926665681628
 20
-760.75302704224475
 30
0.0
  0
VERTEX
  5
2C65
  8
0
  6
CONTINUOUS
 10
-15.16765391929439
 20
-901.77819768044662
 30
0.0
 42
0.4142135623730951
  0
VERTEX
  5
2C66
  8
0
  6
CONTINUOUS
 10
-14.10699374751468
 20
-903.61531498753413
 30
0.0
  0
VERTEX
  5
2C67
  8
0
  6
CONTINUOUS
 10
31.29152008807084
 20
-915.77981010735505
 30
0.0
 42
0.4142135623730951
  0
VERTEX
  5
2C68
  8
0
  6
CONTINUOUS
 10
33.128637395158293
 20
-914.71914993557539
 30
0.0
  0
VERTEX
  5
2C69
  8
0
  6
CONTINUOUS
 10
36.493284981491769
 20
-902.16211419381784
 30
0.0
  0
SEQEND
  5
2C6A
  8
0
  6
CONTINUOUS
  0
POLYLINE
  5
2999
  8
0
  6
CONTINUOUS
 66
     1
 10
0.0
 20
0.0
 30
0.0
 70
     1
  0
VERTEX
  5
2C6B
  8
0
  6
CONTINUOUS
 10
-1.3750296038577401
 20
-1184.957199134762
 30
0.0
  0
VERTEX
  5
2C6C
  8
0
  6
CONTINUOUS
 10
5.3864511801657491
 20
-1186.76893245048
 30
0.0
 42
-0.4142135623730951
  0
VERTEX
  5
2C6D
  8
0
  6
CONTINUOUS
 10
8.9219850860984735
 20
-1192.892656807438
 30
0.0
  0
VERTEX
  5
2C6E
  8
0
  6
CONTINUOUS
 10
1.675051823227889
 20
-1219.938579943532
 30
0.0
 42
-0.4142135623730951
  0
VERTEX
  5
2C6F
  8
0
  6
CONTINUOUS
 10
-4.448672533730047
 20
-1223.4741138494651
 30
0.0
  0
VERTEX
  5
2C70
  8
0
  6
CONTINUOUS
 10
-91.381996899746184
 20
-1200.180399790238
 30
0.0
 42
-0.4142135623730951
  0
VERTEX
  5
2C71
  8
0
  6
CONTINUOUS
 10
-94.917530805678936
 20
-1194.0566754332799
 30
0.0
  0
VERTEX
  5
2C72
  8
0
  6
CONTINUOUS
 10
-80.941302370142807
 20
-1141.8966808136711
 30
0.0
  0
VERTEX
  5
2C73
  8
0
  6
CONTINUOUS
 10
-66.856238435999046
 20
-1127.9675396351529
 30
0.0
  0
VERTEX
  5
2C74
  8
0
  6
CONTINUOUS
 10
-60.437526117456493
 20
-1104.012579143184
 30
0.0
  0
VERTEX
  5
2C75
  8
0
  6
CONTINUOUS
 10
-65.670978709094101
 20
-1084.907057062615
 30
0.0
  0
VERTEX
  5
2C76
  8
0
  6
CONTINUOUS
 10
-49.10655982253278
 20
-1023.087804180115
 30
0.0
  0
VERTEX
  5
2C77
  8
0
  6
CONTINUOUS
 10
-35.021495888389012
 20
-1009.158663001597
 30
0.0
  0
VERTEX
  5
2C78
  8
0
  6
CONTINUOUS
 10
-28.602783569846451
 20
-985.20370250962833
 30
0.0
  0
VERTEX
  5
2C79
  8
0
  6
CONTINUOUS
 10
-33.836236161484052
 20
-966.09818042906011
 30
0.0
  0
VERTEX
  5
2C7A
  8
0
  6
CONTINUOUS
 10
-19.860007725947941
 20
-913.93818580945049
 30
0.0
 42
-0.4142135623730951
  0
VERTEX
  5
2C7B
  8
0
  6
CONTINUOUS
 10
-13.73628336898998
 20
-910.40265190351761
 30
0.0
  0
VERTEX
  5
2C7C
  8
0
  6
CONTINUOUS
 10
73.197040997026164
 20
-933.69636596274449
 30
0.0
 42
-0.4142135623730951
  0
VERTEX
  5
2C7D
  8
0
  6
CONTINUOUS
 10
76.732574902958902
 20
-939.82009031970244
 30
0.0
  0
VERTEX
  5
2C7E
  8
0
  6
CONTINUOUS
 10
69.485641640088318
 20
-966.86601345579629
 30
0.0
 42
-0.4142135623730951
  0
VERTEX
  5
2C7F
  8
0
  6
CONTINUOUS
 10
63.36191728313036
 20
-970.40154736172906
 30
0.0
  0
VERTEX
  5
2C80
  8
0
  6
CONTINUOUS
 10
56.60043649910687
 20
-968.58981404601138
 30
0.0
  0
VERTEX
  5
2C81
  8
0
  6
CONTINUOUS
 10
56.97572411450551
 20
-967.18922159789258
 30
0.0
  0
VERTEX
  5
2C82
  8
0
  6
CONTINUOUS
 10
63.737204898529001
 20
-969.00095491361026
 30
0.0
 42
0.4142135623731251
  0
VERTEX
  5
2C83
  8
0
  6
CONTINUOUS
 10
68.085049191969347
 20
-966.49072584039777
 30
0.0
  0
VERTEX
  5
2C84
  8
0
  6
CONTINUOUS
 10
75.331982454839931
 20
-939.44480270430381
 30
0.0
 42
0.4142135623731251
  0
VERTEX
  5
2C85
  8
0
  6
CONTINUOUS
 10
72.821753381627559
 20
-935.09695841086364
 30
0.0
  0
VERTEX
  5
2C86
  8
0
  6
CONTINUOUS
 10
-14.111570984388591
 20
-911.80324435163664
 30
0.0
 42
0.4142135623731251
  0
VERTEX
  5
2C87
  8
0
  6
CONTINUOUS
 10
-18.45941527782897
 20
-914.31347342484889
 30
0.0
  0
VERTEX
  5
2C88
  8
0
  6
CONTINUOUS
 10
-32.333965492382681
 20
-966.09399975772919
 30
0.0
  0
VERTEX
  5
2C89
  8
0
  6
CONTINUOUS
 10
-27.10051290074507
 20
-985.19952183829741
 30
0.0
  0
VERTEX
  5
2C8A
  8
0
  6
CONTINUOUS
 10
-33.722581661252448
 20
-1009.913418903725
 30
0.0
  0
VERTEX
  5
2C8B
  8
0
  6
CONTINUOUS
 10
-47.80764559539621
 20
-1023.842560082243
 30
0.0
  0
VERTEX
  5
2C8C
  8
0
  6
CONTINUOUS
 10
-64.168708039992708
 20
-1084.9028763912841
 30
0.0
  0
VERTEX
  5
2C8D
  8
0
  6
CONTINUOUS
 10
-58.935255448355107
 20
-1104.0083984718531
 30
0.0
  0
VERTEX
  5
2C8E
  8
0
  6
CONTINUOUS
 10
-65.557324208862497
 20
-1128.7222955372811
 30
0.0
  0
VERTEX
  5
2C8F
  8
0
  6
CONTINUOUS
 10
-79.642388143006244
 20
-1142.651436715799
 30
0.0
  0
VERTEX
  5
2C90
  8
0
  6
CONTINUOUS
 10
-93.516938357559965
 20
-1194.4319630486791
 30
0.0
 42
0.4142135623731251
  0
VERTEX
  5
2C91
  8
0
  6
CONTINUOUS
 10
-91.006709284347565
 20
-1198.7798073421191
 30
0.0
  0
VERTEX
  5
2C92
  8
0
  6
CONTINUOUS
 10
-4.0733849183314268
 20
-1222.0735214013459
 30
0.0
 42
0.4142135623731251
  0
VERTEX
  5
2C93
  8
0
  6
CONTINUOUS
 10
0.2744593751089184
 20
-1219.5632923281339
 30
0.0
  0
VERTEX
  5
2C94
  8
0
  6
CONTINUOUS
 10
7.5213926379795017
 20
-1192.51736919204
 30
0.0
 42
0.4142135623731251
  0
VERTEX
  5
2C95
  8
0
  6
CONTINUOUS
 10
5.011163564767144
 20
-1188.1695248985991
 30
0.0
  0
VERTEX
  5
2C96
  8
0
  6
CONTINUOUS
 10
-1.750317219256345
 20
-1186.3577915828821
 30
0.0
  0
SEQEND
  5
2C97
  8
0
  6
CONTINUOUS
  0
POLYLINE
  5
299A
  8
0
  6
CONTINUOUS
 66
     1
 10
0.0
 20
0.0
 30
0.0
 40
1.0
 41
1.0
  0
VERTEX
  5
2C98
  8
0
  6
CONTINUOUS
 10
-1.562673411557042
 20
-1185.657495358822
 30
0.0
  0
VERTEX
  5
2C99
  8
0
  6
CONTINUOUS
 10
5.1988073724664474
 20
-1187.4692286745401
 30
0.0
 42
-0.4142135623730951
  0
VERTEX
  5
2C9A
  8
0
  6
CONTINUOUS
 10
8.2216888620389881
 20
-1192.705012999739
 30
0.0
  0
VERTEX
  5
2C9B
  8
0
  6
CONTINUOUS
 10
0.9747555991684038
 20
-1219.7509361358329
 30
0.0
 42
-0.4142135623730951
  0
VERTEX
  5
2C9C
  8
0
  6
CONTINUOUS
 10
-4.2610287260307302
 20
-1222.7738176254049
 30
0.0
  0
VERTEX
  5
2C9D
  8
0
  6
CONTINUOUS
 10
-91.194353092046896
 20
-1199.480103566179
 30
0.0
 42
-0.4142135623730951
  0
VERTEX
  5
2C9E
  8
0
  6
CONTINUOUS
 10
-94.217234581619451
 20
-1194.2443192409789
 30
0.0
  0
VERTEX
  5
2C9F
  8
0
  6
CONTINUOUS
 10
-80.291845256574547
 20
-1142.274058764734
 30
0.0
  0
VERTEX
  5
2CA0
  8
0
  6
CONTINUOUS
 10
-66.206781322430786
 20
-1128.344917586217
 30
0.0
  0
VERTEX
  5
2CA1
  8
0
  6
CONTINUOUS
 10
-59.686390782905782
 20
-1104.010488807518
 30
0.0
  0
VERTEX
  5
2CA2
  8
0
  6
CONTINUOUS
 10
-64.919843374543404
 20
-1084.9049667269501
 30
0.0
  0
VERTEX
  5
2CA3
  8
0
  6
CONTINUOUS
 10
-48.457102708964499
 20
-1023.4651821311789
 30
0.0
  0
VERTEX
  5
2CA4
  8
0
  6
CONTINUOUS
 10
-34.372038774820751
 20
-1009.536040952661
 30
0.0
  0
VERTEX
  5
2CA5
  8
0
  6
CONTINUOUS
 10
-27.851648235295741
 20
-985.20161217396264
 30
0.0
  0
VERTEX
  5
2CA6
  8
0
  6
CONTINUOUS
 10
-33.085100826933342
 20
-966.09609009339454
 30
0.0
  0
VERTEX
  5
2CA7
  8
0
  6
CONTINUOUS
 10
-19.159711501888449
 20
-914.12582961714975
 30
0.0
 42
-0.4142135623730951
  0
VERTEX
  5
2CA8
  8
0
  6
CONTINUOUS
 10
-13.92392717668929
 20
-911.10294812757706
 30
0.0
  0
VERTEX
  5
2CA9
  8
0
  6
CONTINUOUS
 10
73.009397189326876
 20
-934.39666218680406
 30
0.0
 42
-0.4142135623730951
  0
VERTEX
  5
2CAA
  8
0
  6
CONTINUOUS
 10
76.032278678899374
 20
-939.63244651200307
 30
0.0
  0
VERTEX
  5
2CAB
  8
0
  6
CONTINUOUS
 10
68.785345416028832
 20
-966.67836964809715
 30
0.0
 42
-0.4142135623730951
  0
VERTEX
  5
2CAC
  8
0
  6
CONTINUOUS
 10
63.549561090829677
 20
-969.7012511376696
 30
0.0
  0
VERTEX
  5
2CAD
  8
0
  6
CONTINUOUS
 10
56.788080306806187
 20
-967.88951782195193
 30
0.0
  0
SEQEND
  5
2CAE
  8
0
  6
CONTINUOUS
  0
ARC
  5
299B
  8
0
  6
CONTINUOUS
 10
43.572533904977732
 20
428.58510059469887
 30
0.0
 40
24.000000000000011
 50
329.639992503207
 51
180.360007496793
  0
ARC
  5
299C
  8
0
  6
CONTINUOUS
 10
53.915337446268303
 20
351.2738697488104
 30
0.0
 40
24.000000000000011
 50
149.63999250320691
 51
255.0
  0
LINE
  5
299D
  8
0
  6
CONTINUOUS
 10
64.281334010632037
 20
416.45474205984658
 30
0.0
 11
33.206537340613977
 21
363.40422828366269
 31
0.0
  0
LINE
  5
299E
  8
0
  6
CONTINUOUS
 10
19.573007664161079
 20
428.43430199933061
 30
0.0
 11
19.766160886950949
 21
397.69405652483027
 31
0.0
  0
ARC
  5
299F
  8
0
  6
CONTINUOUS
 10
-4.0402121310758217
 20
366.80301245496162
 30
0.0
 40
24.000000000000011
 50
255.0
 51
0.3600074967930432
  0
LINE
  5
29A0
  8
0
  6
CONTINUOUS
 10
19.766160886950949
 20
397.69405652483027
 30
0.0
 11
19.95931410974082
 21
366.95381105032999
 31
0.0
  0
ARC
  5
29A1
  8
0
  6
CONTINUOUS
 10
109.664172203459
 20
410.87589948617108
 30
0.0
 40
24.000000000000011
 50
329.639992503207
 51
180.360007496793
  0
ARC
  5
29A2
  8
0
  6
CONTINUOUS
 10
120.0069757447496
 20
333.5646686402826
 30
0.0
 40
24.000000000000011
 50
149.63999250320691
 51
255.0
  0
LINE
  5
29A3
  8
0
  6
CONTINUOUS
 10
130.37297230911329
 20
398.74554095131879
 30
0.0
 11
99.298175639095305
 21
345.6950271751349
 31
0.0
  0
LINE
  5
29A4
  8
0
  6
CONTINUOUS
 10
85.664645962642368
 20
410.72510089080271
 30
0.0
 11
85.857799185432256
 21
379.98485541630248
 31
0.0
  0
ARC
  5
29A5
  8
0
  6
CONTINUOUS
 10
62.051426167405481
 20
349.09381134643382
 30
0.0
 40
24.000000000000011
 50
255.0
 51
0.3600074967930432
  0
LINE
  5
29A6
  8
0
  6
CONTINUOUS
 10
85.857799185432256
 20
379.98485541630248
 30
0.0
 11
86.050952408222116
 21
349.2446099418022
 31
0.0
  0
POLYLINE
  5
29A7
  8
0
  6
CONTINUOUS
 66
     1
 10
0.0
 20
0.0
 30
0.0
 70
     1
  0
VERTEX
  5
2CAF
  8
0
  6
CONTINUOUS
 10
134.33383265156581
 20
439.465074025494
 30
0.0
  0
VERTEX
  5
2CB0
  8
0
  6
CONTINUOUS
 10
137.69848023789859
 20
452.02210976725189
 30
0.0
 42
0.4142135623730951
  0
VERTEX
  5
2CB1
  8
0
  6
CONTINUOUS
 10
136.28426667552549
 20
454.47159951003511
 30
0.0
  0
VERTEX
  5
2CB2
  8
0
  6
CONTINUOUS
 10
90.885752839939315
 20
466.63609462985352
 30
0.0
 42
0.4142135623730951
  0
VERTEX
  5
2CB3
  8
0
  6
CONTINUOUS
 10
88.436263097156115
 20
465.22188106748052
 30
0.0
  0
VERTEX
  5
2CB4
  8
0
  6
CONTINUOUS
 10
50.648682512188103
 20
324.19671042927649
 30
0.0
 42
-0.4142135623730951
  0
VERTEX
  5
2CB5
  8
0
  6
CONTINUOUS
 10
49.423937640796517
 20
323.48960364809
 30
0.0
  0
VERTEX
  5
2CB6
  8
0
  6
CONTINUOUS
 10
4.0254238052103073
 20
335.65409876790841
 30
0.0
 42
-0.4142135623730951
  0
VERTEX
  5
2CB7
  8
0
  6
CONTINUOUS
 10
3.3183170240237589
 20
336.87884363929999
 30
0.0
  0
VERTEX
  5
2CB8
  8
0
  6
CONTINUOUS
 10
6.682964610356529
 20
349.43587938105799
 30
0.0
  0
VERTEX
  5
2CB9
  8
0
  6
CONTINUOUS
 10
5.7170387840674604
 20
349.69469842616041
 30
0.0
  0
VERTEX
  5
2CBA
  8
0
  6
CONTINUOUS
 10
2.3523911977346912
 20
337.13766268440253
 30
0.0
 42
0.4142135623730951
  0
VERTEX
  5
2CBB
  8
0
  6
CONTINUOUS
 10
3.7666047601077861
 20
334.68817294161943
 30
0.0
  0
VERTEX
  5
2CBC
  8
0
  6
CONTINUOUS
 10
49.165118595693997
 20
322.5236778218009
 30
0.0
 42
0.4142135623730951
  0
VERTEX
  5
2CBD
  8
0
  6
CONTINUOUS
 10
51.614608338477169
 20
323.93789138417389
 30
0.0
  0
VERTEX
  5
2CBE
  8
0
  6
CONTINUOUS
 10
89.402188923445195
 20
464.96306202237793
 30
0.0
 42
-0.4142135623730951
  0
VERTEX
  5
2CBF
  8
0
  6
CONTINUOUS
 10
90.626933794836788
 20
465.67016880356448
 30
0.0
  0
VERTEX
  5
2CC0
  8
0
  6
CONTINUOUS
 10
136.025447630423
 20
453.50567368374601
 30
0.0
 42
-0.4142135623730951
  0
VERTEX
  5
2CC1
  8
0
  6
CONTINUOUS
 10
136.7325544116095
 20
452.28092881235438
 30
0.0
  0
VERTEX
  5
2CC2
  8
0
  6
CONTINUOUS
 10
133.36790682527669
 20
439.72389307059649
 30
0.0
  0
SEQEND
  5
2CC3
  8
0
  6
CONTINUOUS
  0
POLYLINE
  5
29A8
  8
0
  6
CONTINUOUS
 66
     1
 10
0.0
 20
0.0
 30
0.0
 40
1.0
 41
1.0
  0
VERTEX
  5
2CC4
  8
0
  6
CONTINUOUS
 10
133.8508697384213
 20
439.59448354804522
 30
0.0
  0
VERTEX
  5
2CC5
  8
0
  6
CONTINUOUS
 10
137.21551732475399
 20
452.1515192898031
 30
0.0
 42
0.4142135623730951
  0
VERTEX
  5
2CC6
  8
0
  6
CONTINUOUS
 10
136.15485715297419
 20
453.9886365968905
 30
0.0
  0
VERTEX
  5
2CC7
  8
0
  6
CONTINUOUS
 10
90.756343317388072
 20
466.15313171670903
 30
0.0
 42
0.4142135623730951
  0
VERTEX
  5
2CC8
  8
0
  6
CONTINUOUS
 10
88.91922601030069
 20
465.09247154492908
 30
0.0
  0
VERTEX
  5
2CC9
  8
0
  6
CONTINUOUS
 10
51.131645425332643
 20
324.06730090672522
 30
0.0
 42
-0.4142135623730951
  0
VERTEX
  5
2CCA
  8
0
  6
CONTINUOUS
 10
49.29452811824526
 20
323.00664073494539
 30
0.0
  0
VERTEX
  5
2CCB
  8
0
  6
CONTINUOUS
 10
3.8960142826590469
 20
335.17113585476392
 30
0.0
 42
-0.4142135623730951
  0
VERTEX
  5
2CCC
  8
0
  6
CONTINUOUS
 10
2.8353541108792251
 20
337.00825316185131
 30
0.0
  0
VERTEX
  5
2CCD
  8
0
  6
CONTINUOUS
 10
6.2000016972119942
 20
349.5652889036092
 30
0.0
  0
SEQEND
  5
2CCE
  8
0
  6
CONTINUOUS
  0
POLYLINE
  5
29A9
  8
0
  6
CONTINUOUS
 66
     1
 10
0.0
 20
0.0
 30
0.0
 70
     1
  0
VERTEX
  5
2CCF
  8
0
  6
CONTINUOUS
 10
-1.3750296038577401
 20
58.611853367318112
 30
0.0
  0
VERTEX
  5
2CD0
  8
0
  6
CONTINUOUS
 10
5.3864511801657491
 20
56.800120051600473
 30
0.0
 42
-0.4142135623730951
  0
VERTEX
  5
2CD1
  8
0
  6
CONTINUOUS
 10
8.9219850860984735
 20
50.676395694642522
 30
0.0
  0
VERTEX
  5
2CD2
  8
0
  6
CONTINUOUS
 10
1.675051823227889
 20
23.630472558548611
 30
0.0
 42
-0.4142135623730951
  0
VERTEX
  5
2CD3
  8
0
  6
CONTINUOUS
 10
-4.448672533730047
 20
20.09493865261587
 30
0.0
  0
VERTEX
  5
2CD4
  8
0
  6
CONTINUOUS
 10
-91.381996899746184
 20
43.388652711842731
 30
0.0
 42
-0.4142135623730951
  0
VERTEX
  5
2CD5
  8
0
  6
CONTINUOUS
 10
-94.917530805678936
 20
49.512377068800681
 30
0.0
  0
VERTEX
  5
2CD6
  8
0
  6
CONTINUOUS
 10
-80.941302370142807
 20
101.67237168841029
 30
0.0
  0
VERTEX
  5
2CD7
  8
0
  6
CONTINUOUS
 10
-66.856238435999046
 20
115.6015128669281
 30
0.0
  0
VERTEX
  5
2CD8
  8
0
  6
CONTINUOUS
 10
-60.437526117456493
 20
139.55647335889719
 30
0.0
  0
VERTEX
  5
2CD9
  8
0
  6
CONTINUOUS
 10
-65.670978709094101
 20
158.66199543946539
 30
0.0
  0
VERTEX
  5
2CDA
  8
0
  6
CONTINUOUS
 10
-49.10655982253278
 20
220.48124832196581
 30
0.0
  0
VERTEX
  5
2CDB
  8
0
  6
CONTINUOUS
 10
-35.021495888389012
 20
234.4103895004836
 30
0.0
  0
VERTEX
  5
2CDC
  8
0
  6
CONTINUOUS
 10
-28.602783569846451
 20
258.36534999245259
 30
0.0
  0
VERTEX
  5
2CDD
  8
0
  6
CONTINUOUS
 10
-33.836236161484052
 20
277.47087207302081
 30
0.0
  0
VERTEX
  5
2CDE
  8
0
  6
CONTINUOUS
 10
-19.860007725947941
 20
329.63086669263049
 30
0.0
 42
-0.4142135623730951
  0
VERTEX
  5
2CDF
  8
0
  6
CONTINUOUS
 10
-13.73628336898998
 20
333.16640059856331
 30
0.0
  0
VERTEX
  5
2CE0
  8
0
  6
CONTINUOUS
 10
73.197040997026164
 20
309.87268653933643
 30
0.0
 42
-0.4142135623730951
  0
VERTEX
  5
2CE1
  8
0
  6
CONTINUOUS
 10
76.732574902958902
 20
303.74896218237842
 30
0.0
  0
VERTEX
  5
2CE2
  8
0
  6
CONTINUOUS
 10
69.485641640088318
 20
276.70303904628452
 30
0.0
 42
-0.4142135623730951
  0
VERTEX
  5
2CE3
  8
0
  6
CONTINUOUS
 10
63.36191728313036
 20
273.16750514035169
 30
0.0
  0
VERTEX
  5
2CE4
  8
0
  6
CONTINUOUS
 10
56.60043649910687
 20
274.97923845606942
 30
0.0
  0
VERTEX
  5
2CE5
  8
0
  6
CONTINUOUS
 10
56.97572411450551
 20
276.3798309041884
 30
0.0
  0
VERTEX
  5
2CE6
  8
0
  6
CONTINUOUS
 10
63.737204898529001
 20
274.56809758847072
 30
0.0
 42
0.4142135623731251
  0
VERTEX
  5
2CE7
  8
0
  6
CONTINUOUS
 10
68.085049191969347
 20
277.07832666168309
 30
0.0
  0
VERTEX
  5
2CE8
  8
0
  6
CONTINUOUS
 10
75.331982454839931
 20
304.12424979777711
 30
0.0
 42
0.4142135623731251
  0
VERTEX
  5
2CE9
  8
0
  6
CONTINUOUS
 10
72.821753381627559
 20
308.4720940912174
 30
0.0
  0
VERTEX
  5
2CEA
  8
0
  6
CONTINUOUS
 10
-14.111570984388591
 20
331.76580815044429
 30
0.0
 42
0.4142135623731251
  0
VERTEX
  5
2CEB
  8
0
  6
CONTINUOUS
 10
-18.45941527782897
 20
329.25557907723191
 30
0.0
  0
VERTEX
  5
2CEC
  8
0
  6
CONTINUOUS
 10
-32.333965492382681
 20
277.47505274435167
 30
0.0
  0
VERTEX
  5
2CED
  8
0
  6
CONTINUOUS
 10
-27.10051290074507
 20
258.36953066378362
 30
0.0
  0
VERTEX
  5
2CEE
  8
0
  6
CONTINUOUS
 10
-33.722581661252448
 20
233.65563359835539
 30
0.0
  0
VERTEX
  5
2CEF
  8
0
  6
CONTINUOUS
 10
-47.80764559539621
 20
219.7264924198376
 30
0.0
  0
VERTEX
  5
2CF0
  8
0
  6
CONTINUOUS
 10
-64.168708039992708
 20
158.6661761107963
 30
0.0
  0
VERTEX
  5
2CF1
  8
0
  6
CONTINUOUS
 10
-58.935255448355107
 20
139.56065403022811
 30
0.0
  0
VERTEX
  5
2CF2
  8
0
  6
CONTINUOUS
 10
-65.557324208862497
 20
114.84675696479999
 30
0.0
  0
VERTEX
  5
2CF3
  8
0
  6
CONTINUOUS
 10
-79.642388143006244
 20
100.9176157862822
 30
0.0
  0
VERTEX
  5
2CF4
  8
0
  6
CONTINUOUS
 10
-93.516938357559965
 20
49.137089453402069
 30
0.0
 42
0.4142135623731251
  0
VERTEX
  5
2CF5
  8
0
  6
CONTINUOUS
 10
-91.006709284347565
 20
44.789245159961702
 30
0.0
  0
VERTEX
  5
2CF6
  8
0
  6
CONTINUOUS
 10
-4.0733849183314268
 20
21.495531100734851
 30
0.0
 42
0.4142135623731251
  0
VERTEX
  5
2CF7
  8
0
  6
CONTINUOUS
 10
0.2744593751089184
 20
24.00576017394722
 30
0.0
  0
VERTEX
  5
2CF8
  8
0
  6
CONTINUOUS
 10
7.5213926379795017
 20
51.05168331004112
 30
0.0
 42
0.4142135623731251
  0
VERTEX
  5
2CF9
  8
0
  6
CONTINUOUS
 10
5.011163564767144
 20
55.399527603481502
 30
0.0
  0
VERTEX
  5
2CFA
  8
0
  6
CONTINUOUS
 10
-1.750317219256345
 20
57.211260919199127
 30
0.0
  0
SEQEND
  5
2CFB
  8
0
  6
CONTINUOUS
  0
POLYLINE
  5
29AA
  8
0
  6
CONTINUOUS
 66
     1
 10
0.0
 20
0.0
 30
0.0
 40
1.0
 41
1.0
  0
VERTEX
  5
2CFC
  8
0
  6
CONTINUOUS
 10
-1.562673411557042
 20
57.911557143258619
 30
0.0
  0
VERTEX
  5
2CFD
  8
0
  6
CONTINUOUS
 10
5.1988073724664474
 20
56.09982382754098
 30
0.0
 42
-0.4142135623730951
  0
VERTEX
  5
2CFE
  8
0
  6
CONTINUOUS
 10
8.2216888620389881
 20
50.864039502341818
 30
0.0
  0
VERTEX
  5
2CFF
  8
0
  6
CONTINUOUS
 10
0.9747555991684038
 20
23.81811636624791
 30
0.0
 42
-0.4142135623730951
  0
VERTEX
  5
2D00
  8
0
  6
CONTINUOUS
 10
-4.2610287260307302
 20
20.795234876675359
 30
0.0
  0
VERTEX
  5
2D01
  8
0
  6
CONTINUOUS
 10
-91.194353092046896
 20
44.088948935902209
 30
0.0
 42
-0.4142135623730951
  0
VERTEX
  5
2D02
  8
0
  6
CONTINUOUS
 10
-94.217234581619451
 20
49.324733261101372
 30
0.0
  0
VERTEX
  5
2D03
  8
0
  6
CONTINUOUS
 10
-80.291845256574547
 20
101.2949937373462
 30
0.0
  0
VERTEX
  5
2D04
  8
0
  6
CONTINUOUS
 10
-66.206781322430786
 20
115.224134915864
 30
0.0
  0
VERTEX
  5
2D05
  8
0
  6
CONTINUOUS
 10
-59.686390782905782
 20
139.55856369456271
 30
0.0
  0
VERTEX
  5
2D06
  8
0
  6
CONTINUOUS
 10
-64.919843374543404
 20
158.66408577513101
 30
0.0
  0
VERTEX
  5
2D07
  8
0
  6
CONTINUOUS
 10
-48.457102708964499
 20
220.1038703709016
 30
0.0
  0
VERTEX
  5
2D08
  8
0
  6
CONTINUOUS
 10
-34.372038774820751
 20
234.0330115494194
 30
0.0
  0
VERTEX
  5
2D09
  8
0
  6
CONTINUOUS
 10
-27.851648235295741
 20
258.36744032811822
 30
0.0
  0
VERTEX
  5
2D0A
  8
0
  6
CONTINUOUS
 10
-33.085100826933342
 20
277.47296240868639
 30
0.0
  0
VERTEX
  5
2D0B
  8
0
  6
CONTINUOUS
 10
-19.159711501888449
 20
329.44322288493117
 30
0.0
 42
-0.4142135623730951
  0
VERTEX
  5
2D0C
  8
0
  6
CONTINUOUS
 10
-13.92392717668929
 20
332.4661043745038
 30
0.0
  0
VERTEX
  5
2D0D
  8
0
  6
CONTINUOUS
 10
73.009397189326876
 20
309.17239031527691
 30
0.0
 42
-0.4142135623730951
  0
VERTEX
  5
2D0E
  8
0
  6
CONTINUOUS
 10
76.032278678899374
 20
303.93660599007768
 30
0.0
  0
VERTEX
  5
2D0F
  8
0
  6
CONTINUOUS
 10
68.785345416028832
 20
276.89068285398378
 30
0.0
 42
-0.4142135623730951
  0
VERTEX
  5
2D10
  8
0
  6
CONTINUOUS
 10
63.549561090829677
 20
273.86780136441132
 30
0.0
  0
VERTEX
  5
2D11
  8
0
  6
CONTINUOUS
 10
56.788080306806187
 20
275.67953468012888
 30
0.0
  0
SEQEND
  5
2D12
  8
0
  6
CONTINUOUS
  0
LINE
  5
29AB
  8
0
 10
2.9006698632330021
 20
-732.74409304464859
 30
0.0
 11
2.4995003433240179
 21
-734.24127807539685
 31
0.0
  0
LINE
  5
29AC
  8
0
 10
4.3495586026665771
 20
-733.13232161230235
 30
0.0
 11
3.9483890827575929
 21
-734.6295066430506
 31
0.0
  0
LINE
  5
29AD
  8
0
 10
7.5780363887407729
 20
-739.31870919517019
 30
0.0
 11
7.8433259099707646
 21
-738.32863522322407
 31
0.0
  0
LINE
  5
29AE
  8
0
 10
-2.9884677064913521
 20
-736.48742295603245
 30
0.0
 11
-2.7231781852613901
 21
-735.49734898408656
 31
0.0
  0
LINE
  5
29AF
  8
0
 10
7.8433259099707646
 20
-738.32863522322407
 30
0.0
 11
6.7506534385505246
 21
-737.67350785377153
 31
0.0
  0
LINE
  5
29B0
  8
0
 10
2.9006698632330021
 20
-732.74409304464859
 30
0.0
 11
0.5501195501395115
 21
-732.11426498648564
 31
0.0
  0
ARC
  5
29B1
  8
0
 10
1.6633467520245611
 20
-740.25962323992485
 30
0.0
 40
7.5796874999999977
 50
80.678633468273915
 51
91.260204708354223
  0
ARC
  5
29B2
  8
0
 10
6.1802405333152128
 20
-735.70232488699821
 30
0.0
 40
2.0086171874996772
 50
43.109208198176553
 51
106.89079180181849
  0
ARC
  5
29B3
  8
0
 10
0.0302511676942743
 20
-734.05444020301979
 30
0.0
 40
2.0086171874996772
 50
43.109208198176553
 51
106.89079180181849
  0
ARC
  5
29B4
  8
0
 10
1.6633467520245611
 20
-740.25962323992485
 30
0.0
 40
7.5796874999999977
 50
58.739795291644803
 51
69.321366531725687
  0
LINE
  5
29B5
  8
0
 10
6.7001089157602456
 20
-733.7621496704644
 30
0.0
 11
4.3495586026665771
 21
-733.13232161230235
 31
0.0
  0
LINE
  5
29B6
  8
0
 10
7.5780363887407729
 20
-739.31870919517019
 30
0.0
 11
-2.9884677064913521
 21
-736.48742295603245
 31
0.0
  0
LINE
  5
29B7
  8
0
 10
-1.4493323822691691
 20
-735.47632827513621
 30
0.0
 11
-0.5533493766988135
 21
-732.13247417561524
 31
0.0
  0
LINE
  5
29B8
  8
0
 10
6.7506534385505246
 20
-737.67350785377153
 30
0.0
 11
7.6466364441244226
 21
-734.32965375425135
 31
0.0
  0
LINE
  5
29B9
  8
0
 10
4.7006569833447163
 20
-737.12421295911247
 30
0.0
 11
5.5966399889186143
 21
-733.78035885959241
 31
0.0
  0
LINE
  5
29BA
  8
0
 10
0.6006640729366395
 20
-736.02562316979515
 30
0.0
 11
1.496647078510537
 21
-732.68176907027521
 31
0.0
  0
LINE
  5
29BB
  8
0
 10
-4.1756917864400762
 20
-762.05121173282748
 30
0.0
 11
-1.950345911699354
 21
-759.54166282161589
 31
0.0
  0
LINE
  5
29BC
  8
0
 10
-4.1756917864400762
 20
-762.05121173282748
 30
0.0
 11
-4.8481233905661156
 21
-758.76520568630644
 31
0.0
  0
LINE
  5
29BD
  8
0
 10
0.8458956016893385
 20
-737.51483750794705
 30
0.0
 11
-4.8481233905661156
 21
-758.76520568630644
 31
0.0
  0
LINE
  5
29BE
  8
0
 10
3.7436730805565701
 20
-738.29129464325456
 30
0.0
 11
-1.950345911699354
 21
-759.54166282161589
 31
0.0
  0
LINE
  5
29BF
  8
0
 10
3.9483890827575929
 20
-734.6295066430506
 30
0.0
 11
2.4995003433240179
 21
-734.24127807539685
 31
0.0
  0
LINE
  5
29C0
  8
0
 10
-4.5294627318873282
 20
-760.32242108901414
 30
0.0
 11
-2.642684356174656
 21
-760.32242108901391
 31
0.0
  0
LINE
  5
29C1
  8
0
 10
-2.4920309124417299
 20
-749.97214885061555
 30
0.0
 11
0.6137976287886062
 21
-749.97214885061521
 31
0.0
  0
LINE
  5
29C2
  8
0
 10
-0.8276224135376128
 20
-743.76049176815593
 30
0.0
 11
2.2782061276927239
 21
-743.76049176815559
 31
0.0
  0
LINE
  5
29C3
  8
0
 10
0.0045818359144461
 20
-740.65466322692612
 30
0.0
 11
3.1104103771447829
 21
-740.65466322692578
 31
0.0
  0
LINE
  5
29C4
  8
0
 10
6.7506534385505246
 20
-737.67350785377153
 30
0.0
 11
-1.4493323822691691
 21
-735.47632827513621
 31
0.0
  0
LINE
  5
29C5
  8
0
 10
-1.4493323822731821
 20
-735.47632827513701
 30
0.0
 11
-2.7231781852613901
 21
-735.49734898408656
 31
0.0
  0
LINE
  5
29C6
  8
0
 10
-3.4100846263455811
 20
-753.39837195498194
 30
-0.0000000000000561
 11
-0.3042560851152158
 21
-753.3983719549816
 31
-0.0000000000000561
  0
LINE
  5
29C7
  8
0
 10
-1.5739771985379081
 20
-746.54592574624928
 30
0.0000000000000561
 11
1.5318513426924281
 21
-746.54592574624894
 31
0.0000000000000561
  0
LINE
  5
29C8
  8
0
 10
-4.328138340249402
 20
-756.82459505934833
 30
-0.0000000000001123
 11
-1.222309799019065
 21
-756.82459505934787
 31
-0.0000000000001123
  0
LINE
  5
29C9
  8
0
 10
118.0138986125101
 20
479.98046277592442
 30
0.0
 11
117.6127290926011
 21
478.483277745176
 31
0.0
  0
LINE
  5
29CA
  8
0
 10
119.4627873519436
 20
479.59223420827072
 30
0.0
 11
119.0616178320347
 21
478.0950491775223
 31
0.0
  0
LINE
  5
29CB
  8
0
 10
122.6912651380178
 20
473.40584662540272
 30
0.0
 11
122.9565546592478
 21
474.39592059734878
 31
0.0
  0
LINE
  5
29CC
  8
0
 10
112.12476104278571
 20
476.23713286454051
 30
0.0
 11
112.3900505640157
 21
477.2272068364864
 31
0.0
  0
LINE
  5
29CD
  8
0
 10
122.9565546592478
 20
474.39592059734878
 30
0.0
 11
121.8638821878276
 21
475.05104796680149
 31
0.0
  0
LINE
  5
29CE
  8
0
 10
118.0138986125101
 20
479.98046277592442
 30
0.0
 11
115.6633482994166
 21
480.61029083408732
 31
0.0
  0
ARC
  5
29CF
  8
0
 10
116.77657550130159
 20
472.464932580648
 30
0.0
 40
7.5796874999999977
 50
80.678633468274555
 51
91.260204708354223
  0
ARC
  5
29D0
  8
0
 10
121.2934692825923
 20
477.0222309335748
 30
0.0
 40
2.0086171874996772
 50
43.109208198176631
 51
106.8907918018174
  0
ARC
  5
29D1
  8
0
 10
115.1434799169714
 20
478.67011561755311
 30
0.0
 40
2.0086171874996772
 50
43.109208198176631
 51
106.8907918018174
  0
ARC
  5
29D2
  8
0
 10
116.77657550130159
 20
472.464932580648
 30
0.0
 40
7.5796874999999977
 50
58.73979529164675
 51
69.321366531725744
  0
LINE
  5
29D3
  8
0
 10
121.8133376650373
 20
478.96240615010839
 30
0.0
 11
119.4627873519436
 21
479.59223420827072
 31
0.0
  0
LINE
  5
29D4
  8
0
 10
122.6912651380178
 20
473.40584662540272
 30
0.0
 11
112.12476104278571
 21
476.23713286454051
 31
0.0
  0
LINE
  5
29D5
  8
0
 10
113.66389636700789
 20
477.24822754543669
 30
0.0
 11
114.55987937257819
 21
480.59208164495777
 31
0.0
  0
LINE
  5
29D6
  8
0
 10
121.8638821878276
 20
475.05104796680149
 30
0.0
 11
122.7598651934015
 21
478.39490206632149
 31
0.0
  0
LINE
  5
29D7
  8
0
 10
119.8138857326218
 20
475.60034286146049
 30
0.0
 11
120.70986873819569
 21
478.94419696098061
 31
0.0
  0
LINE
  5
29D8
  8
0
 10
115.71389282221369
 20
476.69893265077769
 30
0.0
 11
116.6098758277876
 21
480.04278675029769
 31
0.0
  0
LINE
  5
29D9
  8
0
 10
110.937536962837
 20
450.67334408774548
 30
0.0
 11
113.1628828375777
 21
453.18289299895707
 31
0.0
  0
LINE
  5
29DA
  8
0
 10
110.937536962837
 20
450.67334408774548
 30
0.0
 11
110.265105358711
 21
453.9593501342664
 31
0.0
  0
LINE
  5
29DB
  8
0
 10
115.95912435096641
 20
475.20971831262591
 30
0.0
 11
110.265105358711
 21
453.9593501342664
 31
0.0
  0
LINE
  5
29DC
  8
0
 10
118.8569018298337
 20
474.4332611773184
 30
0.0
 11
113.1628828375777
 21
453.18289299895707
 31
0.0
  0
LINE
  5
29DD
  8
0
 10
119.0616178320347
 20
478.0950491775223
 30
0.0
 11
117.6127290926011
 21
478.483277745176
 31
0.0
  0
LINE
  5
29DE
  8
0
 10
110.58376601738971
 20
452.40213473155887
 30
0.0
 11
112.4705443931024
 21
452.4021347315591
 31
0.0
  0
LINE
  5
29DF
  8
0
 10
112.62119783683529
 20
462.75240696995741
 30
0.0
 11
115.7270263780657
 21
462.75240696995769
 31
0.0
  0
LINE
  5
29E0
  8
0
 10
114.2856063357395
 20
468.96406405241697
 30
0.0
 11
117.3914348769698
 21
468.96406405241731
 31
0.0
  0
LINE
  5
29E1
  8
0
 10
115.11781058519151
 20
472.06989259364678
 30
0.0
 11
118.2236391264219
 21
472.06989259364718
 31
0.0
  0
LINE
  5
29E2
  8
0
 10
121.8638821878276
 20
475.05104796680149
 30
0.0
 11
113.66389636700789
 21
477.24822754543669
 31
0.0
  0
LINE
  5
29E3
  8
0
 10
113.6638963670039
 20
477.2482275454359
 30
0.0
 11
112.3900505640157
 21
477.2272068364864
 31
0.0
  0
LINE
  5
29E4
  8
0
 10
111.7031441229315
 20
459.32618386559102
 30
-0.0000000000000561
 11
114.8089726641619
 21
459.3261838655913
 31
-0.0000000000000561
  0
LINE
  5
29E5
  8
0
 10
113.53925155073919
 20
466.17863007432368
 30
0.0000000000000561
 11
116.6450800919695
 21
466.17863007432408
 31
0.0000000000000561
  0
LINE
  5
29E6
  8
0
 10
110.7850904090277
 20
455.89996076122458
 30
-0.0000000000001123
 11
113.890918950258
 21
455.89996076122497
 31
-0.0000000000001123
  0
LINE
  5
29EC
  8
0
  6
CONTINUOUS
 10
101.07093068972461
 20
473.43704192729348
 30
0.0
 11
102.46936935550769
 21
474.2444308674286
 31
0.0
1001
ACAD
1010
0.0
1020
0.0
1030
0.0
  0
LINE
  5
29ED
  8
0
  6
CONTINUOUS
 10
100.33887988215579
 20
470.7049911197247
 30
0.0
 11
105.20142016307661
 21
473.51238005985982
 31
0.0
1001
ACAD
1010
0.0
1020
0.0
1030
0.0
  0
LINE
  5
29EE
  8
0
  6
CONTINUOUS
 10
99.606829074586912
 20
467.9729403121558
 30
0.0
 11
107.9334709706455
 21
472.78032925229081
 31
0.0
1001
ACAD
1010
0.0
1020
0.0
1030
0.0
  0
LINE
  5
29EF
  8
0
  6
CONTINUOUS
 10
101.1073316057692
 20
466.52985477569513
 30
0.0
 11
110.6655217782144
 21
472.04827844472192
 31
0.0
1001
ACAD
1010
0.0
1020
0.0
1030
0.0
  0
LINE
  5
29F0
  8
0
  6
CONTINUOUS
 10
103.839382413338
 20
465.79780396812617
 30
0.0
 11
113.39757258578329
 21
471.31622763715308
 31
0.0
1001
ACAD
1010
0.0
1020
0.0
1030
0.0
  0
LINE
  5
29F1
  8
0
  6
CONTINUOUS
 10
106.5714332209069
 20
465.06575316055728
 30
0.0
 11
116.12962339335211
 21
470.58417682958418
 31
0.0
1001
ACAD
1010
0.0
1020
0.0
1030
0.0
  0
LINE
  5
29F2
  8
0
  6
CONTINUOUS
 10
109.30348402847579
 20
464.3337023529885
 30
0.0
 11
118.861674200921
 21
469.85212602201528
 31
0.0
1001
ACAD
1010
0.0
1020
0.0
1030
0.0
  0
LINE
  5
29F3
  8
0
  6
CONTINUOUS
 10
112.0355348360446
 20
463.6016515454196
 30
0.0
 11
121.5937250084899
 21
469.12007521444662
 31
0.0
1001
ACAD
1010
0.0
1020
0.0
1030
0.0
  0
LINE
  5
29F4
  8
0
  6
CONTINUOUS
 10
114.7675856436135
 20
462.8696007378507
 30
0.0
 11
124.32577581605879
 21
468.38802440687761
 31
0.0
1001
ACAD
1010
0.0
1020
0.0
1030
0.0
  0
LINE
  5
29F5
  8
0
  6
CONTINUOUS
 10
117.4996364511824
 20
462.13754993028192
 30
0.0
 11
127.05782662362761
 21
467.65597359930871
 31
0.0
1001
ACAD
1010
0.0
1020
0.0
1030
0.0
  0
LINE
  5
29F6
  8
0
  6
CONTINUOUS
 10
120.23168725875129
 20
461.40549912271302
 30
0.0
 11
129.78987743119649
 21
466.92392279173981
 31
0.0
1001
ACAD
1010
0.0
1020
0.0
1030
0.0
  0
LINE
  5
29F7
  8
0
  6
CONTINUOUS
 10
122.9637380663201
 20
460.67344831514401
 30
0.0
 11
130.79461904399491
 21
465.19460955559651
 31
0.0
1001
ACAD
1010
0.0
1020
0.0
1030
0.0
  0
LINE
  5
29F8
  8
0
  6
CONTINUOUS
 10
125.6957888738891
 20
459.94139750757518
 30
0.0
 11
130.06256823642599
 21
462.46255874802762
 31
0.0
1001
ACAD
1010
0.0
1020
0.0
1030
0.0
  0
LINE
  5
29F9
  8
0
  6
CONTINUOUS
 10
128.4278396814579
 20
459.20934670000628
 30
0.0
 11
129.33051742885709
 21
459.73050794045878
 31
0.0
1001
ACAD
1010
0.0
1020
0.0
1030
0.0
  0
LINE
  5
29FA
  8
0
  6
CONTINUOUS
 10
-14.042298059552451
 20
-739.28751389327942
 30
0.0
 11
-12.643859393769331
 21
-738.48012495314435
 31
0.0
1001
ACAD
1010
0.0
1020
0.0
1030
0.0
  0
LINE
  5
29FB
  8
0
  6
CONTINUOUS
 10
-14.77434886712131
 20
-742.01956470084826
 30
0.0
 11
-9.9118085862004932
 21
-739.21217576071319
 31
0.0
1001
ACAD
1010
0.0
1020
0.0
1030
0.0
  0
LINE
  5
29FC
  8
0
  6
CONTINUOUS
 10
-15.50639967469022
 20
-744.75161550841722
 30
0.0
 11
-7.1797577786315978
 21
-739.94422656828215
 31
0.0
1001
ACAD
1010
0.0
1020
0.0
1030
0.0
  0
LINE
  5
29FD
  8
0
  6
CONTINUOUS
 10
-14.00589714350793
 20
-746.19470104487789
 30
0.0
 11
-4.447706971062706
 21
-740.67627737585099
 31
0.0
1001
ACAD
1010
0.0
1020
0.0
1030
0.0
  0
LINE
  5
29FE
  8
0
  6
CONTINUOUS
 10
-11.27384633593903
 20
-746.92675185244684
 30
0.0
 11
-1.7156561634938621
 21
-741.40832818341994
 31
0.0
1001
ACAD
1010
0.0
1020
0.0
1030
0.0
  0
LINE
  5
29FF
  8
0
  6
CONTINUOUS
 10
-8.5417955283701268
 20
-747.65880266001545
 30
0.0
 11
1.0163946440750311
 21
-742.14037899098878
 31
0.0
1001
ACAD
1010
0.0
1020
0.0
1030
0.0
  0
LINE
  5
2A00
  8
0
  6
CONTINUOUS
 10
-5.8097447208012731
 20
-748.39085346758452
 30
0.0
 11
3.748445451643923
 21
-742.87242979855762
 31
0.0
1001
ACAD
1010
0.0
1020
0.0
1030
0.0
  0
LINE
  5
2A01
  8
0
  6
CONTINUOUS
 10
-3.077693913232368
 20
-749.12290427515325
 30
0.0
 11
6.4804962592127673
 21
-743.60448060612646
 31
0.0
1001
ACAD
1010
0.0
1020
0.0
1030
0.0
  0
LINE
  5
2A02
  8
0
  6
CONTINUOUS
 10
-0.3456431056635121
 20
-749.85495508272231
 30
0.0
 11
9.21254706678166
 21
-744.33653141369541
 31
0.0
1001
ACAD
1010
0.0
1020
0.0
1030
0.0
  0
LINE
  5
2A03
  8
0
  6
CONTINUOUS
 10
2.3864077019053909
 20
-750.58700589029104
 30
0.0
 11
11.944597874350549
 21
-745.06858222126425
 31
0.0
1001
ACAD
1010
0.0
1020
0.0
1030
0.0
  0
LINE
  5
2A04
  8
0
  6
CONTINUOUS
 10
5.118458509474296
 20
-751.31905669785988
 30
0.0
 11
14.67664868191939
 21
-745.80063302883309
 31
0.0
1001
ACAD
1010
0.0
1020
0.0
1030
0.0
  0
LINE
  5
2A05
  8
0
  6
CONTINUOUS
 10
7.8505093170431488
 20
-752.05110750542883
 30
0.0
 11
15.68139029471776
 21
-747.5299462649765
 31
0.0
1001
ACAD
1010
0.0
1020
0.0
1030
0.0
  0
LINE
  5
2A06
  8
0
  6
CONTINUOUS
 10
10.58256012461205
 20
-752.78315831299767
 30
0.0
 11
14.949339487148841
 21
-750.26199707254534
 31
0.0
1001
ACAD
1010
0.0
1020
0.0
1030
0.0
  0
LINE
  5
2A07
  8
0
  6
CONTINUOUS
 10
13.314610932180949
 20
-753.51520912056662
 30
0.0
 11
14.217288679579919
 21
-752.99404788011441
 31
0.0
1001
ACAD
1010
0.0
1020
0.0
1030
0.0
  0
ENDSEC
  0
EOF
