  0
SECTION
  2
HEADER
  9
$ACADVER
  1
AC1009
  9
$INSBASE
 10
0.0
 20
0.0
 30
0.0
  9
$EXTMIN
 10
239.28809125345401
 20
-488.51320704722502
 30
-0.0000000000001514
  9
$EXTMAX
 10
868.20920170220245
 20
165.0908490070712
 30
0.0000000000000931
  9
$LIMMIN
 10
0.0
 20
0.0
  9
$LIMMAX
 10
12.0
 20
9.0
  9
$ORTHOMODE
 70
     0
  9
$REGENMODE
 70
     1
  9
$FILLMODE
 70
     1
  9
$QTEXTMODE
 70
     0
  9
$MIRRTEXT
 70
     0
  9
$DRAGMODE
 70
     2
  9
$LTSCALE
 40
1.0
  9
$OSMODE
 70
     0
  9
$ATTMODE
 70
     1
  9
$TEXTSIZE
 40
0.2
  9
$TRACEWID
 40
0.05
  9
$TEXTSTYLE
  7
ARIAL
  9
$CLAYER
  8
0
  9
$CELTYPE
  6
CONTINUOUS
  9
$CECOLOR
 62
   256
  9
$DIMSCALE
 40
5.0
  9
$DIMASZ
 40
3.0
  9
$DIMEXO
 40
2.0
  9
$DIMDLI
 40
6.0
  9
$DIMRND
 40
0.0
  9
$DIMDLE
 40
2.0
  9
$DIMEXE
 40
2.0
  9
$DIMTP
 40
0.0
  9
$DIMTM
 40
0.0
  9
$DIMTXT
 40
2.5
  9
$DIMCEN
 40
2.0
  9
$DIMTSZ
 40
0.0
  9
$DIMTOL
 70
     0
  9
$DIMLIM
 70
     0
  9
$DIMTIH
 70
     0
  9
$DIMTOH
 70
     0
  9
$DIMSE1
 70
     0
  9
$DIMSE2
 70
     0
  9
$DIMTAD
 70
     0
  9
$DIMZIN
 70
     0
  9
$DIMBLK
  1

  9
$DIMASO
 70
     1
  9
$DIMSHO
 70
     1
  9
$DIMPOST
  1
mm
  9
$DIMAPOST
  1

  9
$DIMALT
 70
     0
  9
$DIMALTD
 70
     2
  9
$DIMALTF
 40
0.0394
  9
$DIMLFAC
 40
1.0
  9
$DIMTOFL
 70
     0
  9
$DIMTVP
 40
0.0
  9
$DIMTIX
 70
     0
  9
$DIMSOXD
 70
     0
  9
$DIMSAH
 70
     0
  9
$DIMBLK1
  1

  9
$DIMBLK2
  1

  9
$DIMSTYLE
  2
1_TO_5
  9
$DIMCLRD
 70
   256
  9
$DIMCLRE
 70
   256
  9
$DIMCLRT
 70
   256
  9
$DIMTFAC
 40
1.0
  9
$DIMGAP
 40
1.0
  9
$LUNITS
 70
     2
  9
$LUPREC
 70
     1
  9
$SKETCHINC
 40
0.1
  9
$FILLETRAD
 40
0.0
  9
$AUNITS
 70
     1
  9
$AUPREC
 70
     4
  9
$MENU
  1
.
  9
$ELEVATION
 40
0.0
  9
$PELEVATION
 40
0.0
  9
$THICKNESS
 40
0.0
  9
$LIMCHECK
 70
     0
  9
$BLIPMODE
 70
     0
  9
$CHAMFERA
 40
0.0
  9
$CHAMFERB
 40
0.0
  9
$SKPOLY
 70
     0
  9
$TDCREATE
 40
2454488.6282573729
  9
$TDUPDATE
 40
2455936.5376067129
  9
$TDINDWG
 40
0.0343781829
  9
$TDUSRTIMER
 40
0.0343781829
  9
$USRTIMER
 70
     1
  9
$ANGBASE
 50
0.0
  9
$ANGDIR
 70
     0
  9
$PDMODE
 70
     0
  9
$PDSIZE
 40
0.0
  9
$PLINEWID
 40
0.0
  9
$COORDS
 70
     1
  9
$SPLFRAME
 70
     0
  9
$SPLINETYPE
 70
     6
  9
$SPLINESEGS
 70
     8
  9
$ATTDIA
 70
     0
  9
$ATTREQ
 70
     1
  9
$HANDLING
 70
     1
  9
$HANDSEED
  5
11C0
  9
$SURFTAB1
 70
     6
  9
$SURFTAB2
 70
     6
  9
$SURFTYPE
 70
     6
  9
$SURFU
 70
     6
  9
$SURFV
 70
     6
  9
$UCSNAME
  2

  9
$UCSORG
 10
0.0
 20
0.0
 30
0.0
  9
$UCSXDIR
 10
1.0
 20
0.0
 30
0.0
  9
$UCSYDIR
 10
0.0
 20
1.0
 30
0.0
  9
$PUCSNAME
  2

  9
$PUCSORG
 10
0.0
 20
0.0
 30
0.0
  9
$PUCSXDIR
 10
1.0
 20
0.0
 30
0.0
  9
$PUCSYDIR
 10
0.0
 20
1.0
 30
0.0
  9
$USERI1
 70
     0
  9
$USERI2
 70
     0
  9
$USERI3
 70
     0
  9
$USERI4
 70
     0
  9
$USERI5
 70
     0
  9
$USERR1
 40
0.0
  9
$USERR2
 40
0.0
  9
$USERR3
 40
0.0
  9
$USERR4
 40
0.0
  9
$USERR5
 40
0.0
  9
$WORLDVIEW
 70
     1
  9
$SHADEDGE
 70
     3
  9
$SHADEDIF
 70
    70
  9
$TILEMODE
 70
     1
  9
$MAXACTVP
 70
    64
  9
$PLIMCHECK
 70
     0
  9
$PEXTMIN
 10
0.0
 20
0.0
 30
0.0
  9
$PEXTMAX
 10
0.0
 20
0.0
 30
0.0
  9
$PLIMMIN
 10
0.0
 20
0.0
  9
$PLIMMAX
 10
12.0
 20
9.0
  9
$UNITMODE
 70
     0
  9
$VISRETAIN
 70
     1
  9
$PLINEGEN
 70
     0
  9
$PSLTSCALE
 70
     1
  0
ENDSEC
  0
SECTION
  2
TABLES
  0
TABLE
  2
VPORT
 70
     1
  0
VPORT
  2
*ACTIVE
 70
     0
 10
0.0
 20
0.0
 11
1.0
 21
1.0
 12
553.74864647782817
 22
-161.71117902007691
 13
0.0
 23
0.0
 14
1.0
 24
1.0
 15
0.0
 25
0.0
 16
0.0
 26
0.0
 36
1.0
 17
0.0
 27
0.0
 37
0.0
 40
657.53353935722794
 41
1.6128385155466389
 42
50.0
 43
0.0
 44
0.0
 50
0.0
 51
0.0
 71
     0
 72
   100
 73
     1
 74
     3
 75
     0
 76
     0
 77
     0
 78
     0
  0
ENDTAB
  0
TABLE
  2
LTYPE
 70
     2
  0
LTYPE
  2
CONTINUOUS
 70
     0
  3
Solid line
 72
    65
 73
     0
 40
0.0
  0
LTYPE
  2
GENR-01_BARGE_WAL_JCTN$0$A
 70
     0
  3
ISO dash __ __ __ __ __ __ __ __ __ __ __ __ __
 72
    65
 73
     2
 40
15.0
 49
12.0
 49
-3.0
  0
ENDTAB
  0
TABLE
  2
LAYER
 70
     5
  0
LAYER
  2
0
 70
     0
 62
     7
  6
CONTINUOUS
  0
ENDTAB
  0
TABLE
  2
STYLE
 70
     4
  0
STYLE
  2
STANDARD
 70
     0
 40
0.0
 41
1.0
 50
0.0
 71
     0
 42
0.2
  3
txt
  4

  0
STYLE
  2
ARIAL
 70
     0
 40
0.0
 41
1.0
 50
0.0
 71
     0
 42
0.2
  3
txt
  4

  0
STYLE
  2
GENR-01_BARGE_WAL_JCTN$0$A
 70
     0
 40
0.0
 41
1.0
 50
0.0
 71
     0
 42
0.2
  3
txt
  4

  0
ENDTAB
  0
TABLE
  2
VIEW
 70
     2
  0
VIEW
  2
COMM-04
 70
     1
 40
477.26027331217421
 10
194.21746115522001
 20
180.60494410563541
 41
755.81685306636155
 11
0.0
 21
0.0
 31
1.0
 12
0.0
 22
0.0
 32
0.0
 42
50.0
 43
0.0
 44
0.0
 50
0.0
 71
     0
  0
ENDTAB
  0
TABLE
  2
UCS
 70
     0
  0
ENDTAB
  0
TABLE
  2
APPID
 70
    27
  0
APPID
  2
ACAD
 70
     0
  0
APPID
  2
ACADANNOTATIVE
 70
     0
  0
APPID
  2
ACAD_MLEADERVER
 70
     0
  0
APPID
  2
ACAD_DSTYLE_DIMEXT_ENABLED
 70
     0
  0
APPID
  2
ACAD_DSTYLE_DIMEXT_LENGTH
 70
     0
  0
APPID
  2
ACAUTHENVIRON
 70
     0
  0
APPID
  2
ACDBDYNAMICBLOCKTRUENAME
 70
     0
  0
APPID
  2
ACDBDYNAMICBLOCKGUID
 70
     0
  0
APPID
  2
ACDBBLOCKREPETAG
 70
     0
  0
APPID
  2
ACAD_PSEXT
 70
     0
  0
APPID
  2
GENIUS_GENODEF_13
 70
     0
  0
APPID
  2
GENIUS_GENSCREG_15
 70
     0
  0
APPID
  2
GENIUS_GENOBJ-N-SDF_13
 70
     0
  0
APPID
  2
GENIUS_GENCFG_13
 70
     0
  0
APPID
  2
GENIUS_GENCFG0_13
 70
     0
  0
APPID
  2
ACAECLAYERSTANDARD
 70
     0
  0
APPID
  2
ACCMTRANSPARENCY
 70
     0
  0
APPID
  2
RAK
 70
     0
  0
APPID
  2
ACAD_EXEMPT_FROM_CAD_STANDARDS
 70
     0
  0
APPID
  2
ACADANNOPO
 70
     0
  0
APPID
  2
ADESKUNDERLAYLAYEROVERRIDEDATA
 70
     0
  0
APPID
  2
URBANX
 70
     0
  0
APPID
  2
GRADIENTCOLOR1ACI
 70
     0
  0
APPID
  2
GRADIENTCOLOR2ACI
 70
     0
  0
APPID
  2
ACAD_NAV_VCDISPLAY
 70
     0
  0
APPID
  2
ACAD_DSTYLE_DIMJOGGED_JOGA
 70
     0
  0
APPID
  2
PE_URL
 70
     0
  0
ENDTAB
  0
TABLE
  2
DIMSTYLE
 70
     3
  0
DIMSTYLE
  2
1_TO_5
 70
     0
  3
mm
  4

  5

  6

  7

 40
5.0
 41
3.0
 42
2.0
 43
6.0
 44
2.0
 45
0.0
 46
2.0
 47
0.0
 48
0.0
140
2.5
141
2.0
142
0.0
143
0.0394
144
1.0
145
0.0
146
1.0
147
1.0
 71
     0
 72
     0
 73
     0
 74
     0
 75
     0
 76
     0
 77
     0
 78
     0
170
     0
171
     2
172
     0
173
     0
174
     0
175
     0
176
   256
177
   256
178
   256
  0
DIMSTYLE
  2
GENR-01_BARGE_WAL_JCTN$0$1
 70
     0
  3

  4

  5
GENR-01_BARGE_WAL_JCTN$0$_
  6

  7

 40
5.0
 41
2.0
 42
2.0
 43
6.0
 44
1.5
 45
0.0
 46
1.5
 47
0.0
 48
0.0
140
2.0
141
2.0
142
0.0
143
0.0394
144
1.0
145
0.0
146
1.0
147
1.0
 71
     0
 72
     0
 73
     0
 74
     0
 75
     0
 76
     0
 77
     0
 78
     0
170
     0
171
     2
172
     1
173
     0
174
     1
175
     0
176
     0
177
     0
178
     0
  0
ENDTAB
  0
ENDSEC
  0
SECTION
  2
BLOCKS
  0
BLOCK
  8
0
  2
$MODEL_SPACE
 70
     0
 10
0.0
 20
0.0
 30
0.0
  3
$MODEL_SPACE
  1

  0
ENDBLK
  5
77
  8
0
  0
BLOCK
 67
     1
  8
0
  2
$PAPER_SPACE
 70
     0
 10
0.0
 20
0.0
 30
0.0
  3
$PAPER_SPACE
  1

  0
ENDBLK
  5
10F0
 67
     1
  8
0
  0
BLOCK
  8
0
  2
GENR-01_BARGE_WAL_JCTN$0$_
 70
     0
 10
0.0
 20
0.0
 30
0.0
  3
GENR-01_BARGE_WAL_JCTN$0$_
  1

  0
POLYLINE
  5
F96
  8
0
  6
BYBLOCK
 62
     0
 66
     1
 10
0.0
 20
0.0
 30
0.0
 40
0.15
 41
0.15
  0
VERTEX
  5
1184
  8
0
  6
BYBLOCK
 62
     0
 10
-0.5
 20
-0.5
 30
0.0
  0
VERTEX
  5
1185
  8
0
  6
BYBLOCK
 62
     0
 10
0.5
 20
0.5
 30
0.0
  0
SEQEND
  5
1186
  8
0
  6
BYBLOCK
 62
     0
  0
ENDBLK
  5
F97
  8
0
  0
BLOCK
  8
0
  2
*U6
 70
     1
 10
0.0
 20
0.0
 30
0.0
  3
*U6
  1

  0
SOLID
  5
1188
  8
0
 10
722.6848456285835
 20
16.810946918609471
 30
0.0000000000000351
 11
713.36982405897868
 21
12.809928181390481
 31
0.0000000000000351
 12
720.88370325058793
 22
19.615763712145089
 32
0.0000000000000351
 13
720.88370325058793
 23
19.615763712145089
 33
0.0000000000000351
  0
POLYLINE
  5
1189
  8
0
 66
     1
 10
0.0
 20
0.0
 30
0.0
  0
VERTEX
  5
118A
  8
0
 10
721.78427443958572
 20
18.213355315377282
 30
0.0
  0
VERTEX
  5
118B
  8
0
 10
805.16087674357095
 20
71.754510691052204
 30
0.0
  0
VERTEX
  5
118C
  8
0
 10
815.16087674357095
 20
71.754510691052204
 30
0.0
  0
SEQEND
  5
118D
  8
0
  0
ENDBLK
  5
118F
  8
0
  0
BLOCK
  8
0
  2
*U7
 70
     1
 10
0.0
 20
0.0
 30
0.0
  3
*U7
  1

  0
TEXT
  5
1191
  8
0
  6
CONTINUOUS
 10
820.16087674357095
 20
76.643096411834392
 30
0.0000000000000351
 40
10.0
  1
Apron
  7
GENR-01_BARGE_WAL_JCTN$0$A
  0
TEXT
  5
1192
  8
0
  6
CONTINUOUS
 10
820.03127237795024
 20
59.891163715154072
 30
0.0000000000000351
 40
10.0
  1
flashing
  7
GENR-01_BARGE_WAL_JCTN$0$A
  0
ENDBLK
  5
1194
  8
0
  0
BLOCK
  8
0
  2
*U8
 70
     1
 10
0.0
 20
0.0
 30
0.0
  3
*U8
  1

  0
SOLID
  5
1196
  8
0
 10
486.24613384549917
 20
44.999888226293429
 30
0.0000000000000351
 11
479.8000558729662
 21
37.175192925529181
 31
0.0000000000000351
 12
483.35995818187121
 22
46.667551606533102
 32
0.0000000000000351
 13
483.35995818187121
 23
46.667551606533102
 33
0.0000000000000351
  0
POLYLINE
  5
1197
  8
0
 66
     1
 10
0.0
 20
0.0
 30
0.0
  0
VERTEX
  5
1198
  8
0
 10
484.80304601368522
 20
45.833719916413258
 30
0.0
  0
VERTEX
  5
1199
  8
0
 10
548.43187903666956
 20
155.95425836080631
 30
0.0
  0
VERTEX
  5
119A
  8
0
 10
558.43187903666967
 20
155.95425836080631
 30
0.0
  0
SEQEND
  5
119B
  8
0
  0
ENDBLK
  5
119D
  8
0
  0
BLOCK
  8
0
  2
*U9
 70
     1
 10
0.0
 20
0.0
 30
0.0
  3
*U9
  1

  0
TEXT
  5
119F
  8
0
  6
CONTINUOUS
 10
563.1522064582249
 20
152.42424471824151
 30
0.0000000000000351
 40
10.0
  1
Zed flashing
  7
GENR-01_BARGE_WAL_JCTN$0$A
  0
ENDBLK
  5
11A1
  8
0
  0
BLOCK
  8
0
  2
*U10
 70
     1
 10
0.0
 20
0.0
 30
0.0
  3
*U10
  1

  0
SOLID
  5
11A3
  8
0
 10
647.61322154635081
 20
-321.57822538068177
 30
0.0000000000000351
 11
640.98079996226795
 21
-329.2456083572111
 31
0.0000000000000351
 12
644.76799346833684
 22
-319.84162286565652
 32
0.0000000000000351
 13
644.76799346833684
 23
-319.84162286565652
 33
0.0000000000000351
  0
POLYLINE
  5
11A4
  8
0
 66
     1
 10
0.0
 20
0.0
 30
0.0
  0
VERTEX
  5
11A5
  8
0
 10
646.19060750734377
 20
-320.70992412316917
 30
0.0
  0
VERTEX
  5
11A6
  8
0
 10
700.18686126751254
 20
-232.24312992198321
 30
0.0
  0
VERTEX
  5
11A7
  8
0
 10
710.18686126751254
 20
-232.24312992198321
 30
0.0
  0
SEQEND
  5
11A8
  8
0
  0
ENDBLK
  5
11AA
  8
0
  0
BLOCK
  8
0
  2
*U11
 70
     1
 10
0.0
 20
0.0
 30
0.0
  3
*U11
  1

  0
TEXT
  5
11AC
  8
0
  6
CONTINUOUS
 10
714.16366890734878
 20
-235.77314356454801
 30
0.0000000000000351
 40
10.0
  1
Barge flashing
  7
GENR-01_BARGE_WAL_JCTN$0$A
  0
ENDBLK
  5
11AE
  8
0
  0
BLOCK
  8
0
  2
*U12
 70
     1
 10
0.0
 20
0.0
 30
0.0
  3
*U12
  1

  0
SOLID
  5
11B0
  8
0
 10
355.28313078548422
 20
-395.68390263941109
 30
0.0000000000000351
 11
351.01810533707658
 21
-386.4867652748714
 31
0.0000000000000351
 12
358.03544423082639
 22
-393.80350858238489
 32
0.0000000000000351
 13
358.03544423082639
 23
-393.80350858238489
 33
0.0000000000000351
  0
POLYLINE
  5
11B1
  8
0
 66
     1
 10
0.0
 20
0.0
 30
0.0
  0
VERTEX
  5
11B2
  8
0
 10
356.65928750815527
 20
-394.7437056108979
 30
0.0
  0
VERTEX
  5
11B3
  8
0
 10
416.27513814861408
 20
-482.00281316877562
 30
0.0
  0
VERTEX
  5
11B4
  8
0
 10
426.27513814861408
 20
-482.00281316877562
 30
0.0
  0
SEQEND
  5
11B5
  8
0
  0
ENDBLK
  5
11B7
  8
0
  0
BLOCK
  8
0
  2
*U13
 70
     1
 10
0.0
 20
0.0
 30
0.0
  3
*U13
  1

  0
TEXT
  5
11B9
  8
0
  6
CONTINUOUS
 10
429.97227321000571
 20
-485.5328268113405
 30
0.0000000000000351
 40
10.0
  1
Internal corner flashing
  7
GENR-01_BARGE_WAL_JCTN$0$A
  0
ENDBLK
  5
11BB
  8
0
  0
ENDSEC
  0
SECTION
  2
ENTITIES
  0
INSERT
  5
1046
  8
0
  6
CONTINUOUS
  2
*U6
 10
0.0
 20
0.0
 30
0.0
1001
ACAD
1000
DSTYLE
1002
{
1070
   147
1040
1.0
1070
    77
1070
     0
1002
}
  0
INSERT
  5
1047
  8
0
  6
CONTINUOUS
  2
*U7
 10
0.0
 20
0.0
 30
0.0
  0
INSERT
  5
1048
  8
0
  6
CONTINUOUS
  2
*U8
 10
0.0
 20
0.0
 30
0.0
1001
ACAD
1000
DSTYLE
1002
{
1070
   147
1040
1.0
1070
    77
1070
     0
1002
}
  0
INSERT
  5
1049
  8
0
  6
CONTINUOUS
  2
*U9
 10
0.0
 20
0.0
 30
0.0
  0
INSERT
  5
104A
  8
0
  6
CONTINUOUS
  2
*U10
 10
0.0
 20
0.0
 30
0.0
1001
ACAD
1000
DSTYLE
1002
{
1070
   147
1040
1.0
1070
    77
1070
     0
1002
}
  0
INSERT
  5
104B
  8
0
  6
CONTINUOUS
  2
*U11
 10
0.0
 20
0.0
 30
0.0
  0
INSERT
  5
104C
  8
0
  6
CONTINUOUS
  2
*U12
 10
0.0
 20
0.0
 30
0.0
1001
ACAD
1000
DSTYLE
1002
{
1070
   147
1040
1.0
1070
    77
1070
     0
1002
}
  0
INSERT
  5
104D
  8
0
  6
CONTINUOUS
  2
*U13
 10
0.0
 20
0.0
 30
0.0
  0
LINE
  5
1051
  8
0
  6
CONTINUOUS
 10
680.75515103237831
 20
-312.50854740366168
 30
-0.0000000000000924
 11
676.3361390215955
 21
-308.83319383401772
 31
-0.0000000000000359
210
-0.0000000000000001
220
0.816496580927726
230
0.577350269189626
1001
ACDBBLOCKREPETAG
1070
     1
1071
        0
1005
1051
  0
LINE
  5
1052
  8
0
  6
CONTINUOUS
 10
680.42699771761818
 20
-313.00852337146478
 30
0.0000000000000213
 11
680.75515103237831
 21
-312.50854740366168
 31
-0.0000000000000924
210
-0.0000000000000001
220
0.816496580927726
230
0.577350269189626
1001
ACDBBLOCKREPETAG
1070
     1
1071
        1
1005
1052
  0
LINE
  5
1053
  8
0
  6
CONTINUOUS
 10
676.13529104426152
 20
-309.43905141635429
 30
-0.0000000000001211
 11
680.42699771761818
 21
-313.00852337146478
 31
-0.0000000000000071
210
-0.0000000000000001
220
0.816496580927726
230
0.577350269189626
1001
ACDBBLOCKREPETAG
1070
     1
1071
        2
1005
1053
  0
LINE
  5
1054
  8
0
  6
CONTINUOUS
 10
680.42699771761818
 20
-313.00852337146478
 30
0.0000000000000213
 11
675.18989098971815
 21
-309.9848783923369
 31
0.0000000000000494
210
-0.0000000000000001
220
0.816496580927726
230
0.577350269189626
1001
ACDBBLOCKREPETAG
1070
     1
1071
        3
1005
1054
  0
LINE
  5
1055
  8
0
  6
CONTINUOUS
 10
606.04972497165272
 20
-349.90297185468239
 30
-0.0000000000000923
 11
676.13529104426152
 21
-309.43905141635429
 31
-0.0000000000001211
210
-0.0000000000000001
220
0.816496580927726
230
0.577350269189626
1001
ACDBBLOCKREPETAG
1070
     1
1071
        4
1005
1055
  0
LINE
  5
1056
  8
0
  6
CONTINUOUS
 10
606.04972497165272
 20
-431.55262994745499
 30
-0.0000000000000877
 11
606.04972497165272
 21
-349.90297185468239
 31
-0.0000000000000923
210
-0.0000000000000001
220
0.816496580927726
230
0.577350269189626
1001
ACDBBLOCKREPETAG
1070
     1
1071
        5
1005
1056
  0
LINE
  5
1057
  8
0
  6
CONTINUOUS
 10
602.92064945262416
 20
-433.35920254068049
 30
-0.0000000000000877
 11
606.04972497165272
 21
-431.55262994745499
 31
-0.0000000000000877
210
-0.0000000000000001
220
0.816496580927726
230
0.577350269189626
1001
ACDBBLOCKREPETAG
1070
     1
1071
        6
1005
1057
  0
LINE
  5
1058
  8
0
  6
CONTINUOUS
 10
605.96916869900986
 20
-436.46349518616643
 30
-0.0000000000001443
 11
602.92064945262416
 21
-433.35920254068049
 31
-0.0000000000000877
210
-0.0000000000000001
220
0.816496580927726
230
0.577350269189626
1001
ACDBBLOCKREPETAG
1070
     1
1071
        7
1005
1058
  0
LINE
  5
1059
  8
0
  6
CONTINUOUS
 10
605.62546090294063
 20
-436.9491397818619
 30
-0.000000000000059
 11
605.96916869900986
 21
-436.46349518616643
 31
-0.0000000000001443
210
-0.0000000000000001
220
0.816496580927726
230
0.577350269189626
1001
ACDBBLOCKREPETAG
1070
     1
1071
        8
1005
1059
  0
LINE
  5
105A
  8
0
  6
CONTINUOUS
 10
602.08992699700798
 20
-433.34892242549591
 30
-0.0000000000000877
 11
605.62546090294063
 21
-436.9491397818619
 31
-0.000000000000059
210
-0.0000000000000001
220
0.816496580927726
230
0.577350269189626
1001
ACDBBLOCKREPETAG
1070
     1
1071
        9
1005
105A
  0
LINE
  5
105B
  8
0
  6
CONTINUOUS
 10
605.62546090294063
 20
-436.9491397818619
 30
-0.000000000000059
 11
296.3058461550454
 21
-258.36337694153337
 31
-0.0000000000000627
210
-0.0000000000000001
220
0.816496580927726
230
0.577350269189626
1001
ACDBBLOCKREPETAG
1070
     1
1071
       10
1005
105B
  0
LINE
  5
105C
  8
0
  6
CONTINUOUS
 10
292.77031224911252
 20
-254.7631595851673
 30
-0.000000000000063
 11
296.3058461550454
 21
-258.36337694153337
 31
-0.0000000000000627
210
-0.0000000000000001
220
0.816496580927726
230
0.577350269189626
1001
ACDBBLOCKREPETAG
1070
     1
1071
       11
1005
105C
  0
LINE
  5
105D
  8
0
  6
CONTINUOUS
 10
605.62546090294086
 20
-431.30768097317662
 30
-0.0000000000000309
 11
602.08992699700798
 21
-433.34892242549591
 31
-0.0000000000000877
210
-0.0000000000000001
220
0.816496580927726
230
0.577350269189626
1001
ACDBBLOCKREPETAG
1070
     1
1071
       12
1005
105D
  0
LINE
  5
105E
  8
0
  6
CONTINUOUS
 10
602.08992699700798
 20
-433.34892242549591
 30
-0.0000000000000877
 11
292.77031224911252
 21
-254.7631595851673
 31
-0.000000000000063
210
-0.0000000000000001
220
0.816496580927726
230
0.577350269189626
1001
ACDBBLOCKREPETAG
1070
     1
1071
       13
1005
105E
  0
LINE
  5
105F
  8
0
  6
CONTINUOUS
 10
296.3058461550454
 20
-252.72191813284789
 30
-0.000000000000063
 11
292.77031224911252
 21
-254.7631595851673
 31
-0.000000000000063
210
-0.0000000000000001
220
0.816496580927726
230
0.577350269189626
1001
ACDBBLOCKREPETAG
1070
     1
1071
       14
1005
105F
  0
LINE
  5
1060
  8
0
  6
CONTINUOUS
 10
605.62546090294063
 20
-349.65802288040402
 30
-0.0000000000000639
 11
605.62546090294086
 21
-431.30768097317662
 31
-0.0000000000000309
210
-0.0000000000000001
220
0.816496580927726
230
0.577350269189626
1001
ACDBBLOCKREPETAG
1070
     1
1071
       15
1005
1060
  0
LINE
  5
1061
  8
0
  6
CONTINUOUS
 10
605.62546090294086
 20
-431.30768097317662
 30
-0.0000000000000309
 11
296.3058461550454
 21
-252.72191813284789
 31
-0.000000000000063
210
-0.0000000000000001
220
0.816496580927726
230
0.577350269189626
1001
ACDBBLOCKREPETAG
1070
     1
1071
       16
1005
1061
  0
LINE
  5
1062
  8
0
  6
CONTINUOUS
 10
296.3058461550454
 20
-171.56215798863201
 30
-0.0000000000000817
 11
296.3058461550454
 21
-252.72191813284789
 31
-0.000000000000063
210
-0.0000000000000001
220
0.816496580927726
230
0.577350269189626
1001
ACDBBLOCKREPETAG
1070
     1
1071
       17
1005
1062
  0
LINE
  5
1063
  8
0
  6
CONTINUOUS
 10
676.3361390215955
 20
-308.83319383401772
 30
-0.0000000000000359
 11
466.01147363982341
 21
-187.4021916586336
 31
-0.0000000000000623
210
-0.0000000000000001
220
0.816496580927726
230
0.577350269189626
1001
ACDBBLOCKREPETAG
1070
     1
1071
       18
1005
1063
  0
LINE
  5
1064
  8
0
  6
CONTINUOUS
 10
676.3361390215955
 20
-308.83319383401772
 30
-0.0000000000000359
 11
605.62546090294063
 21
-349.65802288040402
 31
-0.0000000000000639
210
-0.0000000000000001
220
0.816496580927726
230
0.577350269189626
1001
ACDBBLOCKREPETAG
1070
     1
1071
       19
1005
1064
  0
LINE
  5
1065
  8
0
  6
CONTINUOUS
 10
605.62546090294063
 20
-349.65802288040402
 30
-0.0000000000000639
 11
296.73011022375749
 21
-171.31720901435381
 31
-0.0000000000000249
210
-0.0000000000000001
220
0.816496580927726
230
0.577350269189626
1001
ACDBBLOCKREPETAG
1070
     1
1071
       20
1005
1065
  0
LINE
  5
1066
  8
0
  6
CONTINUOUS
 10
767.16331159822494
 20
-24.451497982145781
 30
0.0000000000000057
 11
762.65516670768409
 21
-15.64497766394225
 31
0.0000000000000406
210
-0.0000000000000001
220
0.816496580927726
230
0.577350269189626
1001
ACDBBLOCKREPETAG
1070
     1
1071
       21
1005
1066
  0
LINE
  5
1067
  8
0
  6
CONTINUOUS
 10
475.4679523308896
 20
-192.8618921765067
 30
-0.0000000000000049
 11
767.16331159822494
 21
-24.451497982145781
 31
0.0000000000000057
210
-0.0000000000000001
220
0.816496580927726
230
0.577350269189626
1001
ACDBBLOCKREPETAG
1070
     1
1071
       22
1005
1067
  0
LINE
  5
1068
  8
0
  6
GENR-01_BARGE_WAL_JCTN$0$A
 10
305.2153915979959
 20
-174.58319533806471
 30
-0.0000000000000671
 11
465.66380542750079
 21
-187.37447482947991
 31
-0.0000000000000339
210
-0.0000000000000001
220
0.816496580927726
230
0.577350269189626
1001
ACDBBLOCKREPETAG
1070
     1
1071
       23
1005
1068
  0
LINE
  5
1069
  8
0
  6
CONTINUOUS
 10
466.01147363982261
 20
-186.9122937100766
 30
-0.0000000000000907
 11
469.9095335018219
 21
-189.65273756927581
 31
-0.0000000000001047
210
-0.0000000000000001
220
0.816496580927726
230
0.577350269189626
1001
ACDBBLOCKREPETAG
1070
     1
1071
       24
1005
1069
  0
LINE
  5
106A
  8
0
  6
CONTINUOUS
 10
469.35569609392348
 20
-189.33297939273839
 30
-0.0000000000000621
 11
466.55236166010621
 21
-187.3621577772652
 31
-0.0000000000001049
210
-0.0000000000000001
220
0.816496580927726
230
0.577350269189626
1001
ACDBBLOCKREPETAG
1070
     1
1071
       25
1005
106A
  0
LINE
  5
106B
  8
0
  6
CONTINUOUS
 10
466.01147363982341
 20
-187.4021916586336
 30
-0.0000000000000054
 11
466.01147363982318
 21
-186.91229371007691
 31
-0.0000000000000055
210
-0.0000000000000001
220
0.816496580927726
230
0.577350269189626
1001
ACDBBLOCKREPETAG
1070
     1
1071
       26
1005
106B
  0
LINE
  5
106C
  8
0
  6
CONTINUOUS
 10
466.55236166010621
 20
-187.3621577772652
 30
-0.0000000000001333
 11
466.01147363982318
 21
-186.91229371007691
 31
-0.0000000000000907
210
-0.0000000000000001
220
0.816496580927726
230
0.577350269189626
1001
ACDBBLOCKREPETAG
1070
     1
1071
       27
1005
106C
  0
LINE
  5
106D
  8
0
  6
CONTINUOUS
 10
466.55236166010621
 20
-187.3621577772652
 30
-0.0000000000001333
 11
466.2472472916877
 21
-187.53831564000541
 31
-0.0000000000000907
210
-0.0000000000000001
220
0.816496580927726
230
0.577350269189626
1001
ACDBBLOCKREPETAG
1070
     1
1071
       28
1005
106D
  0
LINE
  5
106E
  8
0
  6
CONTINUOUS
 10
762.65516670768409
 20
-15.64497766394225
 30
0.0000000000000406
 11
664.08448141027316
 21
41.26483402672374
 31
0.0000000000000296
210
-0.0000000000000001
220
0.816496580927726
230
0.577350269189626
1001
ACDBBLOCKREPETAG
1070
     1
1071
       29
1005
106E
  0
LINE
  5
106F
  8
0
  6
CONTINUOUS
 10
466.01147363982261
 20
-186.91229371007691
 30
-0.0000000000000481
 11
762.65516670768409
 21
-15.64497766394225
 31
0.0000000000000406
210
-0.0000000000000001
220
0.816496580927726
230
0.577350269189626
1001
ACDBBLOCKREPETAG
1070
     1
1071
       30
1005
106F
  0
LINE
  5
1070
  8
0
  6
GENR-01_BARGE_WAL_JCTN$0$A
 10
466.01147363982261
 20
-186.91229371007691
 30
-0.0000000000000481
 11
305.21539159799607
 21
-174.093297389508
 31
-0.0000000000001098
210
-0.0000000000000001
220
0.816496580927726
230
0.577350269189626
1001
ACDBBLOCKREPETAG
1070
     1
1071
       31
1005
1070
  0
LINE
  5
1071
  8
0
  6
GENR-01_BARGE_WAL_JCTN$0$A
 10
298.14432378613043
 20
-170.01081448486929
 30
-0.0000000000000391
 11
305.21539159799607
 21
-174.093297389508
 31
-0.0000000000001098
210
-0.0000000000000001
220
0.816496580927726
230
0.577350269189626
1001
ACDBBLOCKREPETAG
1070
     1
1071
       32
1005
1071
  0
LINE
  5
1072
  8
0
  6
GENR-01_BARGE_WAL_JCTN$0$A
 10
305.2153915979959
 20
-174.093297389508
 30
-0.0000000000000529
 11
305.21539159799607
 21
-174.58319533806471
 31
-0.0000000000000245
210
-0.0000000000000001
220
0.816496580927726
230
0.577350269189626
1001
ACDBBLOCKREPETAG
1070
     1
1071
       33
1005
1072
  0
LINE
  5
1073
  8
0
  6
GENR-01_BARGE_WAL_JCTN$0$A
 10
305.2153915979959
 20
-174.58319533806471
 30
-0.0000000000000813
 11
298.14432378613043
 21
-170.50071243342589
 31
-0.0000000000000817
210
-0.0000000000000001
220
0.816496580927726
230
0.577350269189626
1001
ACDBBLOCKREPETAG
1070
     1
1071
       34
1005
1073
  0
LINE
  5
1074
  8
0
  6
CONTINUOUS
 10
664.08448141027316
 20
41.26483402672374
 30
0.0000000000000296
 11
664.08448141027316
 21
122.4245941709398
 31
0.000000000000018
210
-0.0000000000000001
220
0.816496580927726
230
0.577350269189626
1001
ACDBBLOCKREPETAG
1070
     1
1071
       35
1005
1074
  0
LINE
  5
1075
  8
0
  6
CONTINUOUS
 10
298.14432378613043
 20
-170.01081448486929
 30
-0.0000000000000391
 11
367.01652427369982
 21
-130.24743099368891
 31
-0.0000000000000262
210
-0.0000000000000001
220
0.816496580927726
230
0.577350269189626
1001
ACDBBLOCKREPETAG
1070
     1
1071
       36
1005
1075
  0
LINE
  5
1076
  8
0
  6
CONTINUOUS
 10
298.14432378613043
 20
-170.50071243342589
 30
-0.0000000000000817
 11
298.14432378613043
 21
-170.01081448486929
 31
-0.0000000000000391
210
-0.0000000000000001
220
0.816496580927726
230
0.577350269189626
1001
ACDBBLOCKREPETAG
1070
     1
1071
       37
1005
1076
  0
LINE
  5
1077
  8
0
  6
CONTINUOUS
 10
298.14432378613043
 20
-170.500712433426
 30
-0.0000000000000817
 11
240.1615677288336
 21
-203.9770722514628
 31
-0.0000000000000956
210
-0.0000000000000001
220
0.816496580927726
230
0.577350269189626
1001
ACDBBLOCKREPETAG
1070
     1
1071
       38
1005
1077
  0
LINE
  5
1078
  8
0
  6
CONTINUOUS
 10
663.66021734156129
 20
122.6695431452181
 30
0.0000000000000748
 11
481.35569079157602
 21
17.415975667096738
 31
0.0000000000000085
210
-0.0000000000000001
220
0.816496580927726
230
0.577350269189626
1001
ACDBBLOCKREPETAG
1070
     1
1071
       39
1005
1078
  0
LINE
  5
1079
  8
0
  6
CONTINUOUS
 10
247.58618893129261
 20
-117.5509091602628
 30
-0.0000000000001002
 11
239.7373036601216
 21
-122.0824651844118
 31
-0.0000000000000859
210
-0.0000000000000001
220
0.816496580927726
230
0.577350269189626
1001
ACDBBLOCKREPETAG
1070
     1
1071
       40
1005
1079
  0
LINE
  5
107A
  8
0
  6
CONTINUOUS
 10
664.08448141027316
 20
122.4245941709398
 30
0.000000000000018
 11
663.66021734156129
 21
122.6695431452181
 31
0.0000000000000819
210
-0.0000000000000001
220
0.816496580927726
230
0.577350269189626
1001
ACDBBLOCKREPETAG
1070
     1
1071
       41
1005
107A
  0
LINE
  5
107B
  8
0
  6
CONTINUOUS
 10
240.16156772883349
 20
-122.3274141586902
 30
-0.0000000000000362
 11
247.58618893129261
 21
-118.04080710881949
 31
-0.0000000000001073
210
-0.0000000000000001
220
0.816496580927726
230
0.577350269189626
1001
ACDBBLOCKREPETAG
1070
     1
1071
       42
1005
107B
  0
LINE
  5
107C
  8
0
  6
CONTINUOUS
 10
481.35569079157602
 20
16.926077718540171
 30
-0.0000000000000084
 11
664.08448141027316
 21
122.4245941709398
 31
0.000000000000018
210
-0.0000000000000001
220
0.816496580927726
230
0.577350269189626
1001
ACDBBLOCKREPETAG
1070
     1
1071
       43
1005
107C
  0
LINE
  5
107D
  8
0
  6
CONTINUOUS
 10
239.7373036601216
 20
-203.73212327718451
 30
-0.0000000000000814
 11
240.1615677288336
 21
-203.9770722514628
 31
-0.0000000000000956
210
-0.0000000000000001
220
0.816496580927726
230
0.577350269189626
1001
ACDBBLOCKREPETAG
1070
     1
1071
       44
1005
107D
  0
LINE
  5
107E
  8
0
  6
CONTINUOUS
 10
239.7373036601216
 20
-122.0824651844118
 30
-0.0000000000000859
 11
239.7373036601216
 21
-203.73212327718451
 31
-0.0000000000000814
210
-0.0000000000000001
220
0.816496580927726
230
0.577350269189626
1001
ACDBBLOCKREPETAG
1070
     1
1071
       45
1005
107E
  0
LINE
  5
107F
  8
0
  6
CONTINUOUS
 10
240.16156772883349
 20
-122.3274141586902
 30
-0.0000000000000362
 11
239.7373036601216
 21
-122.0824651844118
 31
-0.0000000000000859
210
-0.0000000000000001
220
0.816496580927726
230
0.577350269189626
1001
ACDBBLOCKREPETAG
1070
     1
1071
       46
1005
107F
  0
LINE
  5
1080
  8
0
  6
CONTINUOUS
 10
240.16156772883349
 20
-203.9770722514628
 30
-0.000000000000053
 11
240.16156772883349
 21
-122.3274141586902
 31
-0.0000000000000362
210
-0.0000000000000001
220
0.816496580927726
230
0.577350269189626
1001
ACDBBLOCKREPETAG
1070
     1
1071
       47
1005
1080
  0
LINE
  5
1081
  8
0
  6
CONTINUOUS
 10
350.59384126836449
 20
-201.92555068395859
 30
-0.000000000000036
 11
372.23130877267459
 21
-189.43315299576531
 31
-0.0000000000000219
210
-0.0000000000000001
220
0.816496580927726
230
0.577350269189626
1001
ACDBBLOCKREPETAG
1070
     1
1071
       48
1005
1081
  0
LINE
  5
1082
  8
0
  6
CONTINUOUS
 10
298.55611535998878
 20
-170.73846040944321
 30
-0.0000000000000817
 11
297.99042993504332
 21
-171.06505904181211
 31
-0.0000000000000959
210
-0.0000000000000001
220
0.816496580927726
230
0.577350269189626
1001
ACDBBLOCKREPETAG
1070
     1
1071
       49
1005
1082
  0
LINE
  5
1083
  8
0
  6
CONTINUOUS
 10
372.23130877267431
 20
-189.43315299576531
 30
-0.0000000000000788
 11
353.12606094107417
 21
-178.4027330172548
 31
-0.0000000000000515
210
-0.0000000000000001
220
0.816496580927726
230
0.577350269189626
1001
ACDBBLOCKREPETAG
1070
     1
1071
       50
1005
1083
  0
LINE
  5
1084
  8
0
  6
CONTINUOUS
 10
247.58618893129261
 20
-117.0610112117061
 30
-0.000000000000086
 11
239.31303959140959
 21
-121.8375162101334
 31
-0.0000000000000931
210
-0.0000000000000001
220
0.816496580927726
230
0.577350269189626
1001
ACDBBLOCKREPETAG
1070
     1
1071
       51
1005
1084
  0
LINE
  5
1085
  8
0
  6
CONTINUOUS
 10
297.99042993503957
 20
-171.06505904181421
 30
-0.0000000000000391
 11
297.57863836118122
 21
-170.82731106579701
 31
-0.0000000000000675
210
-0.0000000000000001
220
0.816496580927726
230
0.577350269189626
1001
ACDBBLOCKREPETAG
1070
     1
1071
       52
1005
1085
  0
LINE
  5
1086
  8
0
  6
CONTINUOUS
 10
351.01810533707658
 20
-483.02201604149087
 30
-0.0000000000000915
 11
351.01810533707658
 21
-289.95151450825171
 31
-0.0000000000000737
210
-0.0000000000000001
220
0.816496580927726
230
0.577350269189626
1001
ACDBBLOCKREPETAG
1070
     1
1071
       53
1005
1086
  0
LINE
  5
1087
  8
0
  6
CONTINUOUS
 10
297.15437429246907
 20
-171.07226004007541
 30
-0.0000000000000817
 11
350.59384126836449
 21
-201.9255506839587
 31
-0.0000000000000502
210
-0.0000000000000001
220
0.816496580927726
230
0.577350269189626
1001
ACDBBLOCKREPETAG
1070
     1
1071
       54
1005
1087
  0
LINE
  5
1088
  8
0
  6
CONTINUOUS
 10
350.59384126836449
 20
-483.26696501576919
 30
-0.0000000000000062
 11
350.59384126836471
 21
-289.70656553397328
 31
-0.0000000000000169
210
-0.0000000000000001
220
0.816496580927726
230
0.577350269189626
1001
ACDBBLOCKREPETAG
1070
     1
1071
       55
1005
1088
  0
LINE
  5
1089
  8
0
  6
CONTINUOUS
 10
239.7373036601216
 20
-122.0824651844118
 30
-0.0000000000000646
 11
247.58618893129261
 21
-117.5509091602628
 31
-0.0000000000000931
210
-0.0000000000000001
220
0.816496580927726
230
0.577350269189626
1001
ACDBBLOCKREPETAG
1070
     1
1071
       56
1005
1089
  0
LINE
  5
108A
  8
0
  6
CONTINUOUS
 10
296.73011022375732
 20
-452.16872539760749
 30
-0.0000000000000377
 11
296.73011022375732
 21
-258.60832591581158
 31
-0.0000000000000485
210
-0.0000000000000001
220
0.816496580927726
230
0.577350269189626
1001
ACDBBLOCKREPETAG
1070
     1
1071
       57
1005
108A
  0
LINE
  5
108B
  8
0
  6
CONTINUOUS
 10
239.31303959140971
 20
-484.82858863471648
 30
-0.0000000000000374
 11
239.31303959140959
 21
-121.8375162101334
 31
-0.0000000000000931
210
-0.0000000000000001
220
0.816496580927726
230
0.577350269189626
1001
ACDBBLOCKREPETAG
1070
     1
1071
       58
1005
108B
  0
LINE
  5
108C
  8
0
  6
CONTINUOUS
 10
239.31303959140959
 20
-121.8375162101334
 30
-0.0000000000000931
 11
239.7373036601216
 21
-122.0824651844118
 31
-0.0000000000000646
210
-0.0000000000000001
220
0.816496580927726
230
0.577350269189626
1001
ACDBBLOCKREPETAG
1070
     1
1071
       59
1005
108C
  0
LINE
  5
108D
  8
0
  6
CONTINUOUS
 10
239.7373036601216
 20
-485.07353760899491
 30
-0.0000000000000658
 11
239.7373036601216
 21
-122.0824651844118
 31
-0.0000000000000646
210
-0.0000000000000001
220
0.816496580927726
230
0.577350269189626
1001
ACDBBLOCKREPETAG
1070
     1
1071
       60
1005
108D
  0
LINE
  5
108E
  8
0
  6
CONTINUOUS
 10
351.01810533707658
 20
-483.02201604149087
 30
-0.0000000000000915
 11
350.59384126836471
 21
-483.26696501576919
 31
-0.0000000000000346
210
-0.0000000000000001
220
0.816496580927726
230
0.577350269189626
1001
ACDBBLOCKREPETAG
1070
     1
1071
       61
1005
108E
  0
LINE
  5
108F
  8
0
  6
CONTINUOUS
 10
239.7373036601216
 20
-485.07353760899491
 30
-0.0000000000000658
 11
239.31303959140971
 21
-484.82858863471648
 31
-0.0000000000001227
210
-0.0000000000000001
220
0.816496580927726
230
0.577350269189626
1001
ACDBBLOCKREPETAG
1070
     1
1071
       62
1005
108F
  0
LINE
  5
1090
  8
0
  6
CONTINUOUS
 10
296.73011022375732
 20
-452.16872539760749
 30
-0.0000000000000377
 11
239.7373036601216
 21
-485.07353760899491
 31
-0.0000000000000658
210
-0.0000000000000001
220
0.816496580927726
230
0.577350269189626
1001
ACDBBLOCKREPETAG
1070
     1
1071
       63
1005
1090
  0
LINE
  5
1091
  8
0
  6
CONTINUOUS
 10
350.59384126836449
 20
-483.26696501576919
 30
-0.0000000000000062
 11
296.73011022375732
 21
-452.16872539760749
 31
-0.0000000000000377
210
-0.0000000000000001
220
0.816496580927726
230
0.577350269189626
1001
ACDBBLOCKREPETAG
1070
     1
1071
       64
1005
1091
  0
LINE
  5
1092
  8
0
  6
CONTINUOUS
 10
247.58618893129261
 20
-116.8160622374284
 30
-0.0000000000001002
 11
246.0305540126821
 21
-115.91791599840781
 31
-0.0000000000001287
210
-0.0000000000000001
220
0.816496580927726
230
0.577350269189626
1001
ACDBBLOCKREPETAG
1070
     1
1071
       65
1005
1092
  0
LINE
  5
1093
  8
0
  6
CONTINUOUS
 10
246.0305540126821
 20
-115.91791599840781
 30
-0.0000000000001287
 11
246.0305540126829
 21
-79.175569856659806
 31
-0.0000000000001095
210
-0.0000000000000001
220
0.816496580927726
230
0.577350269189626
1001
ACDBBLOCKREPETAG
1070
     1
1071
       66
1005
1093
  0
LINE
  5
1094
  8
0
  6
CONTINUOUS
 10
246.0305540126829
 20
-79.175569856659806
 30
-0.0000000000001095
 11
246.45481808139471
 21
-79.420518830938192
 31
-0.0000000000000597
210
-0.0000000000000001
220
0.816496580927726
230
0.577350269189626
1001
ACDBBLOCKREPETAG
1070
     1
1071
       67
1005
1094
  0
LINE
  5
1095
  8
0
  6
CONTINUOUS
 10
246.0305540126829
 20
-79.175569856659806
 30
-0.0000000000001095
 11
479.3757918042545
 21
55.546365996403352
 31
0.0000000000000028
210
-0.0000000000000001
220
0.816496580927726
230
0.577350269189626
1001
ACDBBLOCKREPETAG
1070
     1
1071
       68
1005
1095
  0
LINE
  5
1096
  8
0
  6
CONTINUOUS
 10
479.80005587296631
 20
55.30141702212503
 30
-0.0000000000000363
 11
479.3757918042545
 21
55.546365996403352
 31
0.0000000000000028
210
-0.0000000000000001
220
0.816496580927726
230
0.577350269189626
1001
ACDBBLOCKREPETAG
1070
     1
1071
       69
1005
1096
  0
LINE
  5
1097
  8
0
  6
CONTINUOUS
 10
246.45481808139471
 20
-79.420518830938192
 30
-0.0000000000000597
 11
246.454818081394
 21
-115.67296702412951
 31
-0.0000000000000506
210
-0.0000000000000001
220
0.816496580927726
230
0.577350269189626
1001
ACDBBLOCKREPETAG
1070
     1
1071
       70
1005
1097
  0
LINE
  5
1098
  8
0
  6
CONTINUOUS
 10
246.45481808139471
 20
-79.420518830938192
 30
-0.0000000000000597
 11
479.80005587296631
 21
55.30141702212503
 31
-0.0000000000000363
210
-0.0000000000000001
220
0.816496580927726
230
0.577350269189626
1001
ACDBBLOCKREPETAG
1070
     1
1071
       71
1005
1098
  0
LINE
  5
1099
  8
0
  6
CONTINUOUS
 10
479.80005587296591
 20
19.048968828933649
 30
-0.0000000000000485
 11
479.80005587296631
 21
55.30141702212503
 31
-0.000000000000047
210
-0.0000000000000001
220
0.816496580927726
230
0.577350269189626
1001
ACDBBLOCKREPETAG
1070
     1
1071
       72
1005
1099
  0
LINE
  5
109A
  8
0
  6
CONTINUOUS
 10
246.454818081394
 20
-115.67296702412951
 30
-0.0000000000000506
 11
248.01045300000439
 21
-116.5711132631501
 31
-0.0000000000000576
210
-0.0000000000000001
220
0.816496580927726
230
0.577350269189626
1001
ACDBBLOCKREPETAG
1070
     1
1071
       73
1005
109A
  0
LINE
  5
109B
  8
0
  6
CONTINUOUS
 10
246.454818081394
 20
-115.67296702412951
 30
-0.0000000000000506
 11
479.80005587296591
 21
19.048968828933649
 31
-0.0000000000000485
210
-0.0000000000000001
220
0.816496580927726
230
0.577350269189626
1001
ACDBBLOCKREPETAG
1070
     1
1071
       74
1005
109B
  0
LINE
  5
109C
  8
0
  6
CONTINUOUS
 10
481.35569079157602
 20
18.150822589913101
 30
-0.0000000000000378
 11
479.80005587296591
 21
19.048968828933649
 31
-0.0000000000000485
210
-0.0000000000000001
220
0.816496580927726
230
0.577350269189626
1001
ACDBBLOCKREPETAG
1070
     1
1071
       75
1005
109C
  0
LINE
  5
109D
  8
0
  6
CONTINUOUS
 10
248.01045300000439
 20
-116.5711132631501
 30
-0.0000000000000576
 11
248.01045300000371
 21
-153.59655440030619
 31
-0.0000000000000982
210
-0.0000000000000001
220
0.816496580927726
230
0.577350269189626
1001
ACDBBLOCKREPETAG
1070
     1
1071
       76
1005
109D
  0
LINE
  5
109E
  8
0
  6
CONTINUOUS
 10
248.01045300000439
 20
-116.5711132631501
 30
-0.0000000000000576
 11
481.35569079157602
 21
18.150822589913101
 31
-0.0000000000000378
210
-0.0000000000000001
220
0.816496580927726
230
0.577350269189626
1001
ACDBBLOCKREPETAG
1070
     1
1071
       77
1005
109E
  0
LINE
  5
109F
  8
0
  6
CONTINUOUS
 10
481.3556907915754
 20
-18.874618547243021
 30
-0.000000000000025
 11
481.35569079157602
 21
18.150822589913101
 31
-0.0000000000000378
210
-0.0000000000000001
220
0.816496580927726
230
0.577350269189626
1001
ACDBBLOCKREPETAG
1070
     1
1071
       78
1005
109F
  0
LINE
  5
10A0
  8
0
  6
CONTINUOUS
 10
248.01045300000371
 20
-153.59655440030619
 30
-0.000000000000084
 11
248.56618401772431
 21
-154.54203208264039
 31
-0.0000000000001123
210
-0.0000000000000001
220
0.816496580927726
230
0.577350269189626
1001
ACDBBLOCKREPETAG
1070
     1
1071
       79
1005
10A0
  0
LINE
  5
10A1
  8
0
  6
CONTINUOUS
 10
248.01045300000371
 20
-153.59655440030619
 30
-0.000000000000084
 11
481.3556907915754
 21
-18.874618547243021
 31
-0.0000000000000179
210
-0.0000000000000001
220
0.816496580927726
230
0.577350269189626
1001
ACDBBLOCKREPETAG
1070
     1
1071
       80
1005
10A1
  0
LINE
  5
10A2
  8
0
  6
CONTINUOUS
 10
481.91142180929592
 20
-19.820096229577128
 30
0.0000000000000034
 11
481.3556907915754
 21
-18.874618547243021
 31
-0.000000000000025
210
-0.0000000000000001
220
0.816496580927726
230
0.577350269189626
1001
ACDBBLOCKREPETAG
1070
     1
1071
       81
1005
10A2
  0
LINE
  5
10A3
  8
0
  6
CONTINUOUS
 10
248.56618401772451
 20
-154.5420320826403
 30
-0.0000000000001123
 11
248.27025647757449
 21
-154.72222788464899
 31
-0.0000000000000555
210
-0.0000000000000001
220
0.816496580927726
230
0.577350269189626
1001
ACDBBLOCKREPETAG
1070
     1
1071
       82
1005
10A3
  0
LINE
  5
10A4
  8
0
  6
CONTINUOUS
 10
248.56618401772451
 20
-154.5420320826403
 30
-0.0000000000001123
 11
481.91142180929592
 21
-19.820096229577128
 31
-0.0000000000000179
210
-0.0000000000000001
220
0.816496580927726
230
0.577350269189626
1001
ACDBBLOCKREPETAG
1070
     1
1071
       83
1005
10A4
  0
LINE
  5
10A5
  8
0
  6
CONTINUOUS
 10
481.6154942691461
 20
-20.00029203158584
 30
-0.0000000000000214
 11
481.91142180929592
 21
-19.820096229577128
 31
-0.0000000000000179
210
-0.0000000000000001
220
0.816496580927726
230
0.577350269189626
1001
ACDBBLOCKREPETAG
1070
     1
1071
       84
1005
10A5
  0
LINE
  5
10A6
  8
0
  6
CONTINUOUS
 10
248.27025647757449
 20
-154.72222788464899
 30
-0.0000000000000555
 11
247.5861889312919
 21
-153.5584083791764
 31
-0.0000000000000982
210
-0.0000000000000001
220
0.816496580927726
230
0.577350269189626
1001
ACDBBLOCKREPETAG
1070
     1
1071
       85
1005
10A6
  0
LINE
  5
10A7
  8
0
  6
CONTINUOUS
 10
248.27025647757449
 20
-154.72222788464899
 30
-0.0000000000000555
 11
481.6154942691461
 21
-20.00029203158584
 31
-0.0000000000000214
210
-0.0000000000000001
220
0.816496580927726
230
0.577350269189626
1001
ACDBBLOCKREPETAG
1070
     1
1071
       86
1005
10A7
  0
LINE
  5
10A8
  8
0
  6
CONTINUOUS
 10
247.5861889312919
 20
-153.5584083791764
 30
-0.0000000000000982
 11
247.58618893129261
 21
-116.8160622374284
 31
-0.0000000000001002
210
-0.0000000000000001
220
0.816496580927726
230
0.577350269189626
1001
ACDBBLOCKREPETAG
1070
     1
1071
       87
1005
10A8
  0
LINE
  5
10A9
  8
0
  6
GENR-01_BARGE_WAL_JCTN$0$A
 10
371.43553628448308
 20
-133.9227845633331
 30
-0.0000000000000179
 11
367.0165242737001
 21
-130.24743099368899
 31
0.0000000000000031
210
-0.0000000000000001
220
0.816496580927726
230
0.577350269189626
1001
ACDBBLOCKREPETAG
1070
     1
1071
       88
1005
10A9
  0
LINE
  5
10AA
  8
0
  6
GENR-01_BARGE_WAL_JCTN$0$A
 10
680.75515103237831
 20
-312.50854740366168
 30
-0.0000000000000924
 11
371.43553628448308
 21
-133.9227845633331
 31
-0.0000000000000179
210
-0.0000000000000001
220
0.816496580927726
230
0.577350269189626
1001
ACDBBLOCKREPETAG
1070
     1
1071
       89
1005
10AA
  0
LINE
  5
10AB
  8
0
  6
GENR-01_BARGE_WAL_JCTN$0$A
 10
371.10738296972249
 20
-134.42276053113611
 30
-0.0000000000000392
 11
371.43553628448308
 21
-133.9227845633331
 31
-0.0000000000000179
210
-0.0000000000000001
220
0.816496580927726
230
0.577350269189626
1001
ACDBBLOCKREPETAG
1070
     1
1071
       90
1005
10AB
  0
LINE
  5
10AC
  8
0
  6
GENR-01_BARGE_WAL_JCTN$0$A
 10
675.18989098971815
 20
-309.9848783923369
 30
0.0000000000000494
 11
371.10738296972249
 21
-134.42276053113611
 31
-0.0000000000000392
210
-0.0000000000000001
220
0.816496580927726
230
0.577350269189626
1001
ACDBBLOCKREPETAG
1070
     1
1071
       91
1005
10AC
  0
LINE
  5
10AD
  8
0
  6
GENR-01_BARGE_WAL_JCTN$0$A
 10
366.81567629636612
 20
-130.85328857602559
 30
-0.0000000000000324
 11
371.10738296972249
 21
-134.42276053113611
 31
-0.0000000000000392
210
-0.0000000000000001
220
0.816496580927726
230
0.577350269189626
1001
ACDBBLOCKREPETAG
1070
     1
1071
       92
1005
10AD
  0
LINE
  5
10AE
  8
0
  6
GENR-01_BARGE_WAL_JCTN$0$A
 10
676.13529104426152
 20
-309.43905141635429
 30
-0.0000000000001211
 11
366.81567629636612
 21
-130.85328857602559
 31
-0.0000000000000324
210
-0.0000000000000001
220
0.816496580927726
230
0.577350269189626
1001
ACDBBLOCKREPETAG
1070
     1
1071
       93
1005
10AE
  0
LINE
  5
10AF
  8
0
  6
GENR-01_BARGE_WAL_JCTN$0$A
 10
298.14432378613043
 20
-170.50071243342589
 30
-0.0000000000000533
 11
366.81567629636612
 21
-130.85328857602559
 31
-0.0000000000000324
210
-0.0000000000000001
220
0.816496580927726
230
0.577350269189626
1001
ACDBBLOCKREPETAG
1070
     1
1071
       94
1005
10AF
  0
LINE
  5
10B0
  8
0
  6
GENR-01_BARGE_WAL_JCTN$0$A
 10
606.04972497165272
 20
-349.90297185468239
 30
-0.0000000000000923
 11
605.62546090294063
 21
-349.65802288040402
 31
-0.0000000000000355
210
-0.0000000000000001
220
0.816496580927726
230
0.577350269189626
1001
ACDBBLOCKREPETAG
1070
     1
1071
       95
1005
10B0
  0
LINE
  5
10B1
  8
0
  6
GENR-01_BARGE_WAL_JCTN$0$A
 10
296.73011022375732
 20
-252.96686710712629
 30
-0.0000000000000346
 11
296.73011022375732
 21
-171.31720901435369
 31
-0.0000000000000391
210
-0.0000000000000001
220
0.816496580927726
230
0.577350269189626
1001
ACDBBLOCKREPETAG
1070
     1
1071
       96
1005
10B1
  0
LINE
  5
10B2
  8
0
  6
GENR-01_BARGE_WAL_JCTN$0$A
 10
606.04972497165272
 20
-431.55262994745499
 30
-0.0000000000000877
 11
605.62546090294063
 21
-431.30768097317662
 31
-0.0000000000000878
210
-0.0000000000000001
220
0.816496580927726
230
0.577350269189626
1001
ACDBBLOCKREPETAG
1070
     1
1071
       97
1005
10B2
  0
LINE
  5
10B3
  8
0
  6
GENR-01_BARGE_WAL_JCTN$0$A
 10
293.60103470472882
 20
-254.77343970035199
 30
-0.0000000000000488
 11
296.73011022375732
 21
-252.96686710712629
 31
-0.0000000000000346
210
-0.0000000000000001
220
0.816496580927726
230
0.577350269189626
1001
ACDBBLOCKREPETAG
1070
     1
1071
       98
1005
10B3
  0
LINE
  5
10B4
  8
0
  6
GENR-01_BARGE_WAL_JCTN$0$A
 10
602.92064945262416
 20
-433.35920254068049
 30
-0.0000000000000877
 11
293.60103470472882
 21
-254.77343970035199
 31
-0.0000000000000488
210
-0.0000000000000001
220
0.816496580927726
230
0.577350269189626
1001
ACDBBLOCKREPETAG
1070
     1
1071
       99
1005
10B4
  0
LINE
  5
10B5
  8
0
  6
GENR-01_BARGE_WAL_JCTN$0$A
 10
296.64955395111429
 20
-257.8777323458379
 30
-0.0000000000000627
 11
293.60103470472882
 21
-254.77343970035199
 31
-0.0000000000000488
210
-0.0000000000000001
220
0.816496580927726
230
0.577350269189626
1001
ACDBBLOCKREPETAG
1070
     1
1071
      100
1005
10B5
  0
LINE
  5
10B6
  8
0
  6
GENR-01_BARGE_WAL_JCTN$0$A
 10
605.96916869900986
 20
-436.46349518616643
 30
-0.0000000000001443
 11
296.64955395111429
 21
-257.8777323458379
 31
-0.0000000000000627
210
-0.0000000000000001
220
0.816496580927726
230
0.577350269189626
1001
ACDBBLOCKREPETAG
1070
     1
1071
      101
1005
10B6
  0
LINE
  5
10B7
  8
0
  6
GENR-01_BARGE_WAL_JCTN$0$A
 10
296.3058461550454
 20
-258.36337694153337
 30
-0.0000000000000627
 11
296.64955395111429
 21
-257.8777323458379
 31
-0.0000000000000627
210
-0.0000000000000001
220
0.816496580927726
230
0.577350269189626
1001
ACDBBLOCKREPETAG
1070
     1
1071
      102
1005
10B7
  0
LINE
  5
10B8
  8
0
  6
GENR-01_BARGE_WAL_JCTN$0$A
 10
296.3058461550454
 20
-171.07226004007541
 30
-0.0000000000000249
 11
296.3058461550454
 21
-171.56215798863201
 31
-0.0000000000000817
210
-0.0000000000000001
220
0.816496580927726
230
0.577350269189626
1001
ACDBBLOCKREPETAG
1070
     1
1071
      103
1005
10B8
  0
LINE
  5
10B9
  8
0
  6
GENR-01_BARGE_WAL_JCTN$0$A
 10
466.01147363982341
 20
-187.4021916586336
 30
-0.0000000000000623
 11
367.01652427369982
 21
-130.24743099368891
 31
0.0000000000000031
210
-0.0000000000000001
220
0.816496580927726
230
0.577350269189626
1001
ACDBBLOCKREPETAG
1070
     1
1071
      104
1005
10B9
  0
LINE
  5
10BA
  8
0
  6
GENR-01_BARGE_WAL_JCTN$0$A
 10
296.73011022375749
 20
-171.31720901435381
 30
-0.0000000000000249
 11
296.3058461550454
 21
-171.07226004007541
 31
-0.0000000000000249
210
-0.0000000000000001
220
0.816496580927726
230
0.577350269189626
1001
ACDBBLOCKREPETAG
1070
     1
1071
      105
1005
10BA
  0
LINE
  5
10BB
  8
0
  6
GENR-01_BARGE_WAL_JCTN$0$A
 10
298.14432378613043
 20
-170.01081448486929
 30
-0.0000000000000391
 11
296.3058461550454
 21
-171.07226004007541
 31
-0.0000000000000249
210
-0.0000000000000001
220
0.816496580927726
230
0.577350269189626
1001
ACDBBLOCKREPETAG
1070
     1
1071
      106
1005
10BB
  0
LINE
  5
10BC
  8
0
  6
GENR-01_BARGE_WAL_JCTN$0$A
 10
663.66021734156129
 20
122.6695431452181
 30
0.0000000000000819
 11
663.66021734156129
 21
41.019885052445481
 31
0.000000000000058
210
-0.0000000000000001
220
0.816496580927726
230
0.577350269189626
1001
ACDBBLOCKREPETAG
1070
     1
1071
      107
1005
10BC
  0
LINE
  5
10BD
  8
0
  6
GENR-01_BARGE_WAL_JCTN$0$A
 10
663.66021734156129
 20
41.019885052445481
 30
0.000000000000058
 11
762.45732912336371
 21
-16.02065402993577
 31
0.0000000000000584
210
-0.0000000000000001
220
0.816496580927726
230
0.577350269189626
1001
ACDBBLOCKREPETAG
1070
     1
1071
      108
1005
10BD
  0
LINE
  5
10BE
  8
0
  6
GENR-01_BARGE_WAL_JCTN$0$A
 10
239.7373036601216
 20
-203.73212327718451
 30
-0.0000000000000956
 11
298.14432378613043
 21
-170.01081448486929
 31
-0.0000000000000391
210
-0.0000000000000001
220
0.816496580927726
230
0.577350269189626
1001
ACDBBLOCKREPETAG
1070
     1
1071
      109
1005
10BE
  0
LINE
  5
10BF
  8
0
  6
GENR-01_BARGE_WAL_JCTN$0$A
 10
762.45732912336371
 20
-16.02065402993577
 30
0.0000000000000584
 11
766.83830646597335
 21
-24.578756512895211
 31
-0.0000000000000103
210
-0.0000000000000001
220
0.816496580927726
230
0.577350269189626
1001
ACDBBLOCKREPETAG
1070
     1
1071
      110
1005
10BF
  0
LINE
  5
10C0
  8
0
  6
GENR-01_BARGE_WAL_JCTN$0$A
 10
465.66380542750079
 20
-187.37447482947991
 30
-0.0000000000000765
 11
762.45732912336371
 21
-16.02065402993577
 31
0.0000000000000584
210
-0.0000000000000001
220
0.816496580927726
230
0.577350269189626
1001
ACDBBLOCKREPETAG
1070
     1
1071
      111
1005
10C0
  0
LINE
  5
10C1
  8
0
  6
GENR-01_BARGE_WAL_JCTN$0$A
 10
766.83830646597335
 20
-24.578756512895211
 30
-0.0000000000000103
 11
767.16331159822494
 21
-24.451497982145781
 31
0.0000000000000057
210
-0.0000000000000001
220
0.816496580927726
230
0.577350269189626
1001
ACDBBLOCKREPETAG
1070
     1
1071
      112
1005
10C1
  0
LINE
  5
10C2
  8
0
  6
GENR-01_BARGE_WAL_JCTN$0$A
 10
474.55162295367012
 20
-193.3305519192665
 30
-0.0000000000000475
 11
766.83830646597335
 21
-24.578756512895211
 31
-0.0000000000000103
210
-0.0000000000000001
220
0.816496580927726
230
0.577350269189626
1001
ACDBBLOCKREPETAG
1070
     1
1071
      113
1005
10C2
  0
LINE
  5
10C3
  8
0
  6
GENR-01_BARGE_WAL_JCTN$0$A
 10
474.92235754765977
 20
-193.1768914714728
 30
-0.0000000000000475
 11
475.4679523308896
 21
-192.8618921765067
 31
-0.0000000000000049
210
-0.0000000000000001
220
0.816496580927726
230
0.577350269189626
1001
ACDBBLOCKREPETAG
1070
     1
1071
      114
1005
10C3
  0
LINE
  5
10C4
  8
0
  6
GENR-01_BARGE_WAL_JCTN$0$A
 10
465.66380542750079
 20
-187.37447482947991
 30
-0.0000000000000481
 11
466.01147363982358
 21
-187.67443962137719
 31
-0.0000000000000623
210
-0.0000000000000001
220
0.816496580927726
230
0.577350269189626
1001
ACDBBLOCKREPETAG
1070
     1
1071
      115
1005
10C4
  0
LINE
  5
10C5
  8
0
  6
GENR-01_BARGE_WAL_JCTN$0$A
 10
469.9095335018219
 20
-189.65273756927581
 30
-0.0000000000001047
 11
474.9223575476596
 21
-193.1768914714728
 31
0.0000000000000235
210
-0.0000000000000001
220
0.816496580927726
230
0.577350269189626
1001
ACDBBLOCKREPETAG
1070
     1
1071
      116
1005
10C5
  0
LINE
  5
10C6
  8
0
  6
GENR-01_BARGE_WAL_JCTN$0$A
 10
474.92235754765977
 20
-193.17689147147291
 30
0.0000000000000378
 11
474.91496506136622
 21
-193.17676267469869
 31
-0.0000000000001044
210
-0.0000000000000001
220
0.816496580927726
230
0.577350269189626
1001
ACDBBLOCKREPETAG
1070
     1
1071
      117
1005
10C6
  0
LINE
  5
10C7
  8
0
  6
GENR-01_BARGE_WAL_JCTN$0$A
 10
474.4014557180974
 20
-192.880287917131
 30
-0.0000000000000617
 11
469.35569609392348
 21
-189.33297939273839
 31
-0.0000000000000621
210
-0.0000000000000001
220
0.816496580927726
230
0.577350269189626
1001
ACDBBLOCKREPETAG
1070
     1
1071
      118
1005
10C7
  0
LINE
  5
10C8
  8
0
  6
GENR-01_BARGE_WAL_JCTN$0$A
 10
474.91496506136622
 20
-193.17676267469869
 30
-0.0000000000001044
 11
474.4014557180974
 21
-192.88028791713089
 31
-0.000000000000147
210
-0.0000000000000001
220
0.816496580927726
230
0.577350269189626
1001
ACDBBLOCKREPETAG
1070
     1
1071
      119
1005
10C8
  0
LINE
  5
10C9
  8
0
  6
GENR-01_BARGE_WAL_JCTN$0$A
 10
474.91496506136622
 20
-193.17676267469869
 30
-0.0000000000000759
 11
474.55162295367012
 21
-193.3305519192665
 31
-0.0000000000000333
210
-0.0000000000000001
220
0.816496580927726
230
0.577350269189626
1001
ACDBBLOCKREPETAG
1070
     1
1071
      120
1005
10C9
  0
LINE
  5
10CA
  8
0
  6
GENR-01_BARGE_WAL_JCTN$0$A
 10
474.55162295367012
 20
-193.3305519192665
 30
-0.0000000000000333
 11
474.4014557180974
 21
-192.88028791713089
 31
-0.0000000000001186
210
-0.0000000000000001
220
0.816496580927726
230
0.577350269189626
1001
ACDBBLOCKREPETAG
1070
     1
1071
      121
1005
10CA
  0
LINE
  5
10CB
  8
0
  6
GENR-01_BARGE_WAL_JCTN$0$A
 10
466.01147363982318
 20
-187.67443962137719
 30
-0.0000000000000907
 11
466.01147363982341
 21
-187.4021916586336
 31
-0.0000000000000054
210
-0.0000000000000001
220
0.816496580927726
230
0.577350269189626
1001
ACDBBLOCKREPETAG
1070
     1
1071
      122
1005
10CB
  0
LINE
  5
10CC
  8
0
  6
GENR-01_BARGE_WAL_JCTN$0$A
 10
466.2472472916877
 20
-187.53831564000541
 30
-0.0000000000000907
 11
466.01147363982341
 21
-187.67443962137699
 31
-0.0000000000000765
210
-0.0000000000000001
220
0.816496580927726
230
0.577350269189626
1001
ACDBBLOCKREPETAG
1070
     1
1071
      123
1005
10CC
  0
LINE
  5
10CD
  8
0
  6
GENR-01_BARGE_WAL_JCTN$0$A
 10
481.35569079157602
 20
17.415975667096738
 30
0.0000000000000085
 11
247.58618893129261
 21
-117.5509091602628
 31
-0.0000000000001002
210
-0.0000000000000001
220
0.816496580927726
230
0.577350269189626
1001
ACDBBLOCKREPETAG
1070
     1
1071
      124
1005
10CD
  0
LINE
  5
10CE
  8
0
  6
GENR-01_BARGE_WAL_JCTN$0$A
 10
247.58618893129261
 20
-118.04080710881949
 30
-0.0000000000001073
 11
481.35569079157602
 21
16.926077718540171
 31
-0.0000000000000084
210
-0.0000000000000001
220
0.816496580927726
230
0.577350269189626
1001
ACDBBLOCKREPETAG
1070
     1
1071
      125
1005
10CE
  0
LINE
  5
10CF
  8
0
  6
GENR-01_BARGE_WAL_JCTN$0$A
 10
319.20363337064151
 20
-158.817610327897
 30
-0.0000000000000534
 11
298.55611535998878
 21
-170.73846040944321
 31
-0.0000000000000817
210
-0.0000000000000001
220
0.816496580927726
230
0.577350269189626
1001
ACDBBLOCKREPETAG
1070
     1
1071
      126
1005
10CF
  0
LINE
  5
10D0
  8
0
  6
GENR-01_BARGE_WAL_JCTN$0$A
 10
372.23130877267431
 20
-189.43315299576531
 30
-0.0000000000000788
 11
372.23130877267459
 21
-189.923050944322
 31
-0.0000000000000503
210
-0.0000000000000001
220
0.816496580927726
230
0.577350269189626
1001
ACDBBLOCKREPETAG
1070
     1
1071
      127
1005
10D0
  0
LINE
  5
10D1
  8
0
  6
GENR-01_BARGE_WAL_JCTN$0$A
 10
353.12606094107417
 20
-178.4027330172548
 30
-0.0000000000000515
 11
319.20363337064151
 21
-158.81761032789711
 31
-0.0000000000000818
210
-0.0000000000000001
220
0.816496580927726
230
0.577350269189626
1001
ACDBBLOCKREPETAG
1070
     1
1071
      128
1005
10D1
  0
LINE
  5
10D2
  8
0
  6
GENR-01_BARGE_WAL_JCTN$0$A
 10
319.20363337064123
 20
-159.3075082764536
 30
-0.000000000000025
 11
319.20363337064151
 21
-158.817610327897
 31
-0.0000000000000534
210
-0.0000000000000001
220
0.816496580927726
230
0.577350269189626
1001
ACDBBLOCKREPETAG
1070
     1
1071
      129
1005
10D2
  0
LINE
  5
10D3
  8
0
  6
GENR-01_BARGE_WAL_JCTN$0$A
 10
372.23130877267459
 20
-189.923050944322
 30
-0.0000000000000503
 11
351.01810533707658
 21
-202.17049965823699
 31
-0.0000000000000786
210
-0.0000000000000001
220
0.816496580927726
230
0.577350269189626
1001
ACDBBLOCKREPETAG
1070
     1
1071
      130
1005
10D3
  0
LINE
  5
10D4
  8
0
  6
GENR-01_BARGE_WAL_JCTN$0$A
 10
372.23130877267459
 20
-189.923050944322
 30
-0.0000000000000503
 11
319.20363337064151
 21
-159.30750827645369
 31
-0.0000000000000108
210
-0.0000000000000001
220
0.816496580927726
230
0.577350269189626
1001
ACDBBLOCKREPETAG
1070
     1
1071
      131
1005
10D4
  0
LINE
  5
10D5
  8
0
  6
GENR-01_BARGE_WAL_JCTN$0$A
 10
297.99042993504332
 20
-171.55495699036871
 30
-0.0000000000000675
 11
319.20363337064123
 21
-159.3075082764536
 31
-0.000000000000025
210
-0.0000000000000001
220
0.816496580927726
230
0.577350269189626
1001
ACDBBLOCKREPETAG
1070
     1
1071
      132
1005
10D5
  0
LINE
  5
10D6
  8
0
  6
GENR-01_BARGE_WAL_JCTN$0$A
 10
296.73011022375732
 20
-88.687755024467833
 30
-0.0000000000000366
 11
247.58618893129261
 21
-117.0610112117061
 31
-0.000000000000086
210
-0.0000000000000001
220
0.816496580927726
230
0.577350269189626
1001
ACDBBLOCKREPETAG
1070
     1
1071
      133
1005
10D6
  0
LINE
  5
10D7
  8
0
  6
GENR-01_BARGE_WAL_JCTN$0$A
 10
297.99042993504332
 20
-171.06505904181211
 30
-0.0000000000000533
 11
297.99042993504332
 21
-171.55495699036871
 31
-0.0000000000000675
210
-0.0000000000000001
220
0.816496580927726
230
0.577350269189626
1001
ACDBBLOCKREPETAG
1070
     1
1071
      134
1005
10D7
  0
LINE
  5
10D8
  8
0
  6
GENR-01_BARGE_WAL_JCTN$0$A
 10
297.57863836118122
 20
-170.82731106579701
 30
-0.0000000000000675
 11
297.15437429246907
 21
-170.58236209151869
 31
-0.0000000000000391
210
-0.0000000000000001
220
0.816496580927726
230
0.577350269189626
1001
ACDBBLOCKREPETAG
1070
     1
1071
      135
1005
10D8
  0
LINE
  5
10D9
  8
0
  6
GENR-01_BARGE_WAL_JCTN$0$A
 10
297.15437429246907
 20
-88.932703998746135
 30
-0.0000000000000295
 11
296.73011022375732
 21
-88.687755024467833
 31
-0.0000000000000366
210
-0.0000000000000001
220
0.816496580927726
230
0.577350269189626
1001
ACDBBLOCKREPETAG
1070
     1
1071
      136
1005
10D9
  0
LINE
  5
10DA
  8
0
  6
GENR-01_BARGE_WAL_JCTN$0$A
 10
296.73011022375732
 20
-88.687755024467833
 30
-0.0000000000000366
 11
296.73011022375732
 21
-170.82731106579701
 31
-0.0000000000000818
210
-0.0000000000000001
220
0.816496580927726
230
0.577350269189626
1001
ACDBBLOCKREPETAG
1070
     1
1071
      137
1005
10DA
  0
LINE
  5
10DB
  8
0
  6
GENR-01_BARGE_WAL_JCTN$0$A
 10
351.01810533707658
 20
-289.95151450825171
 30
-0.0000000000000737
 11
351.01810533707658
 21
-202.17049965823699
 31
-0.0000000000000502
210
-0.0000000000000001
220
0.816496580927726
230
0.577350269189626
1001
ACDBBLOCKREPETAG
1070
     1
1071
      138
1005
10DB
  0
LINE
  5
10DC
  8
0
  6
GENR-01_BARGE_WAL_JCTN$0$A
 10
351.01810533707658
 20
-202.17049965823699
 30
-0.0000000000000786
 11
350.59384126836449
 21
-201.92555068395859
 31
-0.0000000000000644
210
-0.0000000000000001
220
0.816496580927726
230
0.577350269189626
1001
ACDBBLOCKREPETAG
1070
     1
1071
      139
1005
10DC
  0
LINE
  5
10DD
  8
0
  6
GENR-01_BARGE_WAL_JCTN$0$A
 10
296.73011022375732
 20
-170.82731106579701
 30
-0.0000000000000818
 11
297.15437429246907
 21
-171.07226004007541
 31
-0.0000000000000817
210
-0.0000000000000001
220
0.816496580927726
230
0.577350269189626
1001
ACDBBLOCKREPETAG
1070
     1
1071
      140
1005
10DD
  0
LINE
  5
10DE
  8
0
  6
GENR-01_BARGE_WAL_JCTN$0$A
 10
350.59384126836471
 20
-289.70656553397328
 30
-0.0000000000000169
 11
350.59384126836449
 21
-201.9255506839587
 31
-0.0000000000000502
210
-0.0000000000000001
220
0.816496580927726
230
0.577350269189626
1001
ACDBBLOCKREPETAG
1070
     1
1071
      141
1005
10DE
  0
LINE
  5
10DF
  8
0
  6
GENR-01_BARGE_WAL_JCTN$0$A
 10
247.58618893129261
 20
-117.5509091602628
 30
-0.0000000000000931
 11
297.15437429246907
 21
-88.932703998746135
 31
-0.0000000000000295
210
-0.0000000000000001
220
0.816496580927726
230
0.577350269189626
1001
ACDBBLOCKREPETAG
1070
     1
1071
      142
1005
10DF
  0
LINE
  5
10E0
  8
0
  6
GENR-01_BARGE_WAL_JCTN$0$A
 10
297.15437429246907
 20
-88.932703998746135
 30
-0.0000000000000295
 11
297.15437429246907
 21
-170.58236209151869
 31
-0.0000000000000391
210
-0.0000000000000001
220
0.816496580927726
230
0.577350269189626
1001
ACDBBLOCKREPETAG
1070
     1
1071
      143
1005
10E0
  0
LINE
  5
10E1
  8
0
  6
GENR-01_BARGE_WAL_JCTN$0$A
 10
296.73011022375732
 20
-170.82731106579701
 30
-0.0000000000000818
 11
297.15437429246907
 21
-170.58236209151869
 31
-0.0000000000000391
210
-0.0000000000000001
220
0.816496580927726
230
0.577350269189626
1001
ACDBBLOCKREPETAG
1070
     1
1071
      144
1005
10E1
  0
LINE
  5
10E2
  8
0
  6
GENR-01_BARGE_WAL_JCTN$0$A
 10
296.73011022375732
 20
-258.60832591581158
 30
-0.0000000000000485
 11
296.73011022375732
 21
-170.82731106579701
 31
-0.0000000000000818
210
-0.0000000000000001
220
0.816496580927726
230
0.577350269189626
1001
ACDBBLOCKREPETAG
1070
     1
1071
      145
1005
10E2
  0
LINE
  5
10E3
  8
0
  6
GENR-01_BARGE_WAL_JCTN$0$A
 10
296.73011022375732
 20
-451.67882744905103
 30
-0.0000000000000377
 11
351.01810533707658
 21
-483.02201604149087
 31
-0.0000000000000915
210
-0.0000000000000001
220
0.816496580927726
230
0.577350269189626
1001
ACDBBLOCKREPETAG
1070
     1
1071
      146
1005
10E3
  0
LINE
  5
10E4
  8
0
  6
GENR-01_BARGE_WAL_JCTN$0$A
 10
239.31303959140971
 20
-484.82858863471648
 30
-0.0000000000000374
 11
296.73011022375732
 21
-451.67882744905103
 31
-0.0000000000000377
210
-0.0000000000000001
220
0.816496580927726
230
0.577350269189626
1001
ACDBBLOCKREPETAG
1070
     1
1071
      147
1005
10E4
  0
LINE
  5
10E5
  8
0
  6
GENR-01_BARGE_WAL_JCTN$0$A
 10
479.37579180425382
 20
18.804019854655341
 30
-0.000000000000013
 11
480.93142672286422
 21
17.905873615634839
 31
-0.0000000000000235
210
-0.0000000000000001
220
0.816496580927726
230
0.577350269189626
1001
ACDBBLOCKREPETAG
1070
     1
1071
      148
1005
10E5
  0
LINE
  5
10E6
  8
0
  6
GENR-01_BARGE_WAL_JCTN$0$A
 10
246.0305540126821
 20
-115.91791599840781
 30
-0.0000000000001287
 11
246.454818081394
 21
-115.67296702412951
 31
-0.0000000000001003
210
-0.0000000000000001
220
0.816496580927726
230
0.577350269189626
1001
ACDBBLOCKREPETAG
1070
     1
1071
      149
1005
10E6
  0
LINE
  5
10E7
  8
0
  6
GENR-01_BARGE_WAL_JCTN$0$A
 10
479.3757918042545
 20
55.546365996403352
 30
0.0000000000000028
 11
479.37579180425382
 21
18.804019854655341
 31
-0.000000000000013
210
-0.0000000000000001
220
0.816496580927726
230
0.577350269189626
1001
ACDBBLOCKREPETAG
1070
     1
1071
      150
1005
10E7
  0
LINE
  5
10E8
  8
0
  6
GENR-01_BARGE_WAL_JCTN$0$A
 10
480.93142672286348
 20
-18.836472526113202
 30
-0.000000000000002
 11
481.6154942691461
 21
-20.00029203158584
 31
-0.0000000000000214
210
-0.0000000000000001
220
0.816496580927726
230
0.577350269189626
1001
ACDBBLOCKREPETAG
1070
     1
1071
      151
1005
10E8
  0
LINE
  5
10E9
  8
0
  6
GENR-01_BARGE_WAL_JCTN$0$A
 10
247.58618893129261
 20
-116.8160622374284
 30
-0.0000000000001002
 11
248.01045300000439
 21
-116.5711132631501
 31
-0.0000000000001287
210
-0.0000000000000001
220
0.816496580927726
230
0.577350269189626
1001
ACDBBLOCKREPETAG
1070
     1
1071
      152
1005
10E9
  0
LINE
  5
10EA
  8
0
  6
GENR-01_BARGE_WAL_JCTN$0$A
 10
247.5861889312919
 20
-153.5584083791764
 30
-0.0000000000000982
 11
480.93142672286348
 21
-18.836472526113202
 31
-0.000000000000002
210
-0.0000000000000001
220
0.816496580927726
230
0.577350269189626
1001
ACDBBLOCKREPETAG
1070
     1
1071
      153
1005
10EA
  0
LINE
  5
10EB
  8
0
  6
GENR-01_BARGE_WAL_JCTN$0$A
 10
480.93142672286422
 20
17.905873615634839
 30
-0.0000000000000164
 11
480.93142672286348
 21
-18.836472526113202
 31
-0.000000000000002
210
-0.0000000000000001
220
0.816496580927726
230
0.577350269189626
1001
ACDBBLOCKREPETAG
1070
     1
1071
      154
1005
10EB
  0
LINE
  5
10EC
  8
0
  6
CONTINUOUS
 10
367.01652427369982
 20
-130.24743099368891
 30
-0.0000000000000262
 11
664.08448141027316
 21
41.26483402672374
 31
0.0000000000000296
210
-0.0000000000000001
220
0.816496580927726
230
0.577350269189626
1001
ACDBBLOCKREPETAG
1070
     1
1071
      155
1005
10EC
  0
ENDSEC
  0
EOF
