  0
SECTION
  2
HEADER
  9
$ACADVER
  1
AC1009
  9
$INSBASE
 10
0.0
 20
0.0
 30
0.0
  9
$EXTMIN
 10
-20.03936467231188
 20
-20.032650237384129
 30
-0.0015258207003583
  9
$EXTMAX
 10
1270.039370679342
 20
1049.9972643883441
 30
0.0000000349246037
  9
$LIMMIN
 10
0.0
 20
0.0
  9
$LIMMAX
 10
420.0
 20
297.0
  9
$ORTHOMODE
 70
     0
  9
$REGENMODE
 70
     1
  9
$FILLMODE
 70
     1
  9
$QTEXTMODE
 70
     0
  9
$MIRRTEXT
 70
     0
  9
$DRAGMODE
 70
     2
  9
$LTSCALE
 40
1.0
  9
$OSMODE
 70
     0
  9
$ATTMODE
 70
     1
  9
$TEXTSIZE
 40
35.0
  9
$TRACEWID
 40
1.0
  9
$TEXTSTYLE
  7
ARIAL
  9
$CLAYER
  8
0
  9
$CELTYPE
  6
CONTINUOUS
  9
$CECOLOR
 62
   256
  9
$DIMSCALE
 40
10.0
  9
$DIMASZ
 40
2.0
  9
$DIMEXO
 40
2.0
  9
$DIMDLI
 40
6.0
  9
$DIMRND
 40
0.0
  9
$DIMDLE
 40
1.5
  9
$DIMEXE
 40
1.5
  9
$DIMTP
 40
0.0
  9
$DIMTM
 40
0.0
  9
$DIMTXT
 40
2.0
  9
$DIMCEN
 40
2.0
  9
$DIMTSZ
 40
0.0
  9
$DIMTOL
 70
     0
  9
$DIMLIM
 70
     0
  9
$DIMTIH
 70
     0
  9
$DIMTOH
 70
     0
  9
$DIMSE1
 70
     0
  9
$DIMSE2
 70
     0
  9
$DIMTAD
 70
     0
  9
$DIMZIN
 70
     0
  9
$DIMBLK
  1
ARCHTICK
  9
$DIMASO
 70
     1
  9
$DIMSHO
 70
     1
  9
$DIMPOST
  1

  9
$DIMAPOST
  1

  9
$DIMALT
 70
     0
  9
$DIMALTD
 70
     2
  9
$DIMALTF
 40
0.0394
  9
$DIMLFAC
 40
1.0
  9
$DIMTOFL
 70
     1
  9
$DIMTVP
 40
0.0
  9
$DIMTIX
 70
     1
  9
$DIMSOXD
 70
     0
  9
$DIMSAH
 70
     0
  9
$DIMBLK1
  1

  9
$DIMBLK2
  1

  9
$DIMSTYLE
  2
1_TO_10_LEADER
  9
$DIMCLRD
 70
     0
  9
$DIMCLRE
 70
     0
  9
$DIMCLRT
 70
     0
  9
$DIMTFAC
 40
1.0
  9
$DIMGAP
 40
1.0
  9
$LUNITS
 70
     2
  9
$LUPREC
 70
     1
  9
$SKETCHINC
 40
1.0
  9
$FILLETRAD
 40
0.0
  9
$AUNITS
 70
     1
  9
$AUPREC
 70
     4
  9
$MENU
  1
.
  9
$ELEVATION
 40
0.0
  9
$PELEVATION
 40
0.0
  9
$THICKNESS
 40
0.0
  9
$LIMCHECK
 70
     0
  9
$BLIPMODE
 70
     0
  9
$CHAMFERA
 40
0.0
  9
$CHAMFERB
 40
0.0
  9
$SKPOLY
 70
     0
  9
$TDCREATE
 40
2455158.7003458221
  9
$TDUPDATE
 40
2455936.5373383681
  9
$TDINDWG
 40
0.4829854398
  9
$TDUSRTIMER
 40
0.4829840046
  9
$USRTIMER
 70
     1
  9
$ANGBASE
 50
0.0
  9
$ANGDIR
 70
     0
  9
$PDMODE
 70
     0
  9
$PDSIZE
 40
0.0
  9
$PLINEWID
 40
0.0
  9
$COORDS
 70
     1
  9
$SPLFRAME
 70
     0
  9
$SPLINETYPE
 70
     6
  9
$SPLINESEGS
 70
     8
  9
$ATTDIA
 70
     0
  9
$ATTREQ
 70
     1
  9
$HANDLING
 70
     1
  9
$HANDSEED
  5
3065
  9
$SURFTAB1
 70
     6
  9
$SURFTAB2
 70
     6
  9
$SURFTYPE
 70
     6
  9
$SURFU
 70
     6
  9
$SURFV
 70
     6
  9
$UCSNAME
  2

  9
$UCSORG
 10
0.0
 20
0.0
 30
0.0
  9
$UCSXDIR
 10
1.0
 20
0.0
 30
0.0
  9
$UCSYDIR
 10
0.0
 20
1.0
 30
0.0
  9
$PUCSNAME
  2

  9
$PUCSORG
 10
0.0
 20
0.0
 30
0.0
  9
$PUCSXDIR
 10
1.0
 20
0.0
 30
0.0
  9
$PUCSYDIR
 10
0.0
 20
1.0
 30
0.0
  9
$USERI1
 70
     0
  9
$USERI2
 70
     0
  9
$USERI3
 70
     0
  9
$USERI4
 70
     0
  9
$USERI5
 70
     0
  9
$USERR1
 40
0.0
  9
$USERR2
 40
0.0
  9
$USERR3
 40
0.0
  9
$USERR4
 40
0.0
  9
$USERR5
 40
0.0
  9
$WORLDVIEW
 70
     1
  9
$SHADEDGE
 70
     3
  9
$SHADEDIF
 70
    70
  9
$TILEMODE
 70
     1
  9
$MAXACTVP
 70
    64
  9
$PLIMCHECK
 70
     0
  9
$PEXTMIN
 10
0.0
 20
0.0
 30
0.0
  9
$PEXTMAX
 10
0.0
 20
0.0
 30
0.0
  9
$PLIMMIN
 10
0.0
 20
0.0
  9
$PLIMMAX
 10
12.0
 20
9.0
  9
$UNITMODE
 70
     0
  9
$VISRETAIN
 70
     1
  9
$PLINEGEN
 70
     0
  9
$PSLTSCALE
 70
     1
  0
ENDSEC
  0
SECTION
  2
TABLES
  0
TABLE
  2
VPORT
 70
     1
  0
VPORT
  2
*ACTIVE
 70
     0
 10
0.0
 20
0.0
 11
1.0
 21
1.0
 12
625.00000300351508
 22
514.98230707547998
 13
0.0
 23
0.0
 14
1.0
 24
1.0
 15
10.0
 25
10.0
 16
0.0
 26
0.0
 36
1.0
 17
0.0
 27
0.0
 37
0.0
 40
1076.46296020464
 41
1.6128385155466389
 42
50.0
 43
0.0
 44
0.0
 50
0.0
 51
0.0
 71
     0
 72
  1000
 73
     1
 74
     3
 75
     0
 76
     0
 77
     0
 78
     0
  0
ENDTAB
  0
TABLE
  2
LTYPE
 70
     2
  0
LTYPE
  2
CONTINUOUS
 70
     0
  3
Solid line
 72
    65
 73
     0
 40
0.0
  0
ENDTAB
  0
TABLE
  2
LAYER
 70
     9
  0
LAYER
  2
0
 70
     0
 62
     7
  6
CONTINUOUS
  0
ENDTAB
  0
TABLE
  2
STYLE
 70
     2
  0
STYLE
  2
STANDARD
 70
     0
 40
0.0
 41
1.0
 50
0.0
 71
     0
 42
2.5
  3
txt
  4

  0
STYLE
  2
ARIAL
 70
     0
 40
0.0
 41
1.0
 50
0.0
 71
     0
 42
35.0
  3
txt
  4

  0
ENDTAB
  0
TABLE
  2
VIEW
 70
     2
  0
VIEW
  2
COMM-04
 70
     1
 40
477.26027331217421
 10
194.21746115522001
 20
180.60494410563541
 41
755.81685306636155
 11
0.0
 21
0.0
 31
1.0
 12
0.0
 22
0.0
 32
0.0
 42
50.0
 43
0.0
 44
0.0
 50
0.0
 71
     0
  0
ENDTAB
  0
TABLE
  2
UCS
 70
     0
  0
ENDTAB
  0
TABLE
  2
APPID
 70
    35
  0
APPID
  2
ACAD
 70
     0
  0
APPID
  2
ACAD_PSEXT
 70
     0
  0
APPID
  2
ACADANNOPO
 70
     0
  0
APPID
  2
ACADANNOTATIVE
 70
     0
  0
APPID
  2
ACAD_DSTYLE_DIMJAG
 70
     0
  0
APPID
  2
ACAD_DSTYLE_DIMTALN
 70
     0
  0
APPID
  2
ACAD_MLEADERVER
 70
     0
  0
APPID
  2
RAK
 70
     0
  0
APPID
  2
ACAD_EXEMPT_FROM_CAD_STANDARDS
 70
     0
  0
APPID
  2
GENIUS_GENODEF_13
 70
     0
  0
APPID
  2
GENIUS_GENSCREG_15
 70
     0
  0
APPID
  2
GENIUS_GENOBJ-N-SDF_13
 70
     0
  0
APPID
  2
GENIUS_GENCFG_13
 70
     0
  0
APPID
  2
GENIUS_GENCFG0_13
 70
     0
  0
APPID
  2
ADESKUNDERLAYLAYEROVERRIDEDATA
 70
     0
  0
APPID
  2
ACAUTHENVIRON
 70
     0
  0
APPID
  2
ACDBDYNAMICBLOCKTRUENAME
 70
     0
  0
APPID
  2
ACDBDYNAMICBLOCKGUID
 70
     0
  0
APPID
  2
$MECS_BLK
 70
     0
  0
APPID
  2
DCO15
 70
     0
  0
APPID
  2
ADE
 70
     0
  0
APPID
  2
ACLAYERTOOLS
 70
     0
  0
APPID
  2
ACADANNOAV
 70
     0
  0
APPID
  2
ACDBBLOCKREPETAG
 70
     0
  0
APPID
  2
ACAD_DSTYLE_DIMEXT_ENABLED
 70
     0
  0
APPID
  2
ACAD_DSTYLE_DIMEXT_LENGTH
 70
     0
  0
APPID
  2
ACET-TEXTMASK
 70
     0
  0
APPID
  2
ACAECLAYERSTANDARD
 70
     0
  0
APPID
  2
ACCMTRANSPARENCY
 70
     0
  0
APPID
  2
URBANX
 70
     0
  0
APPID
  2
GRADIENTCOLOR1ACI
 70
     0
  0
APPID
  2
GRADIENTCOLOR2ACI
 70
     0
  0
APPID
  2
ACAD_NAV_VCDISPLAY
 70
     0
  0
APPID
  2
ACAD_DSTYLE_DIMJOGGED_JOGA
 70
     0
  0
APPID
  2
PE_URL
 70
     0
  0
ENDTAB
  0
TABLE
  2
DIMSTYLE
 70
     1
  0
DIMSTYLE
  2
1_TO_10_LEADER
 70
     0
  3

  4

  5
ARCHTICK
  6

  7

 40
10.0
 41
2.0
 42
2.0
 43
6.0
 44
1.5
 45
0.0
 46
1.5
 47
0.0
 48
0.0
140
2.0
141
2.0
142
0.0
143
0.0394
144
1.0
145
0.0
146
1.0
147
1.0
 71
     0
 72
     0
 73
     0
 74
     0
 75
     0
 76
     0
 77
     0
 78
     0
170
     0
171
     2
172
     1
173
     0
174
     1
175
     0
176
     0
177
     0
178
     0
  0
ENDTAB
  0
ENDSEC
  0
SECTION
  2
BLOCKS
  0
BLOCK
  8
0
  2
$MODEL_SPACE
 70
     0
 10
0.0
 20
0.0
 30
0.0
  3
$MODEL_SPACE
  1

  0
ENDBLK
  5
21
  8
0
  0
BLOCK
 67
     1
  8
0
  2
$PAPER_SPACE
 70
     0
 10
0.0
 20
0.0
 30
0.0
  3
$PAPER_SPACE
  1

  0
ENDBLK
  5
2F70
 67
     1
  8
0
  0
BLOCK
  8
0
  2
_ARCHTICK
 70
     0
 10
0.0
 20
0.0
 30
0.0
  3
_ARCHTICK
  1

  0
POLYLINE
  5
6FA
  8
0
  6
BYBLOCK
 66
     1
 10
0.0
 20
0.0
 30
0.0
 40
0.15
 41
0.15
  0
VERTEX
  5
6FB
  8
0
  6
BYBLOCK
 10
-0.5
 20
-0.5
 30
0.0
  0
VERTEX
  5
6FC
  8
0
  6
BYBLOCK
 10
0.5
 20
0.5
 30
0.0
  0
SEQEND
  5
6FD
  8
0
  6
BYBLOCK
 62
     0
  0
ENDBLK
  5
6FE
  8
0
  0
BLOCK
  8
0
  2
*U4
 70
     1
 10
0.0
 20
0.0
 30
0.0
  3
*U4
  1

  0
SOLID
  5
302D
  8
0
 10
762.76155063995134
 20
928.19706860124506
 30
0.0
 11
755.48986400181104
 21
909.27000637416381
 31
0.0
 12
756.22997982910647
 22
929.53236901215087
 32
0.0
 13
756.22997982910647
 23
929.53236901215087
 33
0.0
  0
POLYLINE
  5
302E
  8
0
 66
     1
 10
0.0
 20
0.0
 30
0.0
  0
VERTEX
  5
302F
  8
0
 10
759.49576523452879
 20
928.86471880669785
 30
0.0
  0
VERTEX
  5
3030
  8
0
 10
780.52559413321796
 20
1031.7313213104319
 30
0.0
  0
VERTEX
  5
3031
  8
0
 10
800.52559413321796
 20
1031.7313213104319
 30
0.0
  0
SEQEND
  5
3032
  8
0
  0
ENDBLK
  5
3034
  8
0
  0
BLOCK
  8
0
  2
*U5
 70
     1
 10
0.0
 20
0.0
 30
0.0
  3
*U5
  1

  0
TEXT
  5
3036
  8
0
  6
CONTINUOUS
 10
809.27047817141715
 20
1024.6712940253019
 30
0.0
 40
20.0
  1
Stop end top of valley trays
  7
ARIAL
  0
ENDBLK
  5
3038
  8
0
  0
BLOCK
  8
0
  2
*U6
 70
     1
 10
0.0
 20
0.0
 30
0.0
  3
*U6
  1

  0
SOLID
  5
303A
  8
0
 10
554.76383307692902
 20
915.22587921010347
 30
0.0
 11
535.38243246001718
 21
909.27000637416381
 31
0.0
 12
551.78455536706144
 22
921.18979979742949
 32
0.0
 13
551.78455536706144
 23
921.18979979742949
 33
0.0
  0
POLYLINE
  5
303B
  8
0
 66
     1
 10
0.0
 20
0.0
 30
0.0
  0
VERTEX
  5
303C
  8
0
 10
553.27419422199523
 20
918.20783950376631
 30
0.0
  0
VERTEX
  5
303D
  8
0
 10
780.52559413321796
 20
1031.7313213104319
 30
0.0
  0
VERTEX
  5
303E
  8
0
 10
800.52559413321796
 20
1031.7313213104319
 30
0.0
  0
SEQEND
  5
303F
  8
0
  0
ENDBLK
  5
3041
  8
0
  0
BLOCK
  8
0
  2
*U7
 70
     1
 10
0.0
 20
0.0
 30
0.0
  3
*U7
  1

  0
SOLID
  5
3043
  8
0
 10
587.87589268270222
 20
795.13509212947952
 30
0.0
 11
602.44661016867724
 21
781.03525868879615
 31
0.0
 12
584.09058007956025
 22
789.6473008669642
 32
0.0
 13
584.09058007956025
 23
789.6473008669642
 33
0.0
  0
POLYLINE
  5
3044
  8
0
 66
     1
 10
0.0
 20
0.0
 30
0.0
  0
VERTEX
  5
3045
  8
0
 10
585.98323638113129
 20
792.3911964982218
 30
0.0
  0
VERTEX
  5
3046
  8
0
 10
238.9977206740333
 20
1031.7313213104319
 30
0.0
  0
VERTEX
  5
3047
  8
0
 10
218.9977206740333
 20
1031.7313213104319
 30
0.0
  0
SEQEND
  5
3048
  8
0
  0
ENDBLK
  5
304A
  8
0
  0
BLOCK
  8
0
  2
*U8
 70
     1
 10
0.0
 20
0.0
 30
0.0
  3
*U8
  1

  0
TEXT
  5
304C
  8
0
  6
CONTINUOUS
 10
38.356520128330708
 20
1021.90185337046
 30
0.0
 40
20.0
  1
Seal and rivet
  7
ARIAL
  0
ENDBLK
  5
304E
  8
0
  0
BLOCK
  8
0
  2
*U9
 70
     1
 10
0.0
 20
0.0
 30
0.0
  3
*U9
  1

  0
TEXT
  5
3050
  8
0
  6
CONTINUOUS
 10
1050.903301414224
 20
917.95509991277254
 30
0.0
 40
20.0
  1
Apex
  7
ARIAL
  0
ENDBLK
  5
3052
  8
0
  0
BLOCK
  8
0
  2
*U10
 70
     1
 10
0.0
 20
0.0
 30
0.0
  3
*U10
  1

  0
TEXT
  5
3054
  8
0
  6
CONTINUOUS
 10
638.25911905606335
 20
284.27000637416381
 30
0.0
 40
20.0
  1
Apex
 50
270.0
  7
ARIAL
  0
ENDBLK
  5
3056
  8
0
  0
BLOCK
  8
0
  2
*U11
 70
     1
 10
0.0
 20
0.0
 30
0.0
  3
*U11
  1

  0
TEXT
  5
3058
  8
0
  6
CONTINUOUS
 10
255.46915202799121
 20
553.16974887787615
 30
0.0
 40
20.0
  1
Valley 1
 50
45.0
  7
ARIAL
  0
ENDBLK
  5
305A
  8
0
  0
BLOCK
  8
0
  2
*U12
 70
     1
 10
0.0
 20
0.0
 30
0.0
  3
*U12
  1

  0
TEXT
  5
305C
  8
0
  6
CONTINUOUS
 10
917.58451227753631
 20
628.34589999272907
 30
0.0
 40
20.0
  1
Valley 2
 50
315.0
  7
ARIAL
  0
ENDBLK
  5
305E
  8
0
  0
ENDSEC
  0
SECTION
  2
ENTITIES
  0
POLYLINE
  5
1939
  8
0
 66
     1
 10
0.0
 20
0.0
 30
0.0
  0
VERTEX
  5
300A
  8
0
 10
0.0000000000001137
 20
909.27000637416381
 30
0.0
  0
VERTEX
  5
300B
  8
0
 10
1250.0
 20
909.27000637416381
 30
0.0
  0
SEQEND
  5
300C
  8
0
  0
POLYLINE
  5
193A
  8
0
 66
     1
 10
0.0
 20
0.0
 30
0.0
  0
VERTEX
  5
300D
  8
0
 10
625.0
 20
909.27000637416381
 30
0.0
  0
VERTEX
  5
300E
  8
0
 10
625.0
 20
0.0000000000009095
 30
0.0
  0
SEQEND
  5
300F
  8
0
  0
POLYLINE
  5
1943
  8
0
 66
     1
 10
0.0
 20
0.0
 30
0.0
  0
VERTEX
  5
3010
  8
0
 10
602.44661016867724
 20
886.71661654284094
 30
0.0
  0
VERTEX
  5
3011
  8
0
 10
602.44661016867724
 20
726.76242966138761
 30
0.0
  0
SEQEND
  5
3012
  8
0
  0
POLYLINE
  5
1944
  8
0
 66
     1
 10
0.0
 20
0.0
 30
0.0
  0
VERTEX
  5
3013
  8
0
 10
647.5533898313231
 20
886.7166165428406
 30
0.0
  0
VERTEX
  5
3014
  8
0
 10
647.5533898313231
 20
726.76242966138796
 30
0.0
  0
VERTEX
  5
3015
  8
0
 10
625.0
 20
704.20903983006485
 30
0.0
  0
SEQEND
  5
3016
  8
0
  0
CIRCLE
  5
1947
  8
0
 10
613.31835273057379
 20
821.03525868879603
 30
0.0
 40
3.0
  0
CIRCLE
  5
1953
  8
0
 10
613.31835273057379
 20
861.03525868879615
 30
0.0
 40
3.0
  0
CIRCLE
  5
1954
  8
0
 10
613.31835273057379
 20
781.03525868879615
 30
0.0
 40
3.0
  0
CIRCLE
  5
1955
  8
0
 10
613.31835273057379
 20
741.03525868879615
 30
0.0
 40
3.0
  0
POLYLINE
  5
1990
  8
0
 66
     1
 10
0.0
 20
0.0
 30
0.0
  0
VERTEX
  5
3017
  8
0
 10
0.0000000000001137
 20
929.2700063741637
 30
0.0
  0
VERTEX
  5
3018
  8
0
 10
0.0000000000001137
 20
464.63500318708037
 30
0.0
  0
VERTEX
  5
3019
  8
0
 10
-13.73738709728047
 20
459.63500318707952
 30
0.0
  0
VERTEX
  5
301A
  8
0
 10
13.737387097262509
 20
449.63500318707952
 30
0.0
  0
VERTEX
  5
301B
  8
0
 10
0.0000000000001137
 20
444.63500318708037
 30
0.0
  0
VERTEX
  5
301C
  8
0
 10
0.0
 20
-20.000000000000231
 30
0.0
  0
SEQEND
  5
301D
  8
0
  0
POLYLINE
  5
199A
  8
0
 66
     1
 10
0.0
 20
0.0
 30
0.0
  0
VERTEX
  5
301E
  8
0
 10
-20.0
 20
0.0
 30
0.0
  0
VERTEX
  5
301F
  8
0
 10
615.00000000000171
 20
0.0
 30
0.0
  0
VERTEX
  5
3020
  8
0
 10
619.99999999999989
 20
-13.737387097276271
 30
0.0
  0
VERTEX
  5
3021
  8
0
 10
629.99999999999977
 20
13.73738709727763
 30
0.0
  0
VERTEX
  5
3022
  8
0
 10
635.00000000000171
 20
0.0
 30
0.0
  0
VERTEX
  5
3023
  8
0
 10
1270.0
 20
0.0
 30
0.0
  0
SEQEND
  5
3024
  8
0
  0
POLYLINE
  5
19A4
  8
0
 66
     1
 10
0.0
 20
0.0
 30
0.0
  0
VERTEX
  5
3025
  8
0
 10
1250.0
 20
929.2700063741637
 30
0.0
  0
VERTEX
  5
3026
  8
0
 10
1250.0
 20
464.63500318708088
 30
0.0
  0
VERTEX
  5
3027
  8
0
 10
1236.262612902723
 20
459.63500318708668
 30
0.0
  0
VERTEX
  5
3028
  8
0
 10
1263.7373870972749
 20
449.6350031870868
 30
0.0
  0
VERTEX
  5
3029
  8
0
 10
1250.0
 20
444.63500318708083
 30
0.0
  0
VERTEX
  5
302A
  8
0
 10
1250.0
 20
-20.0
 30
0.0
  0
SEQEND
  5
302B
  8
0
  0
INSERT
  5
19FA
  8
0
  6
CONTINUOUS
  2
*U4
 10
0.0
 20
0.0
 30
0.0
  0
INSERT
  5
19FB
  8
0
  6
CONTINUOUS
  2
*U5
 10
0.0
 20
0.0
 30
0.0
  0
INSERT
  5
19FD
  8
0
  6
CONTINUOUS
  2
*U6
 10
0.0
 20
0.0
 30
0.0
  0
INSERT
  5
19FE
  8
0
  6
CONTINUOUS
  2
*U7
 10
0.0
 20
0.0
 30
0.0
  0
INSERT
  5
19FF
  8
0
  6
CONTINUOUS
  2
*U8
 10
0.0
 20
0.0
 30
0.0
  0
INSERT
  5
1A00
  8
0
  6
CONTINUOUS
  2
*U9
 10
0.0
 20
0.0
 30
0.0
  0
INSERT
  5
1A01
  8
0
  6
CONTINUOUS
  2
*U10
 10
0.0
 20
0.0
 30
0.0
  0
INSERT
  5
1A02
  8
0
  6
CONTINUOUS
  2
*U11
 10
0.0
 20
0.0
 30
0.0
  0
INSERT
  5
1A03
  8
0
  6
CONTINUOUS
  2
*U12
 10
0.0
 20
0.0
 30
0.0
  0
LINE
  5
1AC7
  8
0
 10
625.0
 20
909.27000637416381
 30
0.0
 11
0.0000000000001137
 21
284.27000637416393
 31
0.0
  0
LINE
  5
1ACE
  8
0
 10
419.93903345590121
 20
909.27000637416381
 30
0.0
 11
0.0000000000001137
 21
489.33097291826272
 31
0.0
  0
LINE
  5
1AD0
  8
0
 10
625.0
 20
704.20903983006497
 30
0.0
 11
0.0
 21
79.209039830064967
 31
0.0
  0
LINE
  5
1AD1
  8
0
 10
624.99999999999989
 20
909.27000637416381
 30
0.0
 11
1250.0
 21
284.27000637416393
 31
0.0
  0
LINE
  5
1AD2
  8
0
 10
602.44661016867724
 20
726.76242966138761
 30
0.0
 11
1250.0
 21
79.209039830064967
 31
0.0
  0
LINE
  5
1AD3
  8
0
 10
830.06096654409873
 20
909.27000637416381
 30
0.0
 11
1250.0
 21
489.33097291826272
 31
0.0
  0
ENDSEC
  0
EOF
