  0
SECTION
  2
HEADER
  9
$ACADVER
  1
AC1009
  9
$INSBASE
 10
0.0
 20
0.0
 30
0.0
  9
$EXTMIN
 10
-645.03936467231176
 20
-655.41941303751673
 30
-0.0015258207003583
  9
$EXTMAX
 10
645.03937067934203
 20
415.76801654125609
 30
0.0000000349246037
  9
$LIMMIN
 10
0.0
 20
0.0
  9
$LIMMAX
 10
420.0
 20
297.0
  9
$ORTHOMODE
 70
     0
  9
$REGENMODE
 70
     1
  9
$FILLMODE
 70
     1
  9
$QTEXTMODE
 70
     0
  9
$MIRRTEXT
 70
     0
  9
$DRAGMODE
 70
     2
  9
$LTSCALE
 40
10.0
  9
$OSMODE
 70
     0
  9
$ATTMODE
 70
     1
  9
$TEXTSIZE
 40
3.5
  9
$TRACEWID
 40
1.0
  9
$TEXTSTYLE
  7
ARIAL
  9
$CLAYER
  8
0
  9
$CELTYPE
  6
CONTINUOUS
  9
$CECOLOR
 62
   256
  9
$DIMSCALE
 40
10.0
  9
$DIMASZ
 40
2.0
  9
$DIMEXO
 40
2.0
  9
$DIMDLI
 40
6.0
  9
$DIMRND
 40
0.0
  9
$DIMDLE
 40
2.0
  9
$DIMEXE
 40
2.0
  9
$DIMTP
 40
0.0
  9
$DIMTM
 40
0.0
  9
$DIMTXT
 40
2.0
  9
$DIMCEN
 40
2.0
  9
$DIMTSZ
 40
0.0
  9
$DIMTOL
 70
     0
  9
$DIMLIM
 70
     0
  9
$DIMTIH
 70
     0
  9
$DIMTOH
 70
     0
  9
$DIMSE1
 70
     0
  9
$DIMSE2
 70
     0
  9
$DIMTAD
 70
     1
  9
$DIMZIN
 70
     0
  9
$DIMBLK
  1
ARCHTICK
  9
$DIMASO
 70
     1
  9
$DIMSHO
 70
     1
  9
$DIMPOST
  1

  9
$DIMAPOST
  1

  9
$DIMALT
 70
     0
  9
$DIMALTD
 70
     2
  9
$DIMALTF
 40
0.0394
  9
$DIMLFAC
 40
1.0
  9
$DIMTOFL
 70
     0
  9
$DIMTVP
 40
0.0
  9
$DIMTIX
 70
     0
  9
$DIMSOXD
 70
     0
  9
$DIMSAH
 70
     0
  9
$DIMBLK1
  1

  9
$DIMBLK2
  1

  9
$DIMSTYLE
  2
1_TO_10
  9
$DIMCLRD
 70
   256
  9
$DIMCLRE
 70
   256
  9
$DIMCLRT
 70
   256
  9
$DIMTFAC
 40
1.0
  9
$DIMGAP
 40
1.0
  9
$LUNITS
 70
     2
  9
$LUPREC
 70
     1
  9
$SKETCHINC
 40
1.0
  9
$FILLETRAD
 40
0.0
  9
$AUNITS
 70
     1
  9
$AUPREC
 70
     4
  9
$MENU
  1
.
  9
$ELEVATION
 40
0.0
  9
$PELEVATION
 40
0.0
  9
$THICKNESS
 40
0.0
  9
$LIMCHECK
 70
     0
  9
$BLIPMODE
 70
     0
  9
$CHAMFERA
 40
0.0
  9
$CHAMFERB
 40
0.0
  9
$SKPOLY
 70
     0
  9
$TDCREATE
 40
2455158.7003458221
  9
$TDUPDATE
 40
2455936.537076354
  9
$TDINDWG
 40
0.4917175116
  9
$TDUSRTIMER
 40
0.4917160764
  9
$USRTIMER
 70
     1
  9
$ANGBASE
 50
0.0
  9
$ANGDIR
 70
     0
  9
$PDMODE
 70
     0
  9
$PDSIZE
 40
0.0
  9
$PLINEWID
 40
0.0
  9
$COORDS
 70
     1
  9
$SPLFRAME
 70
     0
  9
$SPLINETYPE
 70
     6
  9
$SPLINESEGS
 70
     8
  9
$ATTDIA
 70
     0
  9
$ATTREQ
 70
     1
  9
$HANDLING
 70
     1
  9
$HANDSEED
  5
3FAB
  9
$SURFTAB1
 70
     6
  9
$SURFTAB2
 70
     6
  9
$SURFTYPE
 70
     6
  9
$SURFU
 70
     6
  9
$SURFV
 70
     6
  9
$UCSNAME
  2

  9
$UCSORG
 10
0.0
 20
0.0
 30
0.0
  9
$UCSXDIR
 10
1.0
 20
0.0
 30
0.0
  9
$UCSYDIR
 10
0.0
 20
1.0
 30
0.0
  9
$PUCSNAME
  2

  9
$PUCSORG
 10
0.0
 20
0.0
 30
0.0
  9
$PUCSXDIR
 10
1.0
 20
0.0
 30
0.0
  9
$PUCSYDIR
 10
0.0
 20
1.0
 30
0.0
  9
$USERI1
 70
     0
  9
$USERI2
 70
     0
  9
$USERI3
 70
     0
  9
$USERI4
 70
     0
  9
$USERI5
 70
     0
  9
$USERR1
 40
0.0
  9
$USERR2
 40
0.0
  9
$USERR3
 40
0.0
  9
$USERR4
 40
0.0
  9
$USERR5
 40
0.0
  9
$WORLDVIEW
 70
     1
  9
$SHADEDGE
 70
     3
  9
$SHADEDIF
 70
    70
  9
$TILEMODE
 70
     1
  9
$MAXACTVP
 70
    64
  9
$PLIMCHECK
 70
     0
  9
$PEXTMIN
 10
0.0
 20
0.0
 30
0.0
  9
$PEXTMAX
 10
0.0
 20
0.0
 30
0.0
  9
$PLIMMIN
 10
0.0
 20
0.0
  9
$PLIMMAX
 10
12.0
 20
9.0
  9
$UNITMODE
 70
     0
  9
$VISRETAIN
 70
     1
  9
$PLINEGEN
 70
     0
  9
$PSLTSCALE
 70
     1
  0
ENDSEC
  0
SECTION
  2
TABLES
  0
TABLE
  2
VPORT
 70
     1
  0
VPORT
  2
*ACTIVE
 70
     0
 10
0.0
 20
0.0
 11
1.0
 21
1.0
 12
0.0000030035150758
 22
-119.82569824813019
 13
0.0
 23
0.0
 14
1.0
 24
1.0
 15
10.0
 25
10.0
 16
0.0
 26
0.0
 36
1.0
 17
0.0
 27
0.0
 37
0.0
 40
1077.6274341654189
 41
1.6128385155466389
 42
50.0
 43
0.0
 44
0.0
 50
0.0
 51
0.0
 71
     0
 72
  1000
 73
     1
 74
     3
 75
     0
 76
     0
 77
     0
 78
     0
  0
ENDTAB
  0
TABLE
  2
LTYPE
 70
     2
  0
LTYPE
  2
CONTINUOUS
 70
     0
  3
Solid line
 72
    65
 73
     0
 40
0.0
  0
ENDTAB
  0
TABLE
  2
LAYER
 70
    11
  0
LAYER
  2
0
 70
     0
 62
     7
  6
CONTINUOUS
  0
ENDTAB
  0
TABLE
  2
STYLE
 70
     2
  0
STYLE
  2
STANDARD
 70
     0
 40
0.0
 41
1.0
 50
0.0
 71
     0
 42
2.5
  3
txt
  4

  0
STYLE
  2
ARIAL
 70
     0
 40
0.0
 41
1.0
 50
0.0
 71
     0
 42
3.5
  3
txt
  4

  0
ENDTAB
  0
TABLE
  2
VIEW
 70
     2
  0
VIEW
  2
COMM-04
 70
     1
 40
477.26027331217421
 10
194.21746115522001
 20
180.60494410563541
 41
755.81685306636155
 11
0.0
 21
0.0
 31
1.0
 12
0.0
 22
0.0
 32
0.0
 42
50.0
 43
0.0
 44
0.0
 50
0.0
 71
     0
  0
ENDTAB
  0
TABLE
  2
UCS
 70
     0
  0
ENDTAB
  0
TABLE
  2
APPID
 70
    35
  0
APPID
  2
ACAD
 70
     0
  0
APPID
  2
ACAD_PSEXT
 70
     0
  0
APPID
  2
ACADANNOPO
 70
     0
  0
APPID
  2
ACADANNOTATIVE
 70
     0
  0
APPID
  2
ACAD_DSTYLE_DIMJAG
 70
     0
  0
APPID
  2
ACAD_DSTYLE_DIMTALN
 70
     0
  0
APPID
  2
ACAD_MLEADERVER
 70
     0
  0
APPID
  2
RAK
 70
     0
  0
APPID
  2
ACAD_EXEMPT_FROM_CAD_STANDARDS
 70
     0
  0
APPID
  2
GENIUS_GENODEF_13
 70
     0
  0
APPID
  2
GENIUS_GENSCREG_15
 70
     0
  0
APPID
  2
GENIUS_GENOBJ-N-SDF_13
 70
     0
  0
APPID
  2
GENIUS_GENCFG_13
 70
     0
  0
APPID
  2
GENIUS_GENCFG0_13
 70
     0
  0
APPID
  2
ADESKUNDERLAYLAYEROVERRIDEDATA
 70
     0
  0
APPID
  2
ACAUTHENVIRON
 70
     0
  0
APPID
  2
ACDBDYNAMICBLOCKTRUENAME
 70
     0
  0
APPID
  2
ACDBDYNAMICBLOCKGUID
 70
     0
  0
APPID
  2
$MECS_BLK
 70
     0
  0
APPID
  2
DCO15
 70
     0
  0
APPID
  2
ADE
 70
     0
  0
APPID
  2
ACLAYERTOOLS
 70
     0
  0
APPID
  2
ACADANNOAV
 70
     0
  0
APPID
  2
ACDBBLOCKREPETAG
 70
     0
  0
APPID
  2
ACAD_DSTYLE_DIMEXT_ENABLED
 70
     0
  0
APPID
  2
ACAD_DSTYLE_DIMEXT_LENGTH
 70
     0
  0
APPID
  2
ACET-TEXTMASK
 70
     0
  0
APPID
  2
ACAECLAYERSTANDARD
 70
     0
  0
APPID
  2
ACCMTRANSPARENCY
 70
     0
  0
APPID
  2
URBANX
 70
     0
  0
APPID
  2
GRADIENTCOLOR1ACI
 70
     0
  0
APPID
  2
GRADIENTCOLOR2ACI
 70
     0
  0
APPID
  2
ACAD_NAV_VCDISPLAY
 70
     0
  0
APPID
  2
ACAD_DSTYLE_DIMJOGGED_JOGA
 70
     0
  0
APPID
  2
PE_URL
 70
     0
  0
ENDTAB
  0
TABLE
  2
DIMSTYLE
 70
     2
  0
DIMSTYLE
  2
1_TO_10
 70
     0
  3

  4

  5
ARCHTICK
  6

  7

 40
10.0
 41
2.0
 42
2.0
 43
6.0
 44
2.0
 45
0.0
 46
2.0
 47
0.0
 48
0.0
140
2.0
141
2.0
142
0.0
143
0.0394
144
1.0
145
0.0
146
1.0
147
1.0
 71
     0
 72
     0
 73
     0
 74
     0
 75
     0
 76
     0
 77
     1
 78
     0
170
     0
171
     2
172
     0
173
     0
174
     0
175
     0
176
   256
177
   256
178
   256
  0
DIMSTYLE
  2
1_TO_10_LEADER
 70
     0
  3

  4

  5
ARCHTICK
  6

  7

 40
10.0
 41
2.0
 42
2.0
 43
6.0
 44
1.5
 45
0.0
 46
1.5
 47
0.0
 48
0.0
140
2.0
141
2.0
142
0.0
143
0.0394
144
1.0
145
0.0
146
1.0
147
1.0
 71
     0
 72
     0
 73
     0
 74
     0
 75
     0
 76
     0
 77
     0
 78
     0
170
     0
171
     2
172
     1
173
     0
174
     1
175
     0
176
     0
177
     0
178
     0
  0
ENDTAB
  0
ENDSEC
  0
SECTION
  2
BLOCKS
  0
BLOCK
  8
0
  2
$MODEL_SPACE
 70
     0
 10
0.0
 20
0.0
 30
0.0
  3
$MODEL_SPACE
  1

  0
ENDBLK
  5
21
  8
0
  0
BLOCK
 67
     1
  8
0
  2
$PAPER_SPACE
 70
     0
 10
0.0
 20
0.0
 30
0.0
  3
$PAPER_SPACE
  1

  0
ENDBLK
  5
3E09
 67
     1
  8
0
  0
BLOCK
  8
0
  2
_ARCHTICK
 70
     0
 10
0.0
 20
0.0
 30
0.0
  3
_ARCHTICK
  1

  0
POLYLINE
  5
6FA
  8
0
  6
BYBLOCK
 66
     1
 10
0.0
 20
0.0
 30
0.0
 40
0.15
 41
0.15
  0
VERTEX
  5
6FB
  8
0
  6
BYBLOCK
 10
-0.5
 20
-0.5
 30
0.0
  0
VERTEX
  5
6FC
  8
0
  6
BYBLOCK
 10
0.5
 20
0.5
 30
0.0
  0
SEQEND
  5
6FD
  8
0
  6
BYBLOCK
 62
     0
  0
ENDBLK
  5
6FE
  8
0
  0
BLOCK
  8
0
  2
*U4
 70
     1
 10
0.0
 20
0.0
 30
0.0
  3
*U4
  1

  0
SOLID
  5
3EC3
  8
0
 10
-104.0411992911061
 20
-67.977526053872865
 30
0.0
 11
-89.470481805131158
 21
-82.077359494556276
 31
0.0
 12
-107.826511894248
 22
-73.465317316388195
 32
0.0
 13
-107.826511894248
 23
-73.465317316388195
 33
0.0
  0
POLYLINE
  5
3EC4
  8
0
 66
     1
 10
0.0
 20
0.0
 30
0.0
  0
VERTEX
  5
3EC5
  8
0
 10
-105.93385559267711
 20
-70.721421685130537
 30
0.0
  0
VERTEX
  5
3EC6
  8
0
 10
-386.00227932596709
 20
122.46131493626871
 30
0.0
  0
VERTEX
  5
3EC7
  8
0
 10
-406.00227932596698
 20
122.46131493626871
 30
0.0
  0
SEQEND
  5
3EC8
  8
0
  0
ENDBLK
  5
3ECA
  8
0
  0
BLOCK
  8
0
  2
*U5
 70
     1
 10
0.0
 20
0.0
 30
0.0
  3
*U5
  1

  0
TEXT
  5
3ECC
  8
0
  6
CONTINUOUS
 10
-586.64347987166946
 20
112.63184699629601
 30
0.0
 40
20.0
  1
Seal and rivet
  7
ARIAL
  0
ENDBLK
  5
3ECE
  8
0
  0
BLOCK
  8
0
  2
*U6
 70
     1
 10
0.0
 20
0.0
 30
0.0
  3
*U6
  1

  0
TEXT
  5
3ED0
  8
0
  6
CONTINUOUS
 10
423.70684848107248
 20
34.700063421274713
 30
0.0
 40
20.0
  1
Ridge 1
  7
ARIAL
  0
ENDBLK
  5
3ED2
  8
0
  0
BLOCK
  8
0
  2
*U7
 70
     1
 10
0.0
 20
0.0
 30
0.0
  3
*U7
  1

  0
TEXT
  5
3ED4
  8
0
  6
CONTINUOUS
 10
-38.770715236145797
 20
-534.56343792633015
 30
0.0
 40
20.0
  1
Ridge 2
 50
90.0
  7
ARIAL
  0
ENDBLK
  5
3ED6
  8
0
  0
BLOCK
  8
0
  2
*U8
 70
     1
 10
0.0
 20
0.0
 30
0.0
  3
*U8
  1

  0
TEXT
  5
3ED8
  8
0
  6
CONTINUOUS
 10
-369.53084797200898
 20
-356.10025749628772
 30
0.0
 40
20.0
  1
Valley 1
 50
45.0
  7
ARIAL
  0
ENDBLK
  5
3EDA
  8
0
  0
BLOCK
  8
0
  2
*U9
 70
     1
 10
0.0
 20
0.0
 30
0.0
  3
*U9
  1

  0
TEXT
  5
3EDC
  8
0
  6
CONTINUOUS
 10
292.58451227753608
 20
-280.92410638143463
 30
0.0
 40
20.0
  1
Valley 2
 50
315.0
  7
ARIAL
  0
ENDBLK
  5
3EDE
  8
0
  0
BLOCK
  8
0
  2
*U10
 70
     1
 10
0.0
 20
0.0
 30
0.0
  3
*U10
  1

  0
SOLID
  5
3F7A
  8
0
 10
66.367769990777987
 20
-65.554194522543412
 30
0.0
 11
83.483257464996768
 21
-76.424852259358204
 31
0.0
 12
63.767312750417453
 22
-71.692766554009765
 32
0.0
 13
63.767312750417453
 23
-71.692766554009765
 33
0.0
  0
POLYLINE
  5
3F7B
  8
0
 66
     1
 10
0.0
 20
0.0
 30
0.0
  0
VERTEX
  5
3F7C
  8
0
 10
65.067541370597723
 20
-68.623480538276596
 30
0.0
  0
VERTEX
  5
3F7D
  8
0
 10
-386.00227932596709
 20
122.46131493626871
 30
0.0
  0
VERTEX
  5
3F7E
  8
0
 10
-406.00227932596698
 20
122.46131493626871
 30
0.0
  0
SEQEND
  5
3F7F
  8
0
  0
ENDBLK
  5
3F81
  8
0
  0
BLOCK
  8
0
  2
*U11
 70
     1
 10
0.0
 20
0.0
 30
0.0
  3
*U11
  1

  0
TEXT
  5
3F83
  8
0
  6
CONTINUOUS
 10
186.82384142228199
 20
-528.79673512420061
 30
0.0
 40
20.0
  1
Roof 
  7
ARIAL
  0
TEXT
  5
3F84
  8
0
  6
CONTINUOUS
 10
253.60419612896681
 20
-529.62973512420058
 30
0.0
 40
21.666
  1
\U+2192
  7
ARIAL
  0
ENDBLK
  5
3F86
  8
0
  0
BLOCK
  8
0
  2
*U12
 70
     1
 10
0.0
 20
0.0
 30
0.0
  3
*U12
  1

  0
TEXT
  5
3F88
  8
0
  6
CONTINUOUS
 10
-295.95538696524159
 20
-529.62973512420058
 30
0.0
 40
21.666
  1
\U+2190
  7
ARIAL
  0
TEXT
  5
3F89
  8
0
  6
CONTINUOUS
 10
-265.68801452322248
 20
-529.62973512420058
 30
0.0
 40
14.166314099999999
  1
 
  7
ARIAL
  0
TEXT
  5
3F8A
  8
0
  6
CONTINUOUS
 10
-252.87087319465101
 20
-528.79673624739053
 30
0.0
 40
20.000002246379999
  1
Roof
  7
ARIAL
  0
ENDBLK
  5
3F8C
  8
0
  0
BLOCK
  8
0
  2
*U13
 70
     1
 10
0.0
 20
0.0
 30
0.0
  3
*U13
  1

  0
TEXT
  5
3F8E
  8
0
  6
CONTINUOUS
 10
-525.10587828965083
 20
-188.38759186908919
 30
0.0
 40
20.0
  1
Roof 
 50
270.0
  7
ARIAL
  0
TEXT
  5
3F8F
  8
0
  6
CONTINUOUS
 10
-525.9388782896508
 20
-255.1679465757741
 30
0.0
 40
21.666
  1
\U+2192
 50
270.0
  7
ARIAL
  0
ENDBLK
  5
3F91
  8
0
  0
BLOCK
  8
0
  2
*U14
 70
     1
 10
0.0
 20
0.0
 30
0.0
  3
*U14
  1

  0
TEXT
  5
3F93
  8
0
  6
CONTINUOUS
 10
-209.1130812900422
 20
243.34854603387569
 30
0.0
 40
20.0
  1
Roof 
 50
90.0
  7
ARIAL
  0
TEXT
  5
3F94
  8
0
  6
CONTINUOUS
 10
-208.2800812900422
 20
310.12890074056048
 30
0.0
 40
21.666
  1
\U+2192
 50
90.0
  7
ARIAL
  0
ENDBLK
  5
3F96
  8
0
  0
BLOCK
  8
0
  2
*U15
 70
     1
 10
0.0
 20
0.0
 30
0.0
  3
*U15
  1

  0
TEXT
  5
3F98
  8
0
  6
CONTINUOUS
 10
563.60898262614501
 20
-303.76264488073571
 30
0.0
 40
21.666
  1
\U+2190
 50
90.0
  7
ARIAL
  0
TEXT
  5
3F99
  8
0
  6
CONTINUOUS
 10
563.60898262614501
 20
-273.4952724387166
 30
0.0
 40
14.166314099999999
  1
 
 50
90.0
  7
ARIAL
  0
TEXT
  5
3F9A
  8
0
  6
CONTINUOUS
 10
562.77598374933496
 20
-260.6781311101451
 30
0.0
 40
20.000002246379999
  1
Roof
 50
90.0
  7
ARIAL
  0
ENDBLK
  5
3F9C
  8
0
  0
BLOCK
  8
0
  2
*U16
 70
     1
 10
0.0
 20
0.0
 30
0.0
  3
*U16
  1

  0
SOLID
  5
3F9E
  8
0
 10
-14.681861810672091
 20
31.701595775512331
 30
0.0
 11
3.8844053586597052
 21
23.552679620089979
 31
0.0
 12
-16.32117152760194
 22
25.239621766246749
 32
0.0
 13
-16.32117152760194
 23
25.239621766246749
 33
0.0
  0
POLYLINE
  5
3F9F
  8
0
 66
     1
 10
0.0
 20
0.0
 30
0.0
  0
VERTEX
  5
3FA0
  8
0
 10
-15.50151666913702
 20
28.47060877087954
 30
0.0
  0
VERTEX
  5
3FA1
  8
0
 10
-386.00227932596709
 20
122.46131493626871
 30
0.0
  0
SEQEND
  5
3FA2
  8
0
  0
ENDBLK
  5
3FA4
  8
0
  0
ENDSEC
  0
SECTION
  2
ENTITIES
  0
POLYLINE
  5
1D69
  8
0
 66
     1
 10
0.0
 20
0.0
 30
0.0
  0
VERTEX
  5
3EAD
  8
0
 10
-625.00000000000023
 20
415.73532599636951
 30
0.0
  0
VERTEX
  5
3EAE
  8
0
 10
-625.00000000000023
 20
-170.7517242933497
 30
0.0
  0
VERTEX
  5
3EAF
  8
0
 10
-638.73738709728082
 20
-175.75172429335061
 30
0.0
  0
VERTEX
  5
3EB0
  8
0
 10
-611.26261290273783
 20
-185.75172429335061
 30
0.0
  0
VERTEX
  5
3EB1
  8
0
 10
-625.00000000000023
 20
-190.7517242933497
 30
0.0
  0
VERTEX
  5
3EB2
  8
0
 10
-625.00000000000023
 20
-655.38672748043041
 30
0.0
  0
SEQEND
  5
3EB3
  8
0
  0
POLYLINE
  5
1D6A
  8
0
 66
     1
 10
0.0
 20
0.0
 30
0.0
  0
VERTEX
  5
3EB4
  8
0
 10
-645.00000000000023
 20
-635.38672748043018
 30
0.0
  0
VERTEX
  5
3EB5
  8
0
 10
-9.9999999999984084
 20
-635.38672748043018
 30
0.0
  0
VERTEX
  5
3EB6
  8
0
 10
-5.0000000000002274
 20
-649.12411457770645
 30
0.0
  0
VERTEX
  5
3EB7
  8
0
 10
4.9999999999997717
 20
-621.64934038315255
 30
0.0
  0
VERTEX
  5
3EB8
  8
0
 10
10.00000000000159
 20
-635.38672748043018
 30
0.0
  0
VERTEX
  5
3EB9
  8
0
 10
644.99999999999966
 20
-635.38672748043018
 30
0.0
  0
SEQEND
  5
3EBA
  8
0
  0
POLYLINE
  5
1D6B
  8
0
 66
     1
 10
0.0
 20
0.0
 30
0.0
  0
VERTEX
  5
3EBB
  8
0
 10
625.00000000000023
 20
415.73532599636951
 30
0.0
  0
VERTEX
  5
3EBC
  8
0
 10
624.99999999999977
 20
-170.7517242933493
 30
0.0
  0
VERTEX
  5
3EBD
  8
0
 10
611.26261290272282
 20
-175.75172429334339
 30
0.0
  0
VERTEX
  5
3EBE
  8
0
 10
638.7373870972749
 20
-185.75172429334339
 30
0.0
  0
VERTEX
  5
3EBF
  8
0
 10
624.99999999999977
 20
-190.7517242933493
 30
0.0
  0
VERTEX
  5
3EC0
  8
0
 10
624.99999999999977
 20
-655.38672748043018
 30
0.0
  0
SEQEND
  5
3EC1
  8
0
  0
INSERT
  5
1D6F
  8
0
  6
CONTINUOUS
  2
*U4
 10
0.0
 20
0.0
 30
0.0
  0
INSERT
  5
1D70
  8
0
  6
CONTINUOUS
  2
*U5
 10
0.0
 20
0.0
 30
0.0
  0
INSERT
  5
1D71
  8
0
  6
CONTINUOUS
  2
*U6
 10
0.0
 20
0.0
 30
0.0
  0
INSERT
  5
1D72
  8
0
  6
CONTINUOUS
  2
*U7
 10
0.0
 20
0.0
 30
0.0
  0
INSERT
  5
1D73
  8
0
  6
CONTINUOUS
  2
*U8
 10
0.0
 20
0.0
 30
0.0
  0
INSERT
  5
1D74
  8
0
  6
CONTINUOUS
  2
*U9
 10
0.0
 20
0.0
 30
0.0
  0
LINE
  5
1D75
  8
0
 10
-143.27127990884631
 20
-143.2712799088458
 30
0.0
 11
-625.00000000000023
 21
-624.99999999999977
 31
0.0
  0
LINE
  5
1D76
  8
0
 10
-0.0000000000002274
 20
-205.0609665440989
 30
0.0
 11
-430.32576093633151
 21
-635.38672748043018
 31
0.0
  0
LINE
  5
1D77
  8
0
 10
-205.0609665440991
 20
0.0
 30
0.0
 11
-625.00000000000023
 21
-419.93903345590093
 31
0.0
  0
LINE
  5
1D78
  8
0
 10
143.2712799088456
 20
-143.2712799088456
 30
0.0
 11
624.99999999999977
 21
-624.99999999999977
 31
0.0
  0
LINE
  5
1D79
  8
0
 10
-0.0000000000002274
 20
-205.0609665440991
 30
0.0
 11
430.32576093633111
 21
-635.38672748043018
 31
0.0
  0
LINE
  5
1D7A
  8
0
 10
205.06096654409859
 20
0.0
 30
0.0
 11
624.99999999999977
 21
-419.93903345590093
 31
0.0
  0
LINE
  5
1D7C
  8
0
 10
0.0
 20
23.720560233597549
 30
0.0
 11
-0.0000000000002274
 21
-635.3867274804295
 31
0.0
  0
POLYLINE
  5
1D7D
  8
0
 66
     1
 10
0.0
 20
0.0
 30
0.0
 70
     4
  0
VERTEX
  5
1D7E
  8
0
 10
23.72056023359778
 20
-26.757134081015689
 30
0.0
 70
    16
  0
VERTEX
  5
1D7F
  8
0
 10
23.72056023359778
 20
-26.757134081015689
 30
0.0
 70
     8
  0
VERTEX
  5
1D80
  8
0
 10
23.683901304035089
 20
-22.36161135816678
 30
0.0
 70
     8
  0
VERTEX
  5
1D81
  8
0
 10
23.574650060210619
 20
-18.061811679956229
 30
0.0
 70
     8
  0
VERTEX
  5
1D82
  8
0
 10
23.393894819415209
 20
-13.88513224506846
 30
0.0
 70
     8
  0
VERTEX
  5
1D83
  8
0
 10
23.14272389894154
 20
-9.8589702521896925
 30
0.0
 70
     8
  0
VERTEX
  5
1D84
  8
0
 10
22.822225616080459
 20
-6.0107229000025191
 30
0.0
 70
     8
  0
VERTEX
  5
1D85
  8
0
 10
22.433488288126458
 20
-2.3677873871949942
 30
0.0
 70
     8
  0
VERTEX
  5
1D86
  8
0
 10
21.977600232370381
 20
1.042439087550292
 30
0.0
 70
     8
  0
VERTEX
  5
1D87
  8
0
 10
21.455649766104901
 20
4.1925593255452887
 30
0.0
 70
     8
  0
VERTEX
  5
1D88
  8
0
 10
20.866929848907379
 20
7.0616543548055679
 30
0.0
 70
     8
  0
VERTEX
  5
1D89
  8
0
 10
20.203552009501209
 20
9.6547181101484512
 30
0.0
 70
     8
  0
VERTEX
  5
1D8A
  8
0
 10
19.455832418896311
 20
11.983222753091241
 30
0.0
 70
     8
  0
VERTEX
  5
1D8B
  8
0
 10
18.614087248102582
 20
14.05864044514942
 30
0.0
 70
     8
  0
VERTEX
  5
1D8C
  8
0
 10
17.668632668129931
 20
15.89244334783848
 30
0.0
 70
     8
  0
VERTEX
  5
1D8D
  8
0
 10
16.60978484998645
 20
17.496103622677541
 30
0.0
 70
     8
  0
VERTEX
  5
1D8E
  8
0
 10
15.42785996468387
 20
18.881093431180261
 30
0.0
 70
     8
  0
VERTEX
  5
1D8F
  8
0
 10
14.113174183228461
 20
20.05888493486577
 30
0.0
 70
     8
  0
VERTEX
  5
1D90
  8
0
 10
12.660625246571501
 20
21.041578855525358
 30
0.0
 70
     8
  0
VERTEX
  5
1D91
  8
0
 10
11.08343717541697
 20
21.843790156048041
 30
0.0
 70
     8
  0
VERTEX
  5
1D92
  8
0
 10
9.3994155604048046
 20
22.48076235960048
 30
0.0
 70
     8
  0
VERTEX
  5
1D93
  8
0
 10
7.6263659921803528
 20
22.967738989347481
 30
0.0
 70
     8
  0
VERTEX
  5
1D94
  8
0
 10
5.782094061383531
 20
23.319963568455709
 30
0.0
 70
     8
  0
VERTEX
  5
1D95
  8
0
 10
3.8844053586597052
 20
23.552679620089979
 30
0.0
 70
     8
  0
VERTEX
  5
1D96
  8
0
 10
1.9511054746506029
 20
23.681130667415118
 30
0.0
 70
     8
  0
VERTEX
  5
1D97
  8
0
 10
-0.0000000000002274
 20
23.72056023359778
 30
0.0
 70
     8
  0
VERTEX
  5
1D98
  8
0
 10
-1.9511054746528771
 20
23.681130667415118
 30
0.0
 70
     8
  0
VERTEX
  5
1D99
  8
0
 10
-3.8844053586619789
 20
23.552679620089979
 30
0.0
 70
     8
  0
VERTEX
  5
1D9A
  8
0
 10
-5.7820940613858047
 20
23.319963568455709
 30
0.0
 70
     8
  0
VERTEX
  5
1D9B
  8
0
 10
-7.6263659921808076
 20
22.967738989347481
 30
0.0
 70
     8
  0
VERTEX
  5
1D9C
  8
0
 10
-9.3994155604070784
 20
22.48076235960048
 30
0.0
 70
     8
  0
VERTEX
  5
1D9D
  8
0
 10
-11.08343717541743
 20
21.843790156048041
 30
0.0
 70
     8
  0
VERTEX
  5
1D9E
  8
0
 10
-12.660625246573771
 20
21.041578855525358
 30
0.0
 70
     8
  0
VERTEX
  5
1D9F
  8
0
 10
-14.11317418323074
 20
20.05888493486577
 30
0.0
 70
     8
  0
VERTEX
  5
1DA0
  8
0
 10
-15.42785996468433
 20
18.881093431180261
 30
0.0
 70
     8
  0
VERTEX
  5
1DA1
  8
0
 10
-16.609784849988731
 20
17.496103622677541
 30
0.0
 70
     8
  0
VERTEX
  5
1DA2
  8
0
 10
-17.668632668132201
 20
15.89244334783848
 30
0.0
 70
     8
  0
VERTEX
  5
1DA3
  8
0
 10
-18.614087248104848
 20
14.05864044514942
 30
0.0
 70
     8
  0
VERTEX
  5
1DA4
  8
0
 10
-19.455832418898581
 20
11.983222753091241
 30
0.0
 70
     8
  0
VERTEX
  5
1DA5
  8
0
 10
-20.203552009503479
 20
9.6547181101484512
 30
0.0
 70
     8
  0
VERTEX
  5
1DA6
  8
0
 10
-20.86692984890783
 20
7.0616543548055679
 30
0.0
 70
     8
  0
VERTEX
  5
1DA7
  8
0
 10
-21.455649766105349
 20
4.1925593255452887
 30
0.0
 70
     8
  0
VERTEX
  5
1DA8
  8
0
 10
-21.977600232372652
 20
1.042439087550292
 30
0.0
 70
     8
  0
VERTEX
  5
1DA9
  8
0
 10
-22.433488288128729
 20
-2.3677873871949942
 30
0.0
 70
     8
  0
VERTEX
  5
1DAA
  8
0
 10
-22.822225616082729
 20
-6.0107229000025191
 30
0.0
 70
     8
  0
VERTEX
  5
1DAB
  8
0
 10
-23.142723898941991
 20
-9.8589702521896925
 30
0.0
 70
     8
  0
VERTEX
  5
1DAC
  8
0
 10
-23.393894819417479
 20
-13.88513224506846
 30
0.0
 70
     8
  0
VERTEX
  5
1DAD
  8
0
 10
-23.574650060212889
 20
-18.061811679956229
 30
0.0
 70
     8
  0
VERTEX
  5
1DAE
  8
0
 10
-23.68390130403554
 20
-22.36161135816678
 30
0.0
 70
     8
  0
VERTEX
  5
1DAF
  8
0
 10
-23.720560233598238
 20
-26.757134081015689
 30
0.0
 70
     8
  0
VERTEX
  5
1DB0
  8
0
 10
23.72056023359778
 20
-14.932462492734199
 30
0.0
 70
    16
  0
VERTEX
  5
1DB1
  8
0
 10
22.148706760426421
 20
7.2592626368439142
 30
0.0
 70
    16
  0
VERTEX
  5
1DB2
  8
0
 10
15.6325845847366
 20
22.14663046341752
 30
0.0
 70
    16
  0
VERTEX
  5
1DB3
  8
0
 10
-0.0000000000002274
 20
24.507525118687909
 30
0.0
 70
    16
  0
VERTEX
  5
1DB4
  8
0
 10
-15.632584584738879
 20
22.14663046341752
 30
0.0
 70
    16
  0
VERTEX
  5
1DB5
  8
0
 10
-22.148706760428698
 20
7.2592626368439142
 30
0.0
 70
    16
  0
VERTEX
  5
1DB6
  8
0
 10
-23.720560233598238
 20
-14.932462492734199
 30
0.0
 70
    16
  0
VERTEX
  5
1DB7
  8
0
 10
-23.720560233598238
 20
-26.757134081015689
 30
0.0
 70
    16
  0
SEQEND
  5
1DB8
  8
0
  0
CIRCLE
  5
1DBA
  8
0
 10
94.887193657121088
 20
-108.9960850876584
 30
0.0
 40
3.0
  0
LINE
  5
1DBC
  8
0
 10
-23.720560233598238
 20
-26.757134081015689
 30
0.0
 11
-23.720560233598238
 21
-635.3867274804295
 31
0.0
  0
LINE
  5
1DBD
  8
0
 10
23.72056023359778
 20
-26.757134081015689
 30
0.0
 11
23.720560233601422
 21
-635.3867274804295
 31
0.0
  0
LINE
  5
1DC3
  8
0
 10
-143.271279908846
 20
-129.12914428511471
 30
0.0
 11
-143.271279908846
 21
-635.3867274804295
 31
0.0
  0
LINE
  5
1DC6
  8
0
 10
143.2712799088456
 20
-129.12914428511471
 30
0.0
 11
143.2712799088456
 21
-635.3867274804295
 31
0.0
  0
LINE
  5
1DC9
  8
0
 10
-155.5296911502048
 20
-306.91221007299168
 30
0.0
 11
-179.63298945941369
 21
-306.91221007299151
 31
0.0
  0
LINE
  5
1DCA
  8
0
 10
-173.87815432948651
 20
-345.0122100729921
 30
0.0
 11
-217.73298945941431
 21
-345.01221007299182
 31
0.0
  0
LINE
  5
1DCB
  8
0
 10
-155.5296911502048
 20
-383.1122100729915
 30
0.0
 11
-255.83298945941351
 21
-383.1122100729915
 31
0.0
  0
LINE
  5
1DCC
  8
0
 10
-173.87815432948651
 20
-421.21221007299181
 30
0.0
 11
-293.93298945941388
 21
-421.21221007299181
 31
0.0
  0
LINE
  5
1DCD
  8
0
 10
-155.5296911502048
 20
-459.31221007299172
 30
0.0
 11
-332.03298945941378
 21
-459.31221007299132
 31
0.0
  0
LINE
  5
1DCE
  8
0
 10
-155.5296911502048
 20
-535.51221007299205
 30
0.0
 11
-408.232989459414
 21
-535.51221007299182
 31
0.0
  0
LINE
  5
1DCF
  8
0
 10
-173.8781543294846
 20
-497.41221007299208
 30
0.0
 11
-370.13298945941392
 21
-497.41221007299208
 31
0.0
  0
LINE
  5
1DD0
  8
0
 10
-156.23912141869391
 20
-611.71221007299175
 30
0.0
 11
-484.43298945941331
 21
-611.71221007299175
 31
0.0
  0
LINE
  5
1DD1
  8
0
 10
-173.87815432948651
 20
-573.61221007299196
 30
0.0
 11
-446.33298945941368
 21
-573.61221007299173
 31
0.0
  0
LINE
  5
1DD7
  8
0
 10
155.5296911502044
 20
-306.91221007299168
 30
0.0
 11
179.63298945941281
 21
-306.91221007299151
 31
0.0
  0
LINE
  5
1DD8
  8
0
 10
173.8781543294842
 20
-345.0122100729921
 30
0.0
 11
217.7329894594136
 21
-345.0122100729921
 31
0.0
  0
LINE
  5
1DD9
  8
0
 10
155.5296911502025
 20
-383.1122100729915
 30
0.0
 11
255.83298945941331
 21
-383.1122100729915
 31
0.0
  0
LINE
  5
1DDA
  8
0
 10
173.8781543294842
 20
-421.21221007299181
 30
0.0
 11
293.93298945941359
 21
-421.21221007299209
 31
0.0
  0
LINE
  5
1DDB
  8
0
 10
155.5296911502025
 20
-459.31221007299172
 30
0.0
 11
332.03298945941287
 21
-459.31221007299132
 31
0.0
  0
LINE
  5
1DDC
  8
0
 10
155.5296911502044
 20
-535.51221007299205
 30
0.0
 11
408.23298945941332
 21
-535.51221007299205
 31
0.0
  0
LINE
  5
1DDD
  8
0
 10
173.8781543294842
 20
-497.41221007299208
 30
0.0
 11
370.13298945941392
 21
-497.41221007299231
 31
0.0
  0
LINE
  5
1DDE
  8
0
 10
156.23912141869161
 20
-611.71221007299175
 30
0.0
 11
484.43298945941319
 21
-611.71221007299175
 31
0.0
  0
LINE
  5
1DDF
  8
0
 10
173.8781543294842
 20
-573.61221007299196
 30
0.0
 11
446.33298945941368
 21
-573.61221007299218
 31
0.0
  0
POLYLINE
  5
1DE4
  8
0
 66
     1
 10
0.0
 20
0.0
 30
0.0
  0
VERTEX
  5
3EDF
  8
0
 10
-162.8303258738438
 20
-290.10954648742199
 30
0.0
  0
VERTEX
  5
3EE0
  8
0
 10
-161.0550806303292
 20
-292.25874545123111
 30
0.0
  0
VERTEX
  5
3EE1
  8
0
 10
-159.42613326000921
 20
-294.47950646660018
 30
0.0
  0
VERTEX
  5
3EE2
  8
0
 10
-158.0317543110161
 20
-296.79103667071308
 30
0.0
  0
VERTEX
  5
3EE3
  8
0
 10
-156.93710167816079
 20
-299.21442167340803
 30
0.0
  0
VERTEX
  5
3EE4
  8
0
 10
-156.15520694040811
 20
-301.72944240285261
 30
0.0
  0
VERTEX
  5
3EE5
  8
0
 10
-155.6860700977561
 20
-304.30555361679791
 30
0.0
  0
VERTEX
  5
3EE6
  8
0
 10
-155.5296911502048
 20
-306.91221007299208
 30
0.0
  0
VERTEX
  5
3EE7
  8
0
 10
-155.6860700977561
 20
-309.51886652918688
 30
0.0
  0
VERTEX
  5
3EE8
  8
0
 10
-156.15520694040811
 20
-312.09497774313132
 30
0.0
  0
VERTEX
  5
3EE9
  8
0
 10
-156.93710167816079
 20
-314.60999847257631
 30
0.0
  0
VERTEX
  5
3EEA
  8
0
 10
-158.0317543110161
 20
-317.03338347527028
 30
0.0
  0
VERTEX
  5
3EEB
  8
0
 10
-159.42613326000921
 20
-319.34491367938313
 30
0.0
  0
VERTEX
  5
3EEC
  8
0
 10
-161.0550806303292
 20
-321.56567469475232
 30
0.0
  0
VERTEX
  5
3EED
  8
0
 10
-162.8404069482005
 20
-323.72707830163313
 30
0.0
  0
VERTEX
  5
3EEE
  8
0
 10
-164.70392273984561
 20
-325.86053628028299
 30
0.0
  0
VERTEX
  5
3EEF
  8
0
 10
-166.56743853149081
 20
-327.99746041095642
 30
0.0
  0
VERTEX
  5
3EF0
  8
0
 10
-168.3527648493621
 20
-330.16926247391001
 30
0.0
  0
VERTEX
  5
3EF1
  8
0
 10
-169.98171221968209
 20
-332.40735424939999
 30
0.0
  0
VERTEX
  5
3EF2
  8
0
 10
-171.3760911686752
 20
-334.74314751768247
 30
0.0
  0
VERTEX
  5
3EF3
  8
0
 10
-172.47074380153049
 20
-337.19743904259229
 30
0.0
  0
VERTEX
  5
3EF4
  8
0
 10
-173.2526385392832
 20
-339.7485655222892
 30
0.0
  0
VERTEX
  5
3EF5
  8
0
 10
-173.7217753819352
 20
-342.36424863850948
 30
0.0
  0
VERTEX
  5
3EF6
  8
0
 10
-173.87815432948651
 20
-345.0122100729921
 30
0.0
  0
VERTEX
  5
3EF7
  8
0
 10
-173.7217753819352
 20
-347.66017150747462
 30
0.0
  0
VERTEX
  5
3EF8
  8
0
 10
-173.2526385392832
 20
-350.2758546236949
 30
0.0
  0
VERTEX
  5
3EF9
  8
0
 10
-172.47074380153049
 20
-352.82698110339078
 30
0.0
  0
VERTEX
  5
3EFA
  8
0
 10
-171.3760911686752
 20
-355.28127262830162
 30
0.0
  0
VERTEX
  5
3EFB
  8
0
 10
-169.98171221968209
 20
-357.6170658965832
 30
0.0
  0
VERTEX
  5
3EFC
  8
0
 10
-168.3527648493621
 20
-359.85515767207357
 30
0.0
  0
VERTEX
  5
3EFD
  8
0
 10
-166.56743853149081
 20
-362.02695973502728
 30
0.0
  0
VERTEX
  5
3EFE
  8
0
 10
-164.70392273984561
 20
-364.1638838657006
 30
0.0
  0
VERTEX
  5
3EFF
  8
0
 10
-162.8404069482005
 20
-366.29734184435011
 30
0.0
  0
VERTEX
  5
3F00
  8
0
 10
-161.0550806303292
 20
-368.45874545123138
 30
0.0
  0
VERTEX
  5
3F01
  8
0
 10
-159.42613326000921
 20
-370.67950646660051
 30
0.0
  0
VERTEX
  5
3F02
  8
0
 10
-158.0317543110161
 20
-372.99103667071239
 30
0.0
  0
VERTEX
  5
3F03
  8
0
 10
-156.93710167816079
 20
-375.41442167340779
 30
0.0
  0
VERTEX
  5
3F04
  8
0
 10
-156.15520694040811
 20
-377.92944240285237
 30
0.0
  0
VERTEX
  5
3F05
  8
0
 10
-155.6860700977561
 20
-380.50555361679682
 30
0.0
  0
VERTEX
  5
3F06
  8
0
 10
-155.5296911502048
 20
-383.11221007299099
 30
0.0
  0
VERTEX
  5
3F07
  8
0
 10
-155.6860700977561
 20
-385.71886652918579
 30
0.0
  0
VERTEX
  5
3F08
  8
0
 10
-156.15520694040811
 20
-388.29497774313018
 30
0.0
  0
VERTEX
  5
3F09
  8
0
 10
-156.93710167816079
 20
-390.80999847257522
 30
0.0
  0
VERTEX
  5
3F0A
  8
0
 10
-158.0317543110161
 20
-393.2333834752705
 30
0.0
  0
VERTEX
  5
3F0B
  8
0
 10
-159.42613326000921
 20
-395.5449136793834
 30
0.0
  0
VERTEX
  5
3F0C
  8
0
 10
-161.0550806303292
 20
-397.76567469475248
 30
0.0
  0
VERTEX
  5
3F0D
  8
0
 10
-162.8404069482005
 20
-399.9270783016334
 30
0.0
  0
VERTEX
  5
3F0E
  8
0
 10
-164.70392273984561
 20
-402.0605362802828
 30
0.0
  0
VERTEX
  5
3F0F
  8
0
 10
-166.56743853149081
 20
-404.19746041095658
 30
0.0
  0
VERTEX
  5
3F10
  8
0
 10
-168.3527648493621
 20
-406.36926247391079
 30
0.0
  0
VERTEX
  5
3F11
  8
0
 10
-169.98171221968209
 20
-408.6073542494002
 30
0.0
  0
VERTEX
  5
3F12
  8
0
 10
-171.3760911686752
 20
-410.94314751768178
 30
0.0
  0
VERTEX
  5
3F13
  8
0
 10
-172.47074380153049
 20
-413.39743904259262
 30
0.0
  0
VERTEX
  5
3F14
  8
0
 10
-173.2526385392832
 20
-415.94856552228907
 30
0.0
  0
VERTEX
  5
3F15
  8
0
 10
-173.7217753819352
 20
-418.56424863850879
 30
0.0
  0
VERTEX
  5
3F16
  8
0
 10
-173.87815432948651
 20
-421.21221007299141
 30
0.0
  0
VERTEX
  5
3F17
  8
0
 10
-173.7217753819352
 20
-423.86017150747392
 30
0.0
  0
VERTEX
  5
3F18
  8
0
 10
-173.2526385392832
 20
-426.4758546236942
 30
0.0
  0
VERTEX
  5
3F19
  8
0
 10
-172.47074380153049
 20
-429.02698110339111
 30
0.0
  0
VERTEX
  5
3F1A
  8
0
 10
-171.3760911686752
 20
-431.48127262830093
 30
0.0
  0
VERTEX
  5
3F1B
  8
0
 10
-169.98171221968209
 20
-433.81706589658302
 30
0.0
  0
VERTEX
  5
3F1C
  8
0
 10
-168.3527648493621
 20
-436.05515767207288
 30
0.0
  0
VERTEX
  5
3F1D
  8
0
 10
-166.56743853149081
 20
-438.22695973502658
 30
0.0
  0
VERTEX
  5
3F1E
  8
0
 10
-164.70392273984561
 20
-440.36388386570002
 30
0.0
  0
VERTEX
  5
3F1F
  8
0
 10
-162.8404069482005
 20
-442.49734184434988
 30
0.0
  0
VERTEX
  5
3F20
  8
0
 10
-161.0550806303292
 20
-444.65874545123069
 30
0.0
  0
VERTEX
  5
3F21
  8
0
 10
-159.42613326000921
 20
-446.87950646659982
 30
0.0
  0
VERTEX
  5
3F22
  8
0
 10
-158.0317543110161
 20
-449.19103667071272
 30
0.0
  0
VERTEX
  5
3F23
  8
0
 10
-156.93710167816079
 20
-451.61442167340749
 30
0.0
  0
VERTEX
  5
3F24
  8
0
 10
-156.15520694040811
 20
-454.12944240285219
 30
0.0
  0
VERTEX
  5
3F25
  8
0
 10
-155.6860700977561
 20
-456.70555361679737
 30
0.0
  0
VERTEX
  5
3F26
  8
0
 10
-155.5296911502048
 20
-459.31221007299172
 30
0.0
  0
VERTEX
  5
3F27
  8
0
 10
-155.6860700977561
 20
-461.91886652918652
 30
0.0
  0
VERTEX
  5
3F28
  8
0
 10
-156.15520694040811
 20
-464.4949777431309
 30
0.0
  0
VERTEX
  5
3F29
  8
0
 10
-156.93710167816079
 20
-467.00999847257589
 30
0.0
  0
VERTEX
  5
3F2A
  8
0
 10
-158.0317543110161
 20
-469.43338347527077
 30
0.0
  0
VERTEX
  5
3F2B
  8
0
 10
-159.42613326000921
 20
-471.74491367938322
 30
0.0
  0
VERTEX
  5
3F2C
  8
0
 10
-161.0550806303292
 20
-473.96567469475229
 30
0.0
  0
VERTEX
  5
3F2D
  8
0
 10
-162.8404069482005
 20
-476.12707830163362
 30
0.0
  0
VERTEX
  5
3F2E
  8
0
 10
-164.70392273984561
 20
-478.26053628028302
 30
0.0
  0
VERTEX
  5
3F2F
  8
0
 10
-166.56743853149081
 20
-480.3974604109564
 30
0.0
  0
VERTEX
  5
3F30
  8
0
 10
-168.3527648493621
 20
-482.5692624739101
 30
0.0
  0
VERTEX
  5
3F31
  8
0
 10
-169.98171221968209
 20
-484.80735424940048
 30
0.0
  0
VERTEX
  5
3F32
  8
0
 10
-171.3760911686752
 20
-487.14314751768262
 30
0.0
  0
VERTEX
  5
3F33
  8
0
 10
-172.47074380153049
 20
-489.59743904259278
 30
0.0
  0
VERTEX
  5
3F34
  8
0
 10
-173.2526385392832
 20
-492.14856552228969
 30
0.0
  0
VERTEX
  5
3F35
  8
0
 10
-173.7217753819352
 20
-494.76424863850951
 30
0.0
  0
VERTEX
  5
3F36
  8
0
 10
-173.87815432948651
 20
-497.41221007299208
 30
0.0
  0
VERTEX
  5
3F37
  8
0
 10
-173.7217753819352
 20
-500.06017150747471
 30
0.0
  0
VERTEX
  5
3F38
  8
0
 10
-173.2526385392832
 20
-502.67585462369487
 30
0.0
  0
VERTEX
  5
3F39
  8
0
 10
-172.47074380153049
 20
-505.22698110339132
 30
0.0
  0
VERTEX
  5
3F3A
  8
0
 10
-171.3760911686752
 20
-507.68127262830171
 30
0.0
  0
VERTEX
  5
3F3B
  8
0
 10
-169.98171221968209
 20
-510.01706589658369
 30
0.0
  0
VERTEX
  5
3F3C
  8
0
 10
-168.3527648493621
 20
-512.25515767207355
 30
0.0
  0
VERTEX
  5
3F3D
  8
0
 10
-166.56743853149081
 20
-514.42695973502725
 30
0.0
  0
VERTEX
  5
3F3E
  8
0
 10
-164.70392273984561
 20
-516.56388386570075
 30
0.0
  0
VERTEX
  5
3F3F
  8
0
 10
-162.8404069482005
 20
-518.69734184434958
 30
0.0
  0
VERTEX
  5
3F40
  8
0
 10
-161.0550806303292
 20
-520.85874545123102
 30
0.0
  0
VERTEX
  5
3F41
  8
0
 10
-159.42613326000921
 20
-523.07950646660015
 30
0.0
  0
VERTEX
  5
3F42
  8
0
 10
-158.0317543110161
 20
-525.39103667071254
 30
0.0
  0
VERTEX
  5
3F43
  8
0
 10
-156.93710167816079
 20
-527.81442167340776
 30
0.0
  0
VERTEX
  5
3F44
  8
0
 10
-156.15520694040811
 20
-530.32944240285235
 30
0.0
  0
VERTEX
  5
3F45
  8
0
 10
-155.6860700977561
 20
-532.90555361679731
 30
0.0
  0
VERTEX
  5
3F46
  8
0
 10
-155.5296911502048
 20
-535.51221007299205
 30
0.0
  0
VERTEX
  5
3F47
  8
0
 10
-155.6860700977561
 20
-538.11886652918668
 30
0.0
  0
VERTEX
  5
3F48
  8
0
 10
-156.15520694040811
 20
-540.69497774313118
 30
0.0
  0
VERTEX
  5
3F49
  8
0
 10
-156.93710167816079
 20
-543.20999847257622
 30
0.0
  0
VERTEX
  5
3F4A
  8
0
 10
-158.0317543110161
 20
-545.63338347527144
 30
0.0
  0
VERTEX
  5
3F4B
  8
0
 10
-159.42613326000921
 20
-547.94491367938394
 30
0.0
  0
VERTEX
  5
3F4C
  8
0
 10
-161.0550806303292
 20
-550.16567469475308
 30
0.0
  0
VERTEX
  5
3F4D
  8
0
 10
-162.8404069482005
 20
-552.3270783016344
 30
0.0
  0
VERTEX
  5
3F4E
  8
0
 10
-164.70392273984561
 20
-554.4605362802838
 30
0.0
  0
VERTEX
  5
3F4F
  8
0
 10
-166.56743853149081
 20
-556.59746041095707
 30
0.0
  0
VERTEX
  5
3F50
  8
0
 10
-168.3527648493621
 20
-558.76926247391077
 30
0.0
  0
VERTEX
  5
3F51
  8
0
 10
-169.98171221968209
 20
-561.00735424940035
 30
0.0
  0
VERTEX
  5
3F52
  8
0
 10
-171.3760911686752
 20
-563.34314751768227
 30
0.0
  0
VERTEX
  5
3F53
  8
0
 10
-172.47074380153049
 20
-565.79743904259215
 30
0.0
  0
VERTEX
  5
3F54
  8
0
 10
-173.2526385392832
 20
-568.34856552228916
 30
0.0
  0
VERTEX
  5
3F55
  8
0
 10
-173.7217753819352
 20
-570.96424863850928
 30
0.0
  0
VERTEX
  5
3F56
  8
0
 10
-173.87815432948651
 20
-573.61221007299196
 30
0.0
  0
VERTEX
  5
3F57
  8
0
 10
-173.7217753819352
 20
-576.26017150747452
 30
0.0
  0
VERTEX
  5
3F58
  8
0
 10
-173.2526385392832
 20
-578.8758546236952
 30
0.0
  0
VERTEX
  5
3F59
  8
0
 10
-172.47074380153049
 20
-581.4269811033912
 30
0.0
  0
VERTEX
  5
3F5A
  8
0
 10
-171.3760911686752
 20
-583.88127262830153
 30
0.0
  0
VERTEX
  5
3F5B
  8
0
 10
-169.98171221968209
 20
-586.22078478885908
 30
0.0
  0
VERTEX
  5
3F5C
  8
0
 10
-168.3527648493621
 20
-588.48490881028033
 30
0.0
  0
VERTEX
  5
3F5D
  8
0
 10
-166.56743853149081
 20
-590.72736982647643
 30
0.0
  0
VERTEX
  5
3F5E
  8
0
 10
-164.70392273984561
 20
-593.00189297135898
 30
0.0
  0
VERTEX
  5
3F5F
  8
0
 10
-162.8404069482005
 20
-595.36220337883901
 30
0.0
  0
VERTEX
  5
3F60
  8
0
 10
-161.0550806303292
 20
-597.86202618282834
 30
0.0
  0
VERTEX
  5
3F61
  8
0
 10
-159.42613326000921
 20
-600.55508651723915
 30
0.0
  0
VERTEX
  5
3F62
  8
0
 10
-158.0317543110161
 20
-603.49510951598063
 30
0.0
  0
VERTEX
  5
3F63
  8
0
 10
-156.9544914707769
 20
-606.72221437935218
 30
0.0
  0
VERTEX
  5
3F64
  8
0
 10
-156.29432528133131
 20
-610.22209657318922
 30
0.0
  0
VERTEX
  5
3F65
  8
0
 10
-156.15559449837221
 20
-613.96684562971382
 30
0.0
  0
VERTEX
  5
3F66
  8
0
 10
-156.64263787759069
 20
-617.92855108114895
 30
0.0
  0
VERTEX
  5
3F67
  8
0
 10
-157.85979417467951
 20
-622.07930245971568
 30
0.0
  0
VERTEX
  5
3F68
  8
0
 10
-159.91140214533351
 20
-626.39118929763686
 30
0.0
  0
VERTEX
  5
3F69
  8
0
 10
-162.90180054524191
 20
-630.83630112713456
 30
0.0
  0
VERTEX
  5
3F6A
  8
0
 10
-166.93532813009941
 20
-635.38672748043075
 30
0.0
  0
SEQEND
  5
3F6B
  8
0
  0
CIRCLE
  5
1ED5
  8
0
 10
-123.271279908846
 20
-268.81221007299268
 30
0.0
 40
5.0
  0
CIRCLE
  5
1ED6
  8
0
 10
123.2712799088456
 20
-268.81221007299268
 30
0.0
 40
5.0
  0
CIRCLE
  5
1ED7
  8
0
 10
-123.271279908846
 20
-421.21221007299272
 30
0.0
 40
5.0
  0
CIRCLE
  5
1ED8
  8
0
 10
123.2712799088456
 20
-421.21221007299272
 30
0.0
 40
5.0
  0
CIRCLE
  5
1ED9
  8
0
 10
-123.271279908846
 20
-573.6122100729923
 30
0.0
 40
5.0
  0
CIRCLE
  5
1EDA
  8
0
 10
123.2712799088456
 20
-573.6122100729923
 30
0.0
 40
5.0
  0
CIRCLE
  5
1EDB
  8
0
 10
-117.46946808979671
 20
-128.74553777494401
 30
0.0
 40
3.0
  0
CIRCLE
  5
1EDC
  8
0
 10
-90.370738770586058
 20
-105.0461945502018
 30
0.0
 40
3.0
  0
CIRCLE
  5
1EDD
  8
0
 10
-63.27200945137519
 20
-81.346851325457919
 30
0.0
 40
3.0
  0
CIRCLE
  5
1EDE
  8
0
 10
-36.173280132166838
 20
-57.647508100714958
 30
0.0
 40
3.0
  0
LINE
  5
1EE0
  8
0
 10
-270.55050052242473
 20
-143.2712799088456
 30
0.0
 11
-625.00000000000023
 21
-497.72077938642099
 31
0.0
  0
LINE
  5
1EE1
  8
0
 10
-143.27127990884631
 20
-270.5505005224245
 30
0.0
 11
-508.10750686685191
 21
-635.38672748043018
 31
0.0
  0
LINE
  5
1EE2
  8
0
 10
270.5505005224241
 20
-143.2712799088456
 30
0.0
 11
624.99999999999977
 21
-497.72077938642133
 31
0.0
  0
LINE
  5
1EE3
  8
0
 10
143.2712799088458
 20
-270.55050052242427
 30
0.0
 11
508.10750686685168
 21
-635.38672748043018
 31
0.0
  0
LINE
  5
1F0C
  8
0
 10
-23.702230768816889
 20
-24.559372719591241
 30
0.0
 11
-143.27127990884631
 21
-129.12914428511451
 31
0.0
  0
LINE
  5
1F0E
  8
0
 10
23.695235021147941
 20
-23.720560233601649
 30
0.0
 11
143.2712799088456
 21
-129.12914428511471
 31
0.0
  0
LINE
  5
1F5E
  8
0
 10
624.99999999999977
 20
-0.0000000000002274
 30
0.0
 11
-625.00000000000023
 21
0.0000000000002274
 31
0.0
  0
LINE
  5
1F5F
  8
0
 10
624.99999999999977
 20
23.720560233597318
 30
0.0
 11
-625.00000000000023
 21
23.720560233598238
 31
0.0
  0
LINE
  5
1F60
  8
0
 10
624.99999999999977
 20
-23.720560233602331
 30
0.0
 11
-625.00000000000023
 21
-23.720560233601191
 31
0.0
  0
LINE
  5
1F61
  8
0
 10
624.99999999999977
 20
166.95241057626009
 30
0.0
 11
-625.00000000000023
 21
166.9524105762614
 31
0.0
  0
LINE
  5
1F62
  8
0
 10
-143.271279908846
 20
-143.2712799088458
 30
0.0
 11
-625.00000000000023
 21
-143.2712799088454
 31
0.0
  0
CIRCLE
  5
206F
  8
0
 10
117.46946808979619
 20
-128.74553777494401
 30
0.0
 40
3.0
  0
CIRCLE
  5
2071
  8
0
 10
63.272009451374743
 20
-81.346851325457919
 30
0.0
 40
3.0
  0
CIRCLE
  5
2072
  8
0
 10
36.173280132166383
 20
-57.647508100714958
 30
0.0
 40
3.0
  0
LINE
  5
2073
  8
0
 10
143.2712799088456
 20
-143.2712799088458
 30
0.0
 11
624.99999999999977
 21
-143.2712799088454
 31
0.0
  0
POLYLINE
  5
2074
  8
0
 66
     1
 10
0.0
 20
0.0
 30
0.0
  0
VERTEX
  5
3F6C
  8
0
 10
-143.271279908846
 20
-143.2712799088456
 30
0.0
  0
VERTEX
  5
3F6D
  8
0
 10
143.2712799088456
 20
-143.2712799088458
 30
0.0
  0
SEQEND
  5
3F6E
  8
0
  0
LINE
  5
2075
  8
0
 10
306.91221007299168
 20
-155.5296911502044
 30
0.0
 11
306.91221007299151
 21
-179.63298945941281
 31
0.0
  0
LINE
  5
2076
  8
0
 10
345.0122100729921
 20
-173.8781543294842
 30
0.0
 11
345.0122100729921
 21
-217.7329894594136
 31
0.0
  0
LINE
  5
2077
  8
0
 10
383.1122100729915
 20
-155.5296911502025
 30
0.0
 11
383.1122100729915
 21
-255.83298945941331
 31
0.0
  0
LINE
  5
2078
  8
0
 10
421.21221007299181
 20
-173.8781543294842
 30
0.0
 11
421.21221007299221
 21
-293.93298945941359
 31
0.0
  0
LINE
  5
2079
  8
0
 10
459.31221007299172
 20
-155.5296911502025
 30
0.0
 11
459.31221007299132
 21
-332.03298945941287
 31
0.0
  0
LINE
  5
207A
  8
0
 10
535.51221007299205
 20
-155.5296911502044
 30
0.0
 11
535.51221007299205
 21
-408.23298945941332
 31
0.0
  0
LINE
  5
207B
  8
0
 10
497.41221007299208
 20
-173.8781543294842
 30
0.0
 11
497.41221007299208
 21
-370.13298945941392
 31
0.0
  0
LINE
  5
207C
  8
0
 10
611.71221007299175
 20
-156.23912141869161
 30
0.0
 11
611.71221007299175
 21
-175.58808430595531
 31
0.0
  0
LINE
  5
207D
  8
0
 10
573.61221007299196
 20
-173.8781543294842
 30
0.0
 11
573.61221007299196
 21
-446.33298945941368
 31
0.0
  0
POLYLINE
  5
21FC
  8
0
 66
     1
 10
0.0
 20
0.0
 30
0.0
  0
VERTEX
  5
21FE
  8
0
 10
162.83032587384241
 20
-290.10954648742091
 30
0.0
  0
VERTEX
  5
21FF
  8
0
 10
161.0550806303288
 20
-292.25874545123111
 30
0.0
  0
VERTEX
  5
2200
  8
0
 10
159.42613326000881
 20
-294.47950646660018
 30
0.0
  0
VERTEX
  5
2201
  8
0
 10
158.03175431101559
 20
-296.79103667071308
 30
0.0
  0
VERTEX
  5
2202
  8
0
 10
156.93710167816039
 20
-299.21442167340803
 30
0.0
  0
VERTEX
  5
2203
  8
0
 10
156.1552069404058
 20
-301.72944240285261
 30
0.0
  0
VERTEX
  5
2204
  8
0
 10
155.6860700977538
 20
-304.30555361679791
 30
0.0
  0
VERTEX
  5
2205
  8
0
 10
155.5296911502044
 20
-306.91221007299208
 30
0.0
  0
VERTEX
  5
2206
  8
0
 10
155.6860700977538
 20
-309.51886652918688
 30
0.0
  0
VERTEX
  5
2207
  8
0
 10
156.1552069404058
 20
-312.09497774313132
 30
0.0
  0
VERTEX
  5
2208
  8
0
 10
156.93710167816039
 20
-314.60999847257631
 30
0.0
  0
VERTEX
  5
2209
  8
0
 10
158.03175431101559
 20
-317.03338347527028
 30
0.0
  0
VERTEX
  5
220A
  8
0
 10
159.42613326000881
 20
-319.34491367938313
 30
0.0
  0
VERTEX
  5
220B
  8
0
 10
161.0550806303288
 20
-321.56567469475232
 30
0.0
  0
VERTEX
  5
220C
  8
0
 10
162.84040694819831
 20
-323.72707830163313
 30
0.0
  0
VERTEX
  5
220D
  8
0
 10
164.70392273984339
 20
-325.86053628028299
 30
0.0
  0
VERTEX
  5
220E
  8
0
 10
166.5674385314903
 20
-327.99746041095642
 30
0.0
  0
VERTEX
  5
220F
  8
0
 10
168.3527648493598
 20
-330.16926247391001
 30
0.0
  0
VERTEX
  5
2210
  8
0
 10
169.98171221967979
 20
-332.40735424939999
 30
0.0
  0
VERTEX
  5
2211
  8
0
 10
171.37609116867469
 20
-334.74314751768247
 30
0.0
  0
VERTEX
  5
2212
  8
0
 10
172.47074380152819
 20
-337.19743904259229
 30
0.0
  0
VERTEX
  5
2213
  8
0
 10
173.25263853928271
 20
-339.7485655222892
 30
0.0
  0
VERTEX
  5
2214
  8
0
 10
173.7217753819348
 20
-342.36424863850948
 30
0.0
  0
VERTEX
  5
2215
  8
0
 10
173.8781543294842
 20
-345.0122100729921
 30
0.0
  0
VERTEX
  5
2216
  8
0
 10
173.7217753819348
 20
-347.66017150747462
 30
0.0
  0
VERTEX
  5
2217
  8
0
 10
173.25263853928271
 20
-350.2758546236949
 30
0.0
  0
VERTEX
  5
2218
  8
0
 10
172.47074380152819
 20
-352.82698110339078
 30
0.0
  0
VERTEX
  5
2219
  8
0
 10
171.37609116867469
 20
-355.28127262830162
 30
0.0
  0
VERTEX
  5
221A
  8
0
 10
169.98171221967979
 20
-357.6170658965832
 30
0.0
  0
VERTEX
  5
221B
  8
0
 10
168.3527648493598
 20
-359.85515767207357
 30
0.0
  0
VERTEX
  5
221C
  8
0
 10
166.5674385314903
 20
-362.02695973502728
 30
0.0
  0
VERTEX
  5
221D
  8
0
 10
164.70392273984339
 20
-364.1638838657006
 30
0.0
  0
VERTEX
  5
221E
  8
0
 10
162.84040694819831
 20
-366.29734184435011
 30
0.0
  0
VERTEX
  5
221F
  8
0
 10
161.0550806303288
 20
-368.45874545123138
 30
0.0
  0
VERTEX
  5
2220
  8
0
 10
159.42613326000881
 20
-370.67950646660051
 30
0.0
  0
VERTEX
  5
2221
  8
0
 10
158.03175431101559
 20
-372.99103667071239
 30
0.0
  0
VERTEX
  5
2222
  8
0
 10
156.93710167816039
 20
-375.41442167340779
 30
0.0
  0
VERTEX
  5
2223
  8
0
 10
156.1552069404058
 20
-377.92944240285237
 30
0.0
  0
VERTEX
  5
2224
  8
0
 10
155.6860700977538
 20
-380.50555361679682
 30
0.0
  0
VERTEX
  5
2225
  8
0
 10
155.5296911502044
 20
-383.11221007299099
 30
0.0
  0
VERTEX
  5
2226
  8
0
 10
155.6860700977538
 20
-385.71886652918579
 30
0.0
  0
VERTEX
  5
2227
  8
0
 10
156.1552069404058
 20
-388.29497774313018
 30
0.0
  0
VERTEX
  5
2228
  8
0
 10
156.93710167816039
 20
-390.80999847257522
 30
0.0
  0
VERTEX
  5
2229
  8
0
 10
158.03175431101559
 20
-393.2333834752705
 30
0.0
  0
VERTEX
  5
222A
  8
0
 10
159.42613326000881
 20
-395.5449136793834
 30
0.0
  0
VERTEX
  5
222B
  8
0
 10
161.0550806303288
 20
-397.76567469475248
 30
0.0
  0
VERTEX
  5
222C
  8
0
 10
162.84040694819831
 20
-399.9270783016334
 30
0.0
  0
VERTEX
  5
222D
  8
0
 10
164.70392273984339
 20
-402.0605362802828
 30
0.0
  0
VERTEX
  5
222E
  8
0
 10
166.5674385314903
 20
-404.19746041095658
 30
0.0
  0
VERTEX
  5
222F
  8
0
 10
168.3527648493598
 20
-406.36926247391079
 30
0.0
  0
VERTEX
  5
2230
  8
0
 10
169.98171221967979
 20
-408.6073542494002
 30
0.0
  0
VERTEX
  5
2231
  8
0
 10
171.37609116867469
 20
-410.94314751768178
 30
0.0
  0
VERTEX
  5
2232
  8
0
 10
172.47074380152819
 20
-413.39743904259262
 30
0.0
  0
VERTEX
  5
2233
  8
0
 10
173.25263853928271
 20
-415.94856552228907
 30
0.0
  0
VERTEX
  5
2234
  8
0
 10
173.7217753819348
 20
-418.56424863850879
 30
0.0
  0
VERTEX
  5
2235
  8
0
 10
173.8781543294842
 20
-421.21221007299141
 30
0.0
  0
VERTEX
  5
2236
  8
0
 10
173.7217753819348
 20
-423.86017150747392
 30
0.0
  0
VERTEX
  5
2237
  8
0
 10
173.25263853928271
 20
-426.4758546236942
 30
0.0
  0
VERTEX
  5
2238
  8
0
 10
172.47074380152819
 20
-429.02698110339111
 30
0.0
  0
VERTEX
  5
2239
  8
0
 10
171.37609116867469
 20
-431.48127262830093
 30
0.0
  0
VERTEX
  5
223A
  8
0
 10
169.98171221967979
 20
-433.81706589658302
 30
0.0
  0
VERTEX
  5
223B
  8
0
 10
168.3527648493598
 20
-436.05515767207288
 30
0.0
  0
VERTEX
  5
223C
  8
0
 10
166.5674385314903
 20
-438.22695973502658
 30
0.0
  0
VERTEX
  5
223D
  8
0
 10
164.70392273984339
 20
-440.36388386570002
 30
0.0
  0
VERTEX
  5
223E
  8
0
 10
162.84040694819831
 20
-442.49734184434988
 30
0.0
  0
VERTEX
  5
223F
  8
0
 10
161.0550806303288
 20
-444.65874545123069
 30
0.0
  0
VERTEX
  5
2240
  8
0
 10
159.42613326000881
 20
-446.87950646659982
 30
0.0
  0
VERTEX
  5
2241
  8
0
 10
158.03175431101559
 20
-449.19103667071272
 30
0.0
  0
VERTEX
  5
2242
  8
0
 10
156.93710167816039
 20
-451.61442167340749
 30
0.0
  0
VERTEX
  5
2243
  8
0
 10
156.1552069404058
 20
-454.12944240285219
 30
0.0
  0
VERTEX
  5
2244
  8
0
 10
155.6860700977538
 20
-456.70555361679737
 30
0.0
  0
VERTEX
  5
2245
  8
0
 10
155.5296911502044
 20
-459.31221007299172
 30
0.0
  0
VERTEX
  5
2246
  8
0
 10
155.6860700977538
 20
-461.91886652918652
 30
0.0
  0
VERTEX
  5
2247
  8
0
 10
156.1552069404058
 20
-464.4949777431309
 30
0.0
  0
VERTEX
  5
2248
  8
0
 10
156.93710167816039
 20
-467.00999847257589
 30
0.0
  0
VERTEX
  5
2249
  8
0
 10
158.03175431101559
 20
-469.43338347527077
 30
0.0
  0
VERTEX
  5
224A
  8
0
 10
159.42613326000881
 20
-471.74491367938322
 30
0.0
  0
VERTEX
  5
224B
  8
0
 10
161.0550806303288
 20
-473.96567469475229
 30
0.0
  0
VERTEX
  5
224C
  8
0
 10
162.84040694819831
 20
-476.12707830163362
 30
0.0
  0
VERTEX
  5
224D
  8
0
 10
164.70392273984339
 20
-478.26053628028302
 30
0.0
  0
VERTEX
  5
224E
  8
0
 10
166.5674385314903
 20
-480.3974604109564
 30
0.0
  0
VERTEX
  5
224F
  8
0
 10
168.3527648493598
 20
-482.5692624739101
 30
0.0
  0
VERTEX
  5
2250
  8
0
 10
169.98171221967979
 20
-484.80735424940048
 30
0.0
  0
VERTEX
  5
2251
  8
0
 10
171.37609116867469
 20
-487.14314751768262
 30
0.0
  0
VERTEX
  5
2252
  8
0
 10
172.47074380152819
 20
-489.59743904259278
 30
0.0
  0
VERTEX
  5
2253
  8
0
 10
173.25263853928271
 20
-492.14856552228969
 30
0.0
  0
VERTEX
  5
2254
  8
0
 10
173.7217753819348
 20
-494.76424863850951
 30
0.0
  0
VERTEX
  5
2255
  8
0
 10
173.8781543294842
 20
-497.41221007299208
 30
0.0
  0
VERTEX
  5
2256
  8
0
 10
173.7217753819348
 20
-500.06017150747471
 30
0.0
  0
VERTEX
  5
2257
  8
0
 10
173.25263853928271
 20
-502.67585462369487
 30
0.0
  0
VERTEX
  5
2258
  8
0
 10
172.47074380152819
 20
-505.22698110339132
 30
0.0
  0
VERTEX
  5
2259
  8
0
 10
171.37609116867469
 20
-507.68127262830171
 30
0.0
  0
VERTEX
  5
225A
  8
0
 10
169.98171221967979
 20
-510.01706589658369
 30
0.0
  0
VERTEX
  5
225B
  8
0
 10
168.3527648493598
 20
-512.25515767207355
 30
0.0
  0
VERTEX
  5
225C
  8
0
 10
166.5674385314903
 20
-514.42695973502725
 30
0.0
  0
VERTEX
  5
225D
  8
0
 10
164.70392273984339
 20
-516.56388386570075
 30
0.0
  0
VERTEX
  5
225E
  8
0
 10
162.84040694819831
 20
-518.69734184434958
 30
0.0
  0
VERTEX
  5
225F
  8
0
 10
161.0550806303288
 20
-520.85874545123102
 30
0.0
  0
VERTEX
  5
2260
  8
0
 10
159.42613326000881
 20
-523.07950646660015
 30
0.0
  0
VERTEX
  5
2261
  8
0
 10
158.03175431101559
 20
-525.39103667071254
 30
0.0
  0
VERTEX
  5
2262
  8
0
 10
156.93710167816039
 20
-527.81442167340776
 30
0.0
  0
VERTEX
  5
2263
  8
0
 10
156.1552069404058
 20
-530.32944240285235
 30
0.0
  0
VERTEX
  5
2264
  8
0
 10
155.6860700977538
 20
-532.90555361679731
 30
0.0
  0
VERTEX
  5
2265
  8
0
 10
155.5296911502044
 20
-535.51221007299205
 30
0.0
  0
VERTEX
  5
2266
  8
0
 10
155.6860700977538
 20
-538.11886652918668
 30
0.0
  0
VERTEX
  5
2267
  8
0
 10
156.1552069404058
 20
-540.69497774313118
 30
0.0
  0
VERTEX
  5
2268
  8
0
 10
156.93710167816039
 20
-543.20999847257622
 30
0.0
  0
VERTEX
  5
2269
  8
0
 10
158.03175431101559
 20
-545.63338347527144
 30
0.0
  0
VERTEX
  5
226A
  8
0
 10
159.42613326000881
 20
-547.94491367938394
 30
0.0
  0
VERTEX
  5
226B
  8
0
 10
161.0550806303288
 20
-550.16567469475308
 30
0.0
  0
VERTEX
  5
226C
  8
0
 10
162.84040694819831
 20
-552.3270783016344
 30
0.0
  0
VERTEX
  5
226D
  8
0
 10
164.70392273984339
 20
-554.4605362802838
 30
0.0
  0
VERTEX
  5
226E
  8
0
 10
166.5674385314903
 20
-556.59746041095707
 30
0.0
  0
VERTEX
  5
226F
  8
0
 10
168.3527648493598
 20
-558.76926247391077
 30
0.0
  0
VERTEX
  5
2270
  8
0
 10
169.98171221967979
 20
-561.00735424940035
 30
0.0
  0
VERTEX
  5
2271
  8
0
 10
171.37609116867469
 20
-563.34314751768227
 30
0.0
  0
VERTEX
  5
2272
  8
0
 10
172.47074380152819
 20
-565.79743904259215
 30
0.0
  0
VERTEX
  5
2273
  8
0
 10
173.25263853928271
 20
-568.34856552228916
 30
0.0
  0
VERTEX
  5
2274
  8
0
 10
173.7217753819348
 20
-570.96424863850928
 30
0.0
  0
VERTEX
  5
2275
  8
0
 10
173.8781543294842
 20
-573.61221007299196
 30
0.0
  0
VERTEX
  5
2276
  8
0
 10
173.7217753819348
 20
-576.26017150747452
 30
0.0
  0
VERTEX
  5
2277
  8
0
 10
173.25263853928271
 20
-578.8758546236952
 30
0.0
  0
VERTEX
  5
2278
  8
0
 10
172.47074380152819
 20
-581.4269811033912
 30
0.0
  0
VERTEX
  5
2279
  8
0
 10
171.37609116867469
 20
-583.88127262830153
 30
0.0
  0
VERTEX
  5
227A
  8
0
 10
169.98171221967979
 20
-586.22078478885908
 30
0.0
  0
VERTEX
  5
227B
  8
0
 10
168.3527648493598
 20
-588.48490881028033
 30
0.0
  0
VERTEX
  5
227C
  8
0
 10
166.5674385314903
 20
-590.72736982647643
 30
0.0
  0
VERTEX
  5
227D
  8
0
 10
164.70392273984339
 20
-593.00189297135898
 30
0.0
  0
VERTEX
  5
227E
  8
0
 10
162.84040694819831
 20
-595.36220337883901
 30
0.0
  0
VERTEX
  5
227F
  8
0
 10
161.0550806303288
 20
-597.86202618282834
 30
0.0
  0
VERTEX
  5
2280
  8
0
 10
159.42613326000881
 20
-600.55508651723915
 30
0.0
  0
VERTEX
  5
2281
  8
0
 10
158.03175431101559
 20
-603.49510951598063
 30
0.0
  0
VERTEX
  5
2282
  8
0
 10
156.9544914707746
 20
-606.72221437935218
 30
0.0
  0
VERTEX
  5
2283
  8
0
 10
156.29432528132901
 20
-610.22209657318922
 30
0.0
  0
VERTEX
  5
2284
  8
0
 10
156.15559449836991
 20
-613.96684562971382
 30
0.0
  0
VERTEX
  5
2285
  8
0
 10
156.64263787758841
 20
-617.92855108114895
 30
0.0
  0
VERTEX
  5
2286
  8
0
 10
157.85979417467911
 20
-622.07930245971568
 30
0.0
  0
VERTEX
  5
2287
  8
0
 10
159.91140214533129
 20
-626.39118929763686
 30
0.0
  0
VERTEX
  5
2288
  8
0
 10
162.9018005452414
 20
-630.83630112713456
 30
0.0
  0
VERTEX
  5
2289
  8
0
 10
166.9353281300971
 20
-635.38672748043075
 30
0.0
  0
SEQEND
  5
21FD
  8
0
  0
LINE
  5
228B
  8
0
 10
-306.91221007299208
 20
-155.5296911502044
 30
0.0
 11
-306.91221007299191
 21
-179.63298945941281
 31
0.0
  0
LINE
  5
228C
  8
0
 10
-345.0122100729925
 20
-173.8781543294842
 30
0.0
 11
-345.0122100729925
 21
-217.7329894594136
 31
0.0
  0
LINE
  5
228D
  8
0
 10
-383.11221007299201
 20
-155.5296911502025
 30
0.0
 11
-383.11221007299201
 21
-255.83298945941331
 31
0.0
  0
LINE
  5
228E
  8
0
 10
-421.21221007299221
 20
-173.8781543294842
 30
0.0
 11
-421.21221007299272
 21
-293.93298945941359
 31
0.0
  0
LINE
  5
228F
  8
0
 10
-459.31221007299217
 20
-155.5296911502025
 30
0.0
 11
-459.31221007299172
 21
-332.03298945941287
 31
0.0
  0
LINE
  5
2290
  8
0
 10
-535.5122100729925
 20
-155.5296911502044
 30
0.0
 11
-535.5122100729925
 21
-408.23298945941332
 31
0.0
  0
LINE
  5
2291
  8
0
 10
-497.41221007299259
 20
-173.8781543294842
 30
0.0
 11
-497.41221007299259
 21
-370.13298945941392
 31
0.0
  0
LINE
  5
2292
  8
0
 10
-573.6122100729923
 20
-173.8781543294842
 30
0.0
 11
-573.6122100729923
 21
-446.33298945941368
 31
0.0
  0
LINE
  5
2321
  8
0
 10
-611.71221007299232
 20
-156.23912141869161
 30
0.0
 11
-611.71221007299232
 21
-185.58808430596761
 31
0.0
  0
LINE
  5
2322
  8
0
 10
258.42548259256199
 20
197.55802942045619
 30
0.0
 11
258.42548259256182
 21
395.73532599636923
 31
0.0
  0
LINE
  5
2323
  8
0
 10
296.52548259256201
 20
179.21082181761881
 30
0.0
 11
296.52548259256201
 21
395.73532599636923
 31
0.0
  0
LINE
  5
2324
  8
0
 10
334.62548259256232
 20
197.55928499689861
 30
0.0
 11
334.62548259256232
 21
395.73532599636923
 31
0.0
  0
LINE
  5
2325
  8
0
 10
372.72548259256178
 20
179.21082181761699
 30
0.0
 11
372.72548259256178
 21
395.73532599636923
 31
0.0
  0
LINE
  5
2326
  8
0
 10
410.82548259256208
 20
197.55928499689861
 30
0.0
 11
410.82548259256208
 21
395.73532599636923
 31
0.0
  0
LINE
  5
2327
  8
0
 10
448.92548259256199
 20
179.21082181761699
 30
0.0
 11
448.92548259256199
 21
395.73532599636923
 31
0.0
  0
LINE
  5
2328
  8
0
 10
525.12548259256232
 20
179.21082181761881
 30
0.0
 11
525.12548259256232
 21
395.73532599636923
 31
0.0
  0
LINE
  5
2329
  8
0
 10
487.0254825925623
 20
197.55928499689861
 30
0.0
 11
487.0254825925623
 21
395.73532599636923
 31
0.0
  0
LINE
  5
232A
  8
0
 10
601.32548259256214
 20
179.92025208610599
 30
0.0
 11
601.32548259256214
 21
395.73532599636923
 31
0.0
  0
LINE
  5
232B
  8
0
 10
563.22548259256223
 20
197.55928499689861
 30
0.0
 11
563.22548259256223
 21
395.73532599636923
 31
0.0
  0
LINE
  5
232C
  8
0
 10
182.2254825925622
 20
197.55802942045619
 30
0.0
 11
182.225482592562
 21
395.73532599636923
 31
0.0
  0
LINE
  5
232D
  8
0
 10
106.0254825925624
 20
197.55802942045619
 30
0.0
 11
106.0254825925622
 21
395.73532599636923
 31
0.0
  0
LINE
  5
2331
  8
0
 10
220.32548259256211
 20
179.21082181761881
 30
0.0
 11
220.32548259256191
 21
395.73532599636923
 31
0.0
  0
LINE
  5
2332
  8
0
 10
144.12548259256229
 20
179.21082181761881
 30
0.0
 11
144.12548259256209
 21
395.73532599636923
 31
0.0
  0
POLYLINE
  5
2336
  8
0
 66
     1
 10
0.0
 20
0.0
 30
0.0
  0
VERTEX
  5
2337
  8
0
 10
47.931171579118427
 20
190.18039322974141
 30
0.0
  0
VERTEX
  5
2338
  8
0
 10
49.989917207477667
 20
188.3850534072578
 30
0.0
  0
VERTEX
  5
2339
  8
0
 10
52.123375186126623
 20
186.52153761561269
 30
0.0
  0
VERTEX
  5
233A
  8
0
 10
54.28477879300749
 20
184.73621129774321
 30
0.0
  0
VERTEX
  5
233B
  8
0
 10
56.505539808376632
 20
183.10726392742319
 30
0.0
  0
VERTEX
  5
233C
  8
0
 10
58.817070012489921
 20
181.71288497843011
 30
0.0
  0
VERTEX
  5
233D
  8
0
 10
61.240455015185262
 20
180.6182323455748
 30
0.0
  0
VERTEX
  5
233E
  8
0
 10
63.755475744629841
 20
179.83633760782021
 30
0.0
  0
VERTEX
  5
233F
  8
0
 10
66.331586958574235
 20
179.36720076516821
 30
0.0
  0
VERTEX
  5
2340
  8
0
 10
68.938243414768522
 20
179.21082181761881
 30
0.0
  0
VERTEX
  5
2341
  8
0
 10
71.544899870963263
 20
179.36720076516821
 30
0.0
  0
VERTEX
  5
2342
  8
0
 10
74.121011084908105
 20
179.83633760782021
 30
0.0
  0
VERTEX
  5
2343
  8
0
 10
76.636031814352691
 20
180.6182323455748
 30
0.0
  0
VERTEX
  5
2344
  8
0
 10
79.059416817048032
 20
181.71288497843011
 30
0.0
  0
VERTEX
  5
2345
  8
0
 10
81.370947021160873
 20
183.10726392742319
 30
0.0
  0
VERTEX
  5
2346
  8
0
 10
83.591708036529994
 20
184.73621129774321
 30
0.0
  0
VERTEX
  5
2347
  8
0
 10
85.75311164341133
 20
186.52153761561269
 30
0.0
  0
VERTEX
  5
2348
  8
0
 10
87.886569622060279
 20
188.3850534072578
 30
0.0
  0
VERTEX
  5
2349
  8
0
 10
90.023493752734112
 20
190.2485691989047
 30
0.0
  0
VERTEX
  5
234A
  8
0
 10
92.195295815688254
 20
192.03389551677421
 30
0.0
  0
VERTEX
  5
234B
  8
0
 10
94.433387591177734
 20
193.6628428870942
 30
0.0
  0
VERTEX
  5
234C
  8
0
 10
96.769180859459311
 20
195.05722183608921
 30
0.0
  0
VERTEX
  5
234D
  8
0
 10
99.223472384370098
 20
196.15187446894259
 30
0.0
  0
VERTEX
  5
234E
  8
0
 10
101.7745988640665
 20
196.93376920669721
 30
0.0
  0
VERTEX
  5
234F
  8
0
 10
104.3902819802863
 20
197.40290604934921
 30
0.0
  0
VERTEX
  5
2350
  8
0
 10
107.0382434147689
 20
197.55928499689861
 30
0.0
  0
VERTEX
  5
2351
  8
0
 10
109.6862048492514
 20
197.40290604934921
 30
0.0
  0
VERTEX
  5
2352
  8
0
 10
112.30188796547171
 20
196.93376920669721
 30
0.0
  0
VERTEX
  5
2353
  8
0
 10
114.8530144451685
 20
196.15187446894259
 30
0.0
  0
VERTEX
  5
2354
  8
0
 10
117.3073059700784
 20
195.05722183608921
 30
0.0
  0
VERTEX
  5
2355
  8
0
 10
119.64309923836051
 20
193.6628428870942
 30
0.0
  0
VERTEX
  5
2356
  8
0
 10
121.8811910138504
 20
192.03389551677421
 30
0.0
  0
VERTEX
  5
2357
  8
0
 10
124.0529930768041
 20
190.2485691989047
 30
0.0
  0
VERTEX
  5
2358
  8
0
 10
126.18991720747751
 20
188.3850534072578
 30
0.0
  0
VERTEX
  5
2359
  8
0
 10
128.32337518612729
 20
186.52153761561269
 30
0.0
  0
VERTEX
  5
235A
  8
0
 10
130.48477879300819
 20
184.73621129774321
 30
0.0
  0
VERTEX
  5
235B
  8
0
 10
132.7055398083773
 20
183.10726392742319
 30
0.0
  0
VERTEX
  5
235C
  8
0
 10
135.01707001249019
 20
181.71288497843011
 30
0.0
  0
VERTEX
  5
235D
  8
0
 10
137.44045501518511
 20
180.6182323455748
 30
0.0
  0
VERTEX
  5
235E
  8
0
 10
139.95547574462961
 20
179.83633760782021
 30
0.0
  0
VERTEX
  5
235F
  8
0
 10
142.53158695857491
 20
179.36720076516821
 30
0.0
  0
VERTEX
  5
2360
  8
0
 10
145.13824341476919
 20
179.21082181761881
 30
0.0
  0
VERTEX
  5
2361
  8
0
 10
147.74489987096399
 20
179.36720076516821
 30
0.0
  0
VERTEX
  5
2362
  8
0
 10
150.32101108490841
 20
179.83633760782021
 30
0.0
  0
VERTEX
  5
2363
  8
0
 10
152.83603181435291
 20
180.6182323455748
 30
0.0
  0
VERTEX
  5
2364
  8
0
 10
155.2594168170483
 20
181.71288497843011
 30
0.0
  0
VERTEX
  5
2365
  8
0
 10
157.57094702116069
 20
183.10726392742319
 30
0.0
  0
VERTEX
  5
2366
  8
0
 10
159.7917080365298
 20
184.73621129774321
 30
0.0
  0
VERTEX
  5
2367
  8
0
 10
161.95311164341109
 20
186.52153761561269
 30
0.0
  0
VERTEX
  5
2368
  8
0
 10
164.08656962206049
 20
188.3850534072578
 30
0.0
  0
VERTEX
  5
2369
  8
0
 10
166.2234937527339
 20
190.2485691989047
 30
0.0
  0
VERTEX
  5
236A
  8
0
 10
168.3952958156876
 20
192.03389551677421
 30
0.0
  0
VERTEX
  5
236B
  8
0
 10
170.63338759117801
 20
193.6628428870942
 30
0.0
  0
VERTEX
  5
236C
  8
0
 10
172.96918085945961
 20
195.05722183608921
 30
0.0
  0
VERTEX
  5
236D
  8
0
 10
175.4234723843694
 20
196.15187446894259
 30
0.0
  0
VERTEX
  5
236E
  8
0
 10
177.97459886406591
 20
196.93376920669721
 30
0.0
  0
VERTEX
  5
236F
  8
0
 10
180.59028198028659
 20
197.40290604934921
 30
0.0
  0
VERTEX
  5
2370
  8
0
 10
183.2382434147691
 20
197.55928499689861
 30
0.0
  0
VERTEX
  5
2371
  8
0
 10
185.88620484925119
 20
197.40290604934921
 30
0.0
  0
VERTEX
  5
2372
  8
0
 10
188.50188796547189
 20
196.93376920669721
 30
0.0
  0
VERTEX
  5
2373
  8
0
 10
191.05301444516789
 20
196.15187446894259
 30
0.0
  0
VERTEX
  5
2374
  8
0
 10
193.5073059700787
 20
195.05722183608921
 30
0.0
  0
VERTEX
  5
2375
  8
0
 10
195.84309923836031
 20
193.6628428870942
 30
0.0
  0
VERTEX
  5
2376
  8
0
 10
198.0811910138502
 20
192.03389551677421
 30
0.0
  0
VERTEX
  5
2377
  8
0
 10
200.25299307680439
 20
190.2485691989047
 30
0.0
  0
VERTEX
  5
2378
  8
0
 10
202.38991720747779
 20
188.3850534072578
 30
0.0
  0
VERTEX
  5
2379
  8
0
 10
204.52337518612671
 20
186.52153761561269
 30
0.0
  0
VERTEX
  5
237A
  8
0
 10
206.68477879300849
 20
184.73621129774321
 30
0.0
  0
VERTEX
  5
237B
  8
0
 10
208.9055398083776
 20
183.10726392742319
 30
0.0
  0
VERTEX
  5
237C
  8
0
 10
211.21707001249001
 20
181.71288497843011
 30
0.0
  0
VERTEX
  5
237D
  8
0
 10
213.64012534043809
 20
180.6182323455748
 30
0.0
  0
VERTEX
  5
237E
  8
0
 10
216.1528383466555
 20
179.83633760782021
 30
0.0
  0
VERTEX
  5
237F
  8
0
 10
218.7226857404109
 20
179.36720076516821
 30
0.0
  0
VERTEX
  5
2380
  8
0
 10
221.3171442309733
 20
179.21082181761881
 30
0.0
  0
VERTEX
  5
2381
  8
0
 10
223.9036905276127
 20
179.36720076516821
 30
0.0
  0
VERTEX
  5
2382
  8
0
 10
226.44980133959709
 20
179.83633760782021
 30
0.0
  0
VERTEX
  5
2383
  8
0
 10
228.922953376197
 20
180.6182323455748
 30
0.0
  0
VERTEX
  5
2384
  8
0
 10
231.29062334668041
 20
181.71288497843011
 30
0.0
  0
VERTEX
  5
2385
  8
0
 10
233.5316031549753
 20
183.10726392742319
 30
0.0
  0
VERTEX
  5
2386
  8
0
 10
235.66994548364141
 20
184.73621129774321
 30
0.0
  0
VERTEX
  5
2387
  8
0
 10
237.74101820989591
 20
186.52153761561269
 30
0.0
  0
VERTEX
  5
2388
  8
0
 10
239.78018921095759
 20
188.3850534072578
 30
0.0
  0
VERTEX
  5
2389
  8
0
 10
241.82282636404241
 20
190.2485691989047
 30
0.0
  0
VERTEX
  5
238A
  8
0
 10
243.90429754636921
 20
192.03389551677421
 30
0.0
  0
VERTEX
  5
238B
  8
0
 10
246.05997063515611
 20
193.6628428870942
 30
0.0
  0
VERTEX
  5
238C
  8
0
 10
248.32521350762019
 20
195.05722183608921
 30
0.0
  0
VERTEX
  5
238D
  8
0
 10
250.7237900003195
 20
196.15187446894259
 30
0.0
  0
VERTEX
  5
238E
  8
0
 10
253.23304778717079
 20
196.93376920669721
 30
0.0
  0
VERTEX
  5
238F
  8
0
 10
255.81873050143099
 20
197.40290604934921
 30
0.0
  0
VERTEX
  5
2390
  8
0
 10
258.44658177635779
 20
197.55928499689861
 30
0.0
  0
VERTEX
  5
2391
  8
0
 10
261.0823452452089
 20
197.40290604934921
 30
0.0
  0
VERTEX
  5
2392
  8
0
 10
263.69176454123931
 20
196.93376920669721
 30
0.0
  0
VERTEX
  5
2393
  8
0
 10
266.24058329770861
 20
196.15187446894259
 30
0.0
  0
VERTEX
  5
2394
  8
0
 10
268.69454514787162
 20
195.05722183608921
 30
0.0
  0
VERTEX
  5
2395
  8
0
 10
271.0303384161536
 20
193.6628428870942
 30
0.0
  0
VERTEX
  5
2396
  8
0
 10
273.26843019164357
 20
192.03389551677421
 30
0.0
  0
VERTEX
  5
2397
  8
0
 10
275.44023225459728
 20
190.2485691989047
 30
0.0
  0
VERTEX
  5
2398
  8
0
 10
277.5771563852706
 20
188.3850534072578
 30
0.0
  0
VERTEX
  5
2399
  8
0
 10
279.71061436392051
 20
186.52153761561269
 30
0.0
  0
VERTEX
  5
239A
  8
0
 10
281.87201797080138
 20
184.73621129774321
 30
0.0
  0
VERTEX
  5
239B
  8
0
 10
284.09277898617052
 20
183.10726392742319
 30
0.0
  0
VERTEX
  5
239C
  8
0
 10
286.4043091902833
 20
181.71288497843011
 30
0.0
  0
VERTEX
  5
239D
  8
0
 10
288.82769419297819
 20
180.6182323455748
 30
0.0
  0
VERTEX
  5
239E
  8
0
 10
291.34271492242277
 20
179.83633760782021
 30
0.0
  0
VERTEX
  5
239F
  8
0
 10
293.91882613636818
 20
179.36720076516821
 30
0.0
  0
VERTEX
  5
23A0
  8
0
 10
296.52548259256241
 20
179.21082181761881
 30
0.0
  0
VERTEX
  5
23A1
  8
0
 10
299.13213904875721
 20
179.36720076516821
 30
0.0
  0
VERTEX
  5
23A2
  8
0
 10
301.70825026270148
 20
179.83633760782021
 30
0.0
  0
VERTEX
  5
23A3
  8
0
 10
304.22327099214658
 20
180.6182323455748
 30
0.0
  0
VERTEX
  5
23A4
  8
0
 10
306.64665599484061
 20
181.71288497843011
 30
0.0
  0
VERTEX
  5
23A5
  8
0
 10
308.9581861989534
 20
183.10726392742319
 30
0.0
  0
VERTEX
  5
23A6
  8
0
 10
311.17894721432248
 20
184.73621129774321
 30
0.0
  0
VERTEX
  5
23A7
  8
0
 10
313.3403508212034
 20
186.52153761561269
 30
0.0
  0
VERTEX
  5
23A8
  8
0
 10
315.4738087998532
 20
188.3850534072578
 30
0.0
  0
VERTEX
  5
23A9
  8
0
 10
317.61073293052669
 20
190.2485691989047
 30
0.0
  0
VERTEX
  5
23AA
  8
0
 10
319.78253499348028
 20
192.03389551677421
 30
0.0
  0
VERTEX
  5
23AB
  8
0
 10
322.0206267689702
 20
193.6628428870942
 30
0.0
  0
VERTEX
  5
23AC
  8
0
 10
324.3564200372528
 20
195.05722183608921
 30
0.0
  0
VERTEX
  5
23AD
  8
0
 10
326.81071156216262
 20
196.15187446894259
 30
0.0
  0
VERTEX
  5
23AE
  8
0
 10
329.36183804185953
 20
196.93376920669721
 30
0.0
  0
VERTEX
  5
23AF
  8
0
 10
331.97752115807981
 20
197.40290604934921
 30
0.0
  0
VERTEX
  5
23B0
  8
0
 10
334.62548259256232
 20
197.55928499689861
 30
0.0
  0
VERTEX
  5
23B1
  8
0
 10
337.27344402704489
 20
197.40290604934921
 30
0.0
  0
VERTEX
  5
23B2
  8
0
 10
339.88912714326511
 20
196.93376920669721
 30
0.0
  0
VERTEX
  5
23B3
  8
0
 10
342.44025362296111
 20
196.15187446894259
 30
0.0
  0
VERTEX
  5
23B4
  8
0
 10
344.8945451478719
 20
195.05722183608921
 30
0.0
  0
VERTEX
  5
23B5
  8
0
 10
347.23033841615347
 20
193.6628428870942
 30
0.0
  0
VERTEX
  5
23B6
  8
0
 10
349.46843019164379
 20
192.03389551677421
 30
0.0
  0
VERTEX
  5
23B7
  8
0
 10
351.64023225459749
 20
190.2485691989047
 30
0.0
  0
VERTEX
  5
23B8
  8
0
 10
353.77715638527093
 20
188.3850534072578
 30
0.0
  0
VERTEX
  5
23B9
  8
0
 10
355.91061436392027
 20
186.52153761561269
 30
0.0
  0
VERTEX
  5
23BA
  8
0
 10
358.07201797080171
 20
184.73621129774321
 30
0.0
  0
VERTEX
  5
23BB
  8
0
 10
360.29277898617079
 20
183.10726392742319
 30
0.0
  0
VERTEX
  5
23BC
  8
0
 10
362.60430919028272
 20
181.71288497843011
 30
0.0
  0
VERTEX
  5
23BD
  8
0
 10
365.02769419297812
 20
180.6182323455748
 30
0.0
  0
VERTEX
  5
23BE
  8
0
 10
367.5427149224227
 20
179.83633760782021
 30
0.0
  0
VERTEX
  5
23BF
  8
0
 10
370.11882613636698
 20
179.36720076516821
 30
0.0
  0
VERTEX
  5
23C0
  8
0
 10
372.72548259256132
 20
179.21082181761881
 30
0.0
  0
VERTEX
  5
23C1
  8
0
 10
375.33213904875612
 20
179.36720076516821
 30
0.0
  0
VERTEX
  5
23C2
  8
0
 10
377.90825026270051
 20
179.83633760782021
 30
0.0
  0
VERTEX
  5
23C3
  8
0
 10
380.42327099214549
 20
180.6182323455748
 30
0.0
  0
VERTEX
  5
23C4
  8
0
 10
382.84665599484077
 20
181.71288497843011
 30
0.0
  0
VERTEX
  5
23C5
  8
0
 10
385.15818619895367
 20
183.10726392742319
 30
0.0
  0
VERTEX
  5
23C6
  8
0
 10
387.37894721432281
 20
184.73621129774321
 30
0.0
  0
VERTEX
  5
23C7
  8
0
 10
389.54035082120367
 20
186.52153761561269
 30
0.0
  0
VERTEX
  5
23C8
  8
0
 10
391.67380879985308
 20
188.3850534072578
 30
0.0
  0
VERTEX
  5
23C9
  8
0
 10
393.81073293052691
 20
190.2485691989047
 30
0.0
  0
VERTEX
  5
23CA
  8
0
 10
395.98253499348112
 20
192.03389551677421
 30
0.0
  0
VERTEX
  5
23CB
  8
0
 10
398.22062676897048
 20
193.6628428870942
 30
0.0
  0
VERTEX
  5
23CC
  8
0
 10
400.556420037252
 20
195.05722183608921
 30
0.0
  0
VERTEX
  5
23CD
  8
0
 10
403.01071156216278
 20
196.15187446894259
 30
0.0
  0
VERTEX
  5
23CE
  8
0
 10
405.56183804185929
 20
196.93376920669721
 30
0.0
  0
VERTEX
  5
23CF
  8
0
 10
408.17752115807912
 20
197.40290604934921
 30
0.0
  0
VERTEX
  5
23D0
  8
0
 10
410.82548259256168
 20
197.55928499689861
 30
0.0
  0
VERTEX
  5
23D1
  8
0
 10
413.4734440270442
 20
197.40290604934921
 30
0.0
  0
VERTEX
  5
23D2
  8
0
 10
416.08912714326442
 20
196.93376920669721
 30
0.0
  0
VERTEX
  5
23D3
  8
0
 10
418.64025362296132
 20
196.15187446894259
 30
0.0
  0
VERTEX
  5
23D4
  8
0
 10
421.0945451478712
 20
195.05722183608921
 30
0.0
  0
VERTEX
  5
23D5
  8
0
 10
423.43033841615329
 20
193.6628428870942
 30
0.0
  0
VERTEX
  5
23D6
  8
0
 10
425.66843019164321
 20
192.03389551677421
 30
0.0
  0
VERTEX
  5
23D7
  8
0
 10
427.84023225459691
 20
190.2485691989047
 30
0.0
  0
VERTEX
  5
23D8
  8
0
 10
429.97715638527018
 20
188.3850534072578
 30
0.0
  0
VERTEX
  5
23D9
  8
0
 10
432.11061436392009
 20
186.52153761561269
 30
0.0
  0
VERTEX
  5
23DA
  8
0
 10
434.27201797080102
 20
184.73621129774321
 30
0.0
  0
VERTEX
  5
23DB
  8
0
 10
436.49277898617021
 20
183.10726392742319
 30
0.0
  0
VERTEX
  5
23DC
  8
0
 10
438.80430919028288
 20
181.71288497843011
 30
0.0
  0
VERTEX
  5
23DD
  8
0
 10
441.22769419297782
 20
180.6182323455748
 30
0.0
  0
VERTEX
  5
23DE
  8
0
 10
443.74271492242241
 20
179.83633760782021
 30
0.0
  0
VERTEX
  5
23DF
  8
0
 10
446.3188261363677
 20
179.36720076516821
 30
0.0
  0
VERTEX
  5
23E0
  8
0
 10
448.92548259256199
 20
179.21082181761881
 30
0.0
  0
VERTEX
  5
23E1
  8
0
 10
451.53213904875668
 20
179.36720076516821
 30
0.0
  0
VERTEX
  5
23E2
  8
0
 10
454.10825026270118
 20
179.83633760782021
 30
0.0
  0
VERTEX
  5
23E3
  8
0
 10
456.62327099214622
 20
180.6182323455748
 30
0.0
  0
VERTEX
  5
23E4
  8
0
 10
459.0466559948411
 20
181.71288497843011
 30
0.0
  0
VERTEX
  5
23E5
  8
0
 10
461.35818619895338
 20
183.10726392742319
 30
0.0
  0
VERTEX
  5
23E6
  8
0
 10
463.57894721432262
 20
184.73621129774321
 30
0.0
  0
VERTEX
  5
23E7
  8
0
 10
465.74035082120389
 20
186.52153761561269
 30
0.0
  0
VERTEX
  5
23E8
  8
0
 10
467.87380879985329
 20
188.3850534072578
 30
0.0
  0
VERTEX
  5
23E9
  8
0
 10
470.01073293052667
 20
190.2485691989047
 30
0.0
  0
VERTEX
  5
23EA
  8
0
 10
472.18253499348037
 20
192.03389551677421
 30
0.0
  0
VERTEX
  5
23EB
  8
0
 10
474.42062676897069
 20
193.6628428870942
 30
0.0
  0
VERTEX
  5
23EC
  8
0
 10
476.75642003725278
 20
195.05722183608921
 30
0.0
  0
VERTEX
  5
23ED
  8
0
 10
479.21071156216311
 20
196.15187446894259
 30
0.0
  0
VERTEX
  5
23EE
  8
0
 10
481.76183804186007
 20
196.93376920669721
 30
0.0
  0
VERTEX
  5
23EF
  8
0
 10
484.37752115807979
 20
197.40290604934921
 30
0.0
  0
VERTEX
  5
23F0
  8
0
 10
487.0254825925623
 20
197.55928499689861
 30
0.0
  0
VERTEX
  5
23F1
  8
0
 10
489.67344402704492
 20
197.40290604934921
 30
0.0
  0
VERTEX
  5
23F2
  8
0
 10
492.2891271432652
 20
196.93376920669721
 30
0.0
  0
VERTEX
  5
23F3
  8
0
 10
494.8402536229616
 20
196.15187446894259
 30
0.0
  0
VERTEX
  5
23F4
  8
0
 10
497.29454514787199
 20
195.05722183608921
 30
0.0
  0
VERTEX
  5
23F5
  8
0
 10
499.63033841615402
 20
193.6628428870942
 30
0.0
  0
VERTEX
  5
23F6
  8
0
 10
501.86843019164388
 20
192.03389551677421
 30
0.0
  0
VERTEX
  5
23F7
  8
0
 10
504.04023225459758
 20
190.2485691989047
 30
0.0
  0
VERTEX
  5
23F8
  8
0
 10
506.17715638527102
 20
188.3850534072578
 30
0.0
  0
VERTEX
  5
23F9
  8
0
 10
508.31061436391991
 20
186.52153761561269
 30
0.0
  0
VERTEX
  5
23FA
  8
0
 10
510.47201797080129
 20
184.73621129774321
 30
0.0
  0
VERTEX
  5
23FB
  8
0
 10
512.69277898617042
 20
183.10726392742319
 30
0.0
  0
VERTEX
  5
23FC
  8
0
 10
515.00430919028281
 20
181.71288497843011
 30
0.0
  0
VERTEX
  5
23FD
  8
0
 10
517.42769419297815
 20
180.6182323455748
 30
0.0
  0
VERTEX
  5
23FE
  8
0
 10
519.94271492242274
 20
179.83633760782021
 30
0.0
  0
VERTEX
  5
23FF
  8
0
 10
522.51882613636747
 20
179.36720076516821
 30
0.0
  0
VERTEX
  5
2400
  8
0
 10
525.12548259256232
 20
179.21082181761881
 30
0.0
  0
VERTEX
  5
2401
  8
0
 10
527.73213904875695
 20
179.36720076516821
 30
0.0
  0
VERTEX
  5
2402
  8
0
 10
530.30825026270145
 20
179.83633760782021
 30
0.0
  0
VERTEX
  5
2403
  8
0
 10
532.82327099214638
 20
180.6182323455748
 30
0.0
  0
VERTEX
  5
2404
  8
0
 10
535.24665599484183
 20
181.71288497843011
 30
0.0
  0
VERTEX
  5
2405
  8
0
 10
537.55818619895422
 20
183.10726392742319
 30
0.0
  0
VERTEX
  5
2406
  8
0
 10
539.77894721432335
 20
184.73621129774321
 30
0.0
  0
VERTEX
  5
2407
  8
0
 10
541.94035082120456
 20
186.52153761561269
 30
0.0
  0
VERTEX
  5
2408
  8
0
 10
544.07380879985396
 20
188.3850534072578
 30
0.0
  0
VERTEX
  5
2409
  8
0
 10
546.21073293052746
 20
190.2485691989047
 30
0.0
  0
VERTEX
  5
240A
  8
0
 10
548.38253499348104
 20
192.03389551677421
 30
0.0
  0
VERTEX
  5
240B
  8
0
 10
550.62062676897062
 20
193.6628428870942
 30
0.0
  0
VERTEX
  5
240C
  8
0
 10
552.95642003725266
 20
195.05722183608921
 30
0.0
  0
VERTEX
  5
240D
  8
0
 10
555.41071156216253
 20
196.15187446894259
 30
0.0
  0
VERTEX
  5
240E
  8
0
 10
557.96183804185944
 20
196.93376920669721
 30
0.0
  0
VERTEX
  5
240F
  8
0
 10
560.57752115807955
 20
197.40290604934921
 30
0.0
  0
VERTEX
  5
2410
  8
0
 10
563.22548259256223
 20
197.55928499689861
 30
0.0
  0
VERTEX
  5
2411
  8
0
 10
565.8734440270448
 20
197.40290604934921
 30
0.0
  0
VERTEX
  5
2412
  8
0
 10
568.48912714326536
 20
196.93376920669721
 30
0.0
  0
VERTEX
  5
2413
  8
0
 10
571.04025362296136
 20
196.15187446894259
 30
0.0
  0
VERTEX
  5
2414
  8
0
 10
573.4945451478718
 20
195.05722183608921
 30
0.0
  0
VERTEX
  5
2415
  8
0
 10
575.83405730842946
 20
193.6628428870942
 30
0.0
  0
VERTEX
  5
2416
  8
0
 10
578.0981813298506
 20
192.03389551677421
 30
0.0
  0
VERTEX
  5
2417
  8
0
 10
580.34064234604671
 20
190.2485691989047
 30
0.0
  0
VERTEX
  5
2418
  8
0
 10
582.61516549092914
 20
188.3850534072578
 30
0.0
  0
VERTEX
  5
2419
  8
0
 10
584.97547589840929
 20
186.52153761561269
 30
0.0
  0
VERTEX
  5
241A
  8
0
 10
587.47529870239873
 20
184.73621129774321
 30
0.0
  0
VERTEX
  5
241B
  8
0
 10
590.16835903680953
 20
183.10726392742319
 30
0.0
  0
VERTEX
  5
241C
  8
0
 10
593.10838203555079
 20
181.71288497843011
 30
0.0
  0
VERTEX
  5
241D
  8
0
 10
596.33548689892245
 20
180.63562213818909
 30
0.0
  0
VERTEX
  5
241E
  8
0
 10
599.83536909275938
 20
179.9754559487435
 30
0.0
  0
VERTEX
  5
241F
  8
0
 10
603.58011814928409
 20
179.8367251657844
 30
0.0
  0
VERTEX
  5
2420
  8
0
 10
607.54182360071923
 20
180.32376854500279
 30
0.0
  0
VERTEX
  5
2421
  8
0
 10
611.69257497928595
 20
181.54092484209349
 30
0.0
  0
VERTEX
  5
2422
  8
0
 10
616.00446181720713
 20
183.5925328127457
 30
0.0
  0
VERTEX
  5
2423
  8
0
 10
620.44957364670495
 20
186.58293121265589
 30
0.0
  0
VERTEX
  5
2424
  8
0
 10
625.00000000000114
 20
190.61645879751151
 30
0.0
  0
SEQEND
  5
2425
  8
0
  0
POLYLINE
  5
2519
  8
0
 66
     1
 10
0.0
 20
0.0
 30
0.0
  0
VERTEX
  5
3F6F
  8
0
 10
-0.0000000000002274
 20
0.0
 30
0.0
  0
VERTEX
  5
3F70
  8
0
 10
-0.0000000000002274
 20
-51.946619822369712
 30
0.0
  0
SEQEND
  5
3F71
  8
0
  0
POLYLINE
  5
2734
  8
0
 66
     1
 10
0.0
 20
0.0
 30
0.0
  0
VERTEX
  5
2736
  8
0
 10
-408.25606759867492
 20
190.18039322974141
 30
0.0
  0
VERTEX
  5
2737
  8
0
 10
-406.19732197031573
 20
188.3850534072578
 30
0.0
  0
VERTEX
  5
2738
  8
0
 10
-404.06386399166672
 20
186.52153761561269
 30
0.0
  0
VERTEX
  5
2739
  8
0
 10
-401.9024603847858
 20
184.73621129774321
 30
0.0
  0
VERTEX
  5
273A
  8
0
 10
-399.68169936941672
 20
183.10726392742319
 30
0.0
  0
VERTEX
  5
273B
  8
0
 10
-397.37016916530342
 20
181.71288497843011
 30
0.0
  0
VERTEX
  5
273C
  8
0
 10
-394.94678416260808
 20
180.6182323455748
 30
0.0
  0
VERTEX
  5
273D
  8
0
 10
-392.4317634331635
 20
179.83633760782021
 30
0.0
  0
VERTEX
  5
273E
  8
0
 10
-389.85565221921911
 20
179.36720076516821
 30
0.0
  0
VERTEX
  5
273F
  8
0
 10
-387.24899576302482
 20
179.21082181761881
 30
0.0
  0
VERTEX
  5
2740
  8
0
 10
-384.64233930683008
 20
179.36720076516821
 30
0.0
  0
VERTEX
  5
2741
  8
0
 10
-382.0662280928853
 20
179.83633760782021
 30
0.0
  0
VERTEX
  5
2742
  8
0
 10
-379.55120736344071
 20
180.6182323455748
 30
0.0
  0
VERTEX
  5
2743
  8
0
 10
-377.12782236074531
 20
181.71288497843011
 30
0.0
  0
VERTEX
  5
2744
  8
0
 10
-374.81629215663253
 20
183.10726392742319
 30
0.0
  0
VERTEX
  5
2745
  8
0
 10
-372.59553114126328
 20
184.73621129774321
 30
0.0
  0
VERTEX
  5
2746
  8
0
 10
-370.43412753438201
 20
186.52153761561269
 30
0.0
  0
VERTEX
  5
2747
  8
0
 10
-368.30066955573312
 20
188.3850534072578
 30
0.0
  0
VERTEX
  5
2748
  8
0
 10
-366.16374542505918
 20
190.2485691989047
 30
0.0
  0
VERTEX
  5
2749
  8
0
 10
-363.99194336210508
 20
192.03389551677421
 30
0.0
  0
VERTEX
  5
274A
  8
0
 10
-361.75385158661561
 20
193.6628428870942
 30
0.0
  0
VERTEX
  5
274B
  8
0
 10
-359.41805831833398
 20
195.05722183608921
 30
0.0
  0
VERTEX
  5
274C
  8
0
 10
-356.96376679342319
 20
196.15187446894259
 30
0.0
  0
VERTEX
  5
274D
  8
0
 10
-354.4126403137268
 20
196.93376920669721
 30
0.0
  0
VERTEX
  5
274E
  8
0
 10
-351.79695719750703
 20
197.40290604934921
 30
0.0
  0
VERTEX
  5
274F
  8
0
 10
-349.1489957630244
 20
197.55928499689861
 30
0.0
  0
VERTEX
  5
2750
  8
0
 10
-346.50103432854189
 20
197.40290604934921
 30
0.0
  0
VERTEX
  5
2751
  8
0
 10
-343.88535121232172
 20
196.93376920669721
 30
0.0
  0
VERTEX
  5
2752
  8
0
 10
-341.33422473262482
 20
196.15187446894259
 30
0.0
  0
VERTEX
  5
2753
  8
0
 10
-338.87993320771488
 20
195.05722183608921
 30
0.0
  0
VERTEX
  5
2754
  8
0
 10
-336.5441399394328
 20
193.6628428870942
 30
0.0
  0
VERTEX
  5
2755
  8
0
 10
-334.30604816394299
 20
192.03389551677421
 30
0.0
  0
VERTEX
  5
2756
  8
0
 10
-332.13424610098917
 20
190.2485691989047
 30
0.0
  0
VERTEX
  5
2757
  8
0
 10
-329.9973219703158
 20
188.3850534072578
 30
0.0
  0
VERTEX
  5
2758
  8
0
 10
-327.86386399166599
 20
186.52153761561269
 30
0.0
  0
VERTEX
  5
2759
  8
0
 10
-325.70246038478513
 20
184.73621129774321
 30
0.0
  0
VERTEX
  5
275A
  8
0
 10
-323.48169936941599
 20
183.10726392742319
 30
0.0
  0
VERTEX
  5
275B
  8
0
 10
-321.17016916530309
 20
181.71288497843011
 30
0.0
  0
VERTEX
  5
275C
  8
0
 10
-318.74678416260832
 20
180.6182323455748
 30
0.0
  0
VERTEX
  5
275D
  8
0
 10
-316.23176343316368
 20
179.83633760782021
 30
0.0
  0
VERTEX
  5
275E
  8
0
 10
-313.65565221921838
 20
179.36720076516821
 30
0.0
  0
VERTEX
  5
275F
  8
0
 10
-311.0489957630241
 20
179.21082181761881
 30
0.0
  0
VERTEX
  5
2760
  8
0
 10
-308.44233930682941
 20
179.36720076516821
 30
0.0
  0
VERTEX
  5
2761
  8
0
 10
-305.86622809288502
 20
179.83633760782021
 30
0.0
  0
VERTEX
  5
2762
  8
0
 10
-303.35120736344038
 20
180.6182323455748
 30
0.0
  0
VERTEX
  5
2763
  8
0
 10
-300.92782236074498
 20
181.71288497843011
 30
0.0
  0
VERTEX
  5
2764
  8
0
 10
-298.61629215663271
 20
183.10726392742319
 30
0.0
  0
VERTEX
  5
2765
  8
0
 10
-296.39553114126352
 20
184.73621129774321
 30
0.0
  0
VERTEX
  5
2766
  8
0
 10
-294.2341275343822
 20
186.52153761561269
 30
0.0
  0
VERTEX
  5
2767
  8
0
 10
-292.10066955573279
 20
188.3850534072578
 30
0.0
  0
VERTEX
  5
2768
  8
0
 10
-289.96374542505941
 20
190.2485691989047
 30
0.0
  0
VERTEX
  5
2769
  8
0
 10
-287.79194336210571
 20
192.03389551677421
 30
0.0
  0
VERTEX
  5
276A
  8
0
 10
-285.55385158661539
 20
193.6628428870942
 30
0.0
  0
VERTEX
  5
276B
  8
0
 10
-283.21805831833382
 20
195.05722183608921
 30
0.0
  0
VERTEX
  5
276C
  8
0
 10
-280.76376679342388
 20
196.15187446894259
 30
0.0
  0
VERTEX
  5
276D
  8
0
 10
-278.21264031372738
 20
196.93376920669721
 30
0.0
  0
VERTEX
  5
276E
  8
0
 10
-275.59695719750681
 20
197.40290604934921
 30
0.0
  0
VERTEX
  5
276F
  8
0
 10
-272.94899576302419
 20
197.55928499689861
 30
0.0
  0
VERTEX
  5
2770
  8
0
 10
-270.30103432854207
 20
197.40290604934921
 30
0.0
  0
VERTEX
  5
2771
  8
0
 10
-267.68535121232139
 20
196.93376920669721
 30
0.0
  0
VERTEX
  5
2772
  8
0
 10
-265.1342247326254
 20
196.15187446894259
 30
0.0
  0
VERTEX
  5
2773
  8
0
 10
-262.67993320771461
 20
195.05722183608921
 30
0.0
  0
VERTEX
  5
2774
  8
0
 10
-260.34413993943309
 20
193.6628428870942
 30
0.0
  0
VERTEX
  5
2775
  8
0
 10
-258.10604816394311
 20
192.03389551677421
 30
0.0
  0
VERTEX
  5
2776
  8
0
 10
-255.93424610098899
 20
190.2485691989047
 30
0.0
  0
VERTEX
  5
2777
  8
0
 10
-253.79732197031561
 20
188.3850534072578
 30
0.0
  0
VERTEX
  5
2778
  8
0
 10
-251.6638639916666
 20
186.52153761561269
 30
0.0
  0
VERTEX
  5
2779
  8
0
 10
-249.5024603847848
 20
184.73621129774321
 30
0.0
  0
VERTEX
  5
277A
  8
0
 10
-247.28169936941569
 20
183.10726392742319
 30
0.0
  0
VERTEX
  5
277B
  8
0
 10
-244.9701691653033
 20
181.71288497843011
 30
0.0
  0
VERTEX
  5
277C
  8
0
 10
-242.5471138373552
 20
180.6182323455748
 30
0.0
  0
VERTEX
  5
277D
  8
0
 10
-240.0344008311379
 20
179.83633760782021
 30
0.0
  0
VERTEX
  5
277E
  8
0
 10
-237.46455343738239
 20
179.36720076516821
 30
0.0
  0
VERTEX
  5
277F
  8
0
 10
-234.87009494681999
 20
179.21082181761881
 30
0.0
  0
VERTEX
  5
2780
  8
0
 10
-232.28354865018059
 20
179.36720076516821
 30
0.0
  0
VERTEX
  5
2781
  8
0
 10
-229.7374378381962
 20
179.83633760782021
 30
0.0
  0
VERTEX
  5
2782
  8
0
 10
-227.26428580159629
 20
180.6182323455748
 30
0.0
  0
VERTEX
  5
2783
  8
0
 10
-224.896615831113
 20
181.71288497843011
 30
0.0
  0
VERTEX
  5
2784
  8
0
 10
-222.6556360228181
 20
183.10726392742319
 30
0.0
  0
VERTEX
  5
2785
  8
0
 10
-220.5172936941519
 20
184.73621129774321
 30
0.0
  0
VERTEX
  5
2786
  8
0
 10
-218.44622096789749
 20
186.52153761561269
 30
0.0
  0
VERTEX
  5
2787
  8
0
 10
-216.4070499668357
 20
188.3850534072578
 30
0.0
  0
VERTEX
  5
2788
  8
0
 10
-214.36441281375099
 20
190.2485691989047
 30
0.0
  0
VERTEX
  5
2789
  8
0
 10
-212.28294163142419
 20
192.03389551677421
 30
0.0
  0
VERTEX
  5
278A
  8
0
 10
-210.12726854263721
 20
193.6628428870942
 30
0.0
  0
VERTEX
  5
278B
  8
0
 10
-207.8620256701731
 20
195.05722183608921
 30
0.0
  0
VERTEX
  5
278C
  8
0
 10
-205.4634491774739
 20
196.15187446894259
 30
0.0
  0
VERTEX
  5
278D
  8
0
 10
-202.9541913906225
 20
196.93376920669721
 30
0.0
  0
VERTEX
  5
278E
  8
0
 10
-200.36850867636241
 20
197.40290604934921
 30
0.0
  0
VERTEX
  5
278F
  8
0
 10
-197.7406574014355
 20
197.55928499689861
 30
0.0
  0
VERTEX
  5
2790
  8
0
 10
-195.10489393258439
 20
197.40290604934921
 30
0.0
  0
VERTEX
  5
2791
  8
0
 10
-192.49547463655401
 20
196.93376920669721
 30
0.0
  0
VERTEX
  5
2792
  8
0
 10
-189.94665588008479
 20
196.15187446894259
 30
0.0
  0
VERTEX
  5
2793
  8
0
 10
-187.49269402992169
 20
195.05722183608921
 30
0.0
  0
VERTEX
  5
2794
  8
0
 10
-185.15690076163969
 20
193.6628428870942
 30
0.0
  0
VERTEX
  5
2795
  8
0
 10
-182.9188089861498
 20
192.03389551677421
 30
0.0
  0
VERTEX
  5
2796
  8
0
 10
-180.74700692319601
 20
190.2485691989047
 30
0.0
  0
VERTEX
  5
2797
  8
0
 10
-178.61008279252269
 20
188.3850534072578
 30
0.0
  0
VERTEX
  5
2798
  8
0
 10
-176.4766248138728
 20
186.52153761561269
 30
0.0
  0
VERTEX
  5
2799
  8
0
 10
-174.31522120699191
 20
184.73621129774321
 30
0.0
  0
VERTEX
  5
279A
  8
0
 10
-172.0944601916228
 20
183.10726392742319
 30
0.0
  0
VERTEX
  5
279B
  8
0
 10
-169.78292998750999
 20
181.71288497843011
 30
0.0
  0
VERTEX
  5
279C
  8
0
 10
-167.3595449848151
 20
180.6182323455748
 30
0.0
  0
VERTEX
  5
279D
  8
0
 10
-164.84452425537049
 20
179.83633760782021
 30
0.0
  0
VERTEX
  5
279E
  8
0
 10
-162.26841304142519
 20
179.36720076516821
 30
0.0
  0
VERTEX
  5
279F
  8
0
 10
-159.6617565852309
 20
179.21082181761881
 30
0.0
  0
VERTEX
  5
27A0
  8
0
 10
-157.05510012903619
 20
179.36720076516821
 30
0.0
  0
VERTEX
  5
27A1
  8
0
 10
-154.4789889150918
 20
179.83633760782021
 30
0.0
  0
VERTEX
  5
27A2
  8
0
 10
-151.96396818564671
 20
180.6182323455748
 30
0.0
  0
VERTEX
  5
27A3
  8
0
 10
-149.5405831829527
 20
181.71288497843011
 30
0.0
  0
VERTEX
  5
27A4
  8
0
 10
-147.22905297883989
 20
183.10726392742319
 30
0.0
  0
VERTEX
  5
27A5
  8
0
 10
-145.00829196347081
 20
184.73621129774321
 30
0.0
  0
VERTEX
  5
27A6
  8
0
 10
-142.84688835658989
 20
186.52153761561269
 30
0.0
  0
VERTEX
  5
27A7
  8
0
 10
-140.71343037794011
 20
188.3850534072578
 30
0.0
  0
VERTEX
  5
27A8
  8
0
 10
-138.57650624726671
 20
190.2485691989047
 30
0.0
  0
VERTEX
  5
27A9
  8
0
 10
-136.404704184313
 20
192.03389551677421
 30
0.0
  0
VERTEX
  5
27AA
  8
0
 10
-134.16661240882311
 20
193.6628428870942
 30
0.0
  0
VERTEX
  5
27AB
  8
0
 10
-131.8308191405406
 20
195.05722183608921
 30
0.0
  0
VERTEX
  5
27AC
  8
0
 10
-129.37652761563069
 20
196.15187446894259
 30
0.0
  0
VERTEX
  5
27AD
  8
0
 10
-126.8254011359338
 20
196.93376920669721
 30
0.0
  0
VERTEX
  5
27AE
  8
0
 10
-124.20971801971361
 20
197.40290604934921
 30
0.0
  0
VERTEX
  5
27AF
  8
0
 10
-121.561756585231
 20
197.55928499689861
 30
0.0
  0
VERTEX
  5
27B0
  8
0
 10
-118.9137951507484
 20
197.40290604934921
 30
0.0
  0
VERTEX
  5
27B1
  8
0
 10
-116.2981120345282
 20
196.93376920669721
 30
0.0
  0
VERTEX
  5
27B2
  8
0
 10
-113.74698555483219
 20
196.15187446894259
 30
0.0
  0
VERTEX
  5
27B3
  8
0
 10
-111.29269402992141
 20
195.05722183608921
 30
0.0
  0
VERTEX
  5
27B4
  8
0
 10
-108.9569007616399
 20
193.6628428870942
 30
0.0
  0
VERTEX
  5
27B5
  8
0
 10
-106.7188089861495
 20
192.03389551677421
 30
0.0
  0
VERTEX
  5
27B6
  8
0
 10
-104.5470069231958
 20
190.2485691989047
 30
0.0
  0
VERTEX
  5
27B7
  8
0
 10
-102.4100827925224
 20
188.3850534072578
 30
0.0
  0
VERTEX
  5
27B8
  8
0
 10
-100.276624813873
 20
186.52153761561269
 30
0.0
  0
VERTEX
  5
27B9
  8
0
 10
-98.115221206991691
 20
184.73621129774321
 30
0.0
  0
VERTEX
  5
27BA
  8
0
 10
-95.894460191622557
 20
183.10726392742319
 30
0.0
  0
VERTEX
  5
27BB
  8
0
 10
-93.582929987510624
 20
181.71288497843011
 30
0.0
  0
VERTEX
  5
27BC
  8
0
 10
-91.159544984815284
 20
180.6182323455748
 30
0.0
  0
VERTEX
  5
27BD
  8
0
 10
-88.644524255370698
 20
179.83633760782021
 30
0.0
  0
VERTEX
  5
27BE
  8
0
 10
-86.068413041426325
 20
179.36720076516821
 30
0.0
  0
VERTEX
  5
27BF
  8
0
 10
-83.461756585232024
 20
179.21082181761881
 30
0.0
  0
VERTEX
  5
27C0
  8
0
 10
-80.855100129037282
 20
179.36720076516821
 30
0.0
  0
VERTEX
  5
27C1
  8
0
 10
-78.278988915092896
 20
179.83633760782021
 30
0.0
  0
VERTEX
  5
27C2
  8
0
 10
-75.763968185647855
 20
180.6182323455748
 30
0.0
  0
VERTEX
  5
27C3
  8
0
 10
-73.340583182952514
 20
181.71288497843011
 30
0.0
  0
VERTEX
  5
27C4
  8
0
 10
-71.029052978839673
 20
183.10726392742319
 30
0.0
  0
VERTEX
  5
27C5
  8
0
 10
-68.808291963470538
 20
184.73621129774321
 30
0.0
  0
VERTEX
  5
27C6
  8
0
 10
-66.64688835658967
 20
186.52153761561269
 30
0.0
  0
VERTEX
  5
27C7
  8
0
 10
-64.513430377940267
 20
188.3850534072578
 30
0.0
  0
VERTEX
  5
27C8
  8
0
 10
-62.376506247266441
 20
190.2485691989047
 30
0.0
  0
VERTEX
  5
27C9
  8
0
 10
-60.20470418431227
 20
192.03389551677421
 30
0.0
  0
VERTEX
  5
27CA
  8
0
 10
-57.966612408822812
 20
193.6628428870942
 30
0.0
  0
VERTEX
  5
27CB
  8
0
 10
-55.630819140541227
 20
195.05722183608921
 30
0.0
  0
VERTEX
  5
27CC
  8
0
 10
-53.176527615630448
 20
196.15187446894259
 30
0.0
  0
VERTEX
  5
27CD
  8
0
 10
-50.625401135933991
 20
196.93376920669721
 30
0.0
  0
VERTEX
  5
27CE
  8
0
 10
-48.009718019714228
 20
197.40290604934921
 30
0.0
  0
VERTEX
  5
27CF
  8
0
 10
-45.361756585231653
 20
197.55928499689861
 30
0.0
  0
VERTEX
  5
27D0
  8
0
 10
-42.713795150749092
 20
197.40290604934921
 30
0.0
  0
VERTEX
  5
27D1
  8
0
 10
-40.09811203452886
 20
196.93376920669721
 30
0.0
  0
VERTEX
  5
27D2
  8
0
 10
-37.54698555483197
 20
196.15187446894259
 30
0.0
  0
VERTEX
  5
27D3
  8
0
 10
-35.092694029922093
 20
195.05722183608921
 30
0.0
  0
VERTEX
  5
27D4
  8
0
 10
-32.756900761640061
 20
193.6628428870942
 30
0.0
  0
VERTEX
  5
27D5
  8
0
 10
-30.518808986150141
 20
192.03389551677421
 30
0.0
  0
VERTEX
  5
27D6
  8
0
 10
-28.347006923196432
 20
190.2485691989047
 30
0.0
  0
VERTEX
  5
27D7
  8
0
 10
-26.21008279252305
 20
188.3850534072578
 30
0.0
  0
VERTEX
  5
27D8
  8
0
 10
-24.076624813873192
 20
186.52153761561269
 30
0.0
  0
VERTEX
  5
27D9
  8
0
 10
-21.915221206992332
 20
184.73621129774321
 30
0.0
  0
VERTEX
  5
27DA
  8
0
 10
-19.69446019162319
 20
183.10726392742319
 30
0.0
  0
VERTEX
  5
27DB
  8
0
 10
-17.382929987510352
 20
181.71288497843011
 30
0.0
  0
VERTEX
  5
27DC
  8
0
 10
-14.95954498481546
 20
180.6182323455748
 30
0.0
  0
VERTEX
  5
27DD
  8
0
 10
-12.444524255370879
 20
179.83633760782021
 30
0.0
  0
VERTEX
  5
27DE
  8
0
 10
-9.8684130414255833
 20
179.36720076516821
 30
0.0
  0
VERTEX
  5
27DF
  8
0
 10
-7.2617565852312964
 20
179.21082181761881
 30
0.0
  0
VERTEX
  5
27E0
  8
0
 10
-4.6551001290365539
 20
179.36720076516821
 30
0.0
  0
VERTEX
  5
27E1
  8
0
 10
-2.0789889150921681
 20
179.83633760782021
 30
0.0
  0
VERTEX
  5
27E2
  8
0
 10
0.436031814352873
 20
180.6182323455748
 30
0.0
  0
VERTEX
  5
27E3
  8
0
 10
2.8594168170477579
 20
181.71288497843011
 30
0.0
  0
VERTEX
  5
27E4
  8
0
 10
5.1709470211601447
 20
183.10726392742319
 30
0.0
  0
VERTEX
  5
27E5
  8
0
 10
7.3917080365292804
 20
184.73621129774321
 30
0.0
  0
VERTEX
  5
27E6
  8
0
 10
9.5531116434106025
 20
186.52153761561269
 30
0.0
  0
VERTEX
  5
27E7
  8
0
 10
11.68656962206
 20
188.3850534072578
 30
0.0
  0
VERTEX
  5
27E8
  8
0
 10
13.823493752733381
 20
190.2485691989047
 30
0.0
  0
VERTEX
  5
27E9
  8
0
 10
15.995295815687079
 20
192.03389551677421
 30
0.0
  0
VERTEX
  5
27EA
  8
0
 10
18.233387591177461
 20
193.6628428870942
 30
0.0
  0
VERTEX
  5
27EB
  8
0
 10
20.56918085945949
 20
195.05722183608921
 30
0.0
  0
VERTEX
  5
27EC
  8
0
 10
23.023472384369828
 20
196.15187446894259
 30
0.0
  0
VERTEX
  5
27ED
  8
0
 10
25.574598864066729
 20
196.93376920669721
 30
0.0
  0
VERTEX
  5
27EE
  8
0
 10
28.1902819802865
 20
197.40290604934921
 30
0.0
  0
VERTEX
  5
27EF
  8
0
 10
30.838243414769071
 20
197.55928499689861
 30
0.0
  0
VERTEX
  5
27F0
  8
0
 10
33.486204849251628
 20
197.40290604934921
 30
0.0
  0
VERTEX
  5
27F1
  8
0
 10
36.10188796547186
 20
196.93376920669721
 30
0.0
  0
VERTEX
  5
27F2
  8
0
 10
38.65301444516831
 20
196.15187446894259
 30
0.0
  0
VERTEX
  5
27F3
  8
0
 10
41.107305970078642
 20
195.05722183608921
 30
0.0
  0
VERTEX
  5
27F4
  8
0
 10
43.443099238360666
 20
193.6628428870942
 30
0.0
  0
VERTEX
  5
27F5
  8
0
 10
45.681191013850587
 20
192.03389551677421
 30
0.0
  0
VERTEX
  5
27F6
  8
0
 10
47.852993076804289
 20
190.2485691989047
 30
0.0
  0
VERTEX
  5
27F7
  8
0
 10
47.931171579120473
 20
190.1803932297432
 30
0.0
  0
SEQEND
  5
2735
  8
0
  0
POLYLINE
  5
28BC
  8
0
 66
     1
 10
0.0
 20
0.0
 30
0.0
  0
VERTEX
  5
28BE
  8
0
 10
-625.00000000000023
 20
181.27465571236911
 30
0.0
  0
VERTEX
  5
28BF
  8
0
 10
-623.54678416260845
 20
180.6182323455748
 30
0.0
  0
VERTEX
  5
28C0
  8
0
 10
-621.03176343316375
 20
179.83633760782021
 30
0.0
  0
VERTEX
  5
28C1
  8
0
 10
-618.45565221921856
 20
179.36720076516821
 30
0.0
  0
VERTEX
  5
28C2
  8
0
 10
-615.84899576302416
 20
179.21082181761881
 30
0.0
  0
VERTEX
  5
28C3
  8
0
 10
-613.24233930682954
 20
179.36720076516821
 30
0.0
  0
VERTEX
  5
28C4
  8
0
 10
-610.66622809288515
 20
179.83633760782021
 30
0.0
  0
VERTEX
  5
28C5
  8
0
 10
-608.15120736343999
 20
180.6182323455748
 30
0.0
  0
VERTEX
  5
28C6
  8
0
 10
-605.72782236074613
 20
181.71288497843011
 30
0.0
  0
VERTEX
  5
28C7
  8
0
 10
-603.41629215663318
 20
183.10726392742319
 30
0.0
  0
VERTEX
  5
28C8
  8
0
 10
-601.19553114126415
 20
184.73621129774321
 30
0.0
  0
VERTEX
  5
28C9
  8
0
 10
-599.03412753438317
 20
186.52153761561269
 30
0.0
  0
VERTEX
  5
28CA
  8
0
 10
-596.90066955573343
 20
188.3850534072578
 30
0.0
  0
VERTEX
  5
28CB
  8
0
 10
-594.76374542506005
 20
190.2485691989047
 30
0.0
  0
VERTEX
  5
28CC
  8
0
 10
-592.59194336210635
 20
192.03389551677421
 30
0.0
  0
VERTEX
  5
28CD
  8
0
 10
-590.35385158661643
 20
193.6628428870942
 30
0.0
  0
VERTEX
  5
28CE
  8
0
 10
-588.01805831833394
 20
195.05722183608921
 30
0.0
  0
VERTEX
  5
28CF
  8
0
 10
-585.56376679342407
 20
196.15187446894259
 30
0.0
  0
VERTEX
  5
28D0
  8
0
 10
-583.01264031372705
 20
196.93376920669721
 30
0.0
  0
VERTEX
  5
28D1
  8
0
 10
-580.39695719750694
 20
197.40290604934921
 30
0.0
  0
VERTEX
  5
28D2
  8
0
 10
-577.74899576302425
 20
197.55928499689861
 30
0.0
  0
VERTEX
  5
28D3
  8
0
 10
-575.10103432854169
 20
197.40290604934921
 30
0.0
  0
VERTEX
  5
28D4
  8
0
 10
-572.48535121232158
 20
196.93376920669721
 30
0.0
  0
VERTEX
  5
28D5
  8
0
 10
-569.93422473262558
 20
196.15187446894259
 30
0.0
  0
VERTEX
  5
28D6
  8
0
 10
-567.47993320771479
 20
195.05722183608921
 30
0.0
  0
VERTEX
  5
28D7
  8
0
 10
-565.1441399394331
 20
193.6628428870942
 30
0.0
  0
VERTEX
  5
28D8
  8
0
 10
-562.90604816394284
 20
192.03389551677421
 30
0.0
  0
VERTEX
  5
28D9
  8
0
 10
-560.73424610098914
 20
190.2485691989047
 30
0.0
  0
VERTEX
  5
28DA
  8
0
 10
-558.59732197031565
 20
188.3850534072578
 30
0.0
  0
VERTEX
  5
28DB
  8
0
 10
-556.46386399166636
 20
186.52153761561269
 30
0.0
  0
VERTEX
  5
28DC
  8
0
 10
-554.30246038478504
 20
184.73621129774321
 30
0.0
  0
VERTEX
  5
28DD
  8
0
 10
-552.08169936941579
 20
183.10726392742319
 30
0.0
  0
VERTEX
  5
28DE
  8
0
 10
-549.77016916530386
 20
181.71288497843011
 30
0.0
  0
VERTEX
  5
28DF
  8
0
 10
-547.34678416260863
 20
180.6182323455748
 30
0.0
  0
VERTEX
  5
28E0
  8
0
 10
-544.83176343316404
 20
179.83633760782021
 30
0.0
  0
VERTEX
  5
28E1
  8
0
 10
-542.25565221921966
 20
179.36720076516821
 30
0.0
  0
VERTEX
  5
28E2
  8
0
 10
-539.64899576302537
 20
179.21082181761881
 30
0.0
  0
VERTEX
  5
28E3
  8
0
 10
-537.04233930683063
 20
179.36720076516821
 30
0.0
  0
VERTEX
  5
28E4
  8
0
 10
-534.46622809288624
 20
179.83633760782021
 30
0.0
  0
VERTEX
  5
28E5
  8
0
 10
-531.95120736344109
 20
180.6182323455748
 30
0.0
  0
VERTEX
  5
28E6
  8
0
 10
-529.52782236074574
 20
181.71288497843011
 30
0.0
  0
VERTEX
  5
28E7
  8
0
 10
-527.21629215663302
 20
183.10726392742319
 30
0.0
  0
VERTEX
  5
28E8
  8
0
 10
-524.99553114126377
 20
184.73621129774321
 30
0.0
  0
VERTEX
  5
28E9
  8
0
 10
-522.8341275343829
 20
186.52153761561269
 30
0.0
  0
VERTEX
  5
28EA
  8
0
 10
-520.7006695557335
 20
188.3850534072578
 30
0.0
  0
VERTEX
  5
28EB
  8
0
 10
-518.56374542505966
 20
190.2485691989047
 30
0.0
  0
VERTEX
  5
28EC
  8
0
 10
-516.39194336210562
 20
192.03389551677421
 30
0.0
  0
VERTEX
  5
28ED
  8
0
 10
-514.15385158661616
 20
193.6628428870942
 30
0.0
  0
VERTEX
  5
28EE
  8
0
 10
-511.81805831833452
 20
195.05722183608921
 30
0.0
  0
VERTEX
  5
28EF
  8
0
 10
-509.36376679342368
 20
196.15187446894259
 30
0.0
  0
VERTEX
  5
28F0
  8
0
 10
-506.81264031372729
 20
196.93376920669721
 30
0.0
  0
VERTEX
  5
28F1
  8
0
 10
-504.19695719750757
 20
197.40290604934921
 30
0.0
  0
VERTEX
  5
28F2
  8
0
 10
-501.548995763025
 20
197.55928499689861
 30
0.0
  0
VERTEX
  5
28F3
  8
0
 10
-498.90103432854238
 20
197.40290604934921
 30
0.0
  0
VERTEX
  5
28F4
  8
0
 10
-496.28535121232221
 20
196.93376920669721
 30
0.0
  0
VERTEX
  5
28F5
  8
0
 10
-493.73422473262519
 20
196.15187446894259
 30
0.0
  0
VERTEX
  5
28F6
  8
0
 10
-491.27993320771537
 20
195.05722183608921
 30
0.0
  0
VERTEX
  5
28F7
  8
0
 10
-488.9441399394334
 20
193.6628428870942
 30
0.0
  0
VERTEX
  5
28F8
  8
0
 10
-486.70604816394342
 20
192.03389551677421
 30
0.0
  0
VERTEX
  5
28F9
  8
0
 10
-484.53424610098978
 20
190.2485691989047
 30
0.0
  0
VERTEX
  5
28FA
  8
0
 10
-482.39732197031628
 20
188.3850534072578
 30
0.0
  0
VERTEX
  5
28FB
  8
0
 10
-480.26386399166648
 20
186.52153761561269
 30
0.0
  0
VERTEX
  5
28FC
  8
0
 10
-478.10246038478562
 20
184.73621129774321
 30
0.0
  0
VERTEX
  5
28FD
  8
0
 10
-475.88169936941648
 20
183.10726392742319
 30
0.0
  0
VERTEX
  5
28FE
  8
0
 10
-473.57016916530358
 20
181.71288497843011
 30
0.0
  0
VERTEX
  5
28FF
  8
0
 10
-471.1467841626087
 20
180.6182323455748
 30
0.0
  0
VERTEX
  5
2900
  8
0
 10
-468.63176343316422
 20
179.83633760782021
 30
0.0
  0
VERTEX
  5
2901
  8
0
 10
-466.05565221921893
 20
179.36720076516821
 30
0.0
  0
VERTEX
  5
2902
  8
0
 10
-463.44899576302458
 20
179.21082181761881
 30
0.0
  0
VERTEX
  5
2903
  8
0
 10
-460.84233930682979
 20
179.36720076516821
 30
0.0
  0
VERTEX
  5
2904
  8
0
 10
-458.26622809288551
 20
179.83633760782021
 30
0.0
  0
VERTEX
  5
2905
  8
0
 10
-455.75120736344053
 20
180.6182323455748
 30
0.0
  0
VERTEX
  5
2906
  8
0
 10
-453.32782236074559
 20
181.71288497843011
 30
0.0
  0
VERTEX
  5
2907
  8
0
 10
-451.01629215663309
 20
183.10726392742319
 30
0.0
  0
VERTEX
  5
2908
  8
0
 10
-448.79553114126401
 20
184.73621129774321
 30
0.0
  0
VERTEX
  5
2909
  8
0
 10
-446.63412753438269
 20
186.52153761561269
 30
0.0
  0
VERTEX
  5
290A
  8
0
 10
-444.50066955573328
 20
188.3850534072578
 30
0.0
  0
VERTEX
  5
290B
  8
0
 10
-442.36374542506002
 20
190.2485691989047
 30
0.0
  0
VERTEX
  5
290C
  8
0
 10
-440.1919433621062
 20
192.03389551677421
 30
0.0
  0
VERTEX
  5
290D
  8
0
 10
-437.95385158661583
 20
193.6628428870942
 30
0.0
  0
VERTEX
  5
290E
  8
0
 10
-435.61805831833379
 20
195.05722183608921
 30
0.0
  0
VERTEX
  5
290F
  8
0
 10
-433.16376679342352
 20
196.15187446894259
 30
0.0
  0
VERTEX
  5
2910
  8
0
 10
-430.61264031372662
 20
196.93376920669721
 30
0.0
  0
VERTEX
  5
2911
  8
0
 10
-427.99695719750679
 20
197.40290604934921
 30
0.0
  0
VERTEX
  5
2912
  8
0
 10
-425.34899576302422
 20
197.55928499689861
 30
0.0
  0
VERTEX
  5
2913
  8
0
 10
-422.7010343285416
 20
197.40290604934921
 30
0.0
  0
VERTEX
  5
2914
  8
0
 10
-420.08535121232148
 20
196.93376920669721
 30
0.0
  0
VERTEX
  5
2915
  8
0
 10
-417.53422473262498
 20
196.15187446894259
 30
0.0
  0
VERTEX
  5
2916
  8
0
 10
-415.0799332077147
 20
195.05722183608921
 30
0.0
  0
VERTEX
  5
2917
  8
0
 10
-412.74413993943261
 20
193.6628428870942
 30
0.0
  0
VERTEX
  5
2918
  8
0
 10
-410.50604816394269
 20
192.03389551677421
 30
0.0
  0
VERTEX
  5
2919
  8
0
 10
-408.33424610098899
 20
190.2485691989047
 30
0.0
  0
VERTEX
  5
291A
  8
0
 10
-408.25606759867281
 20
190.1803932297432
 30
0.0
  0
SEQEND
  5
28BD
  8
0
  0
LINE
  5
291B
  8
0
 10
-236.87451740743771
 20
179.3316368069417
 30
0.0
 11
-236.87451740743811
 21
395.73532599636923
 31
0.0
  0
LINE
  5
291C
  8
0
 10
-198.7745174074384
 20
197.49776175119791
 30
0.0
 11
-198.7745174074384
 21
395.73532599636923
 31
0.0
  0
LINE
  5
291D
  8
0
 10
-160.67451740743721
 20
179.27157952549379
 30
0.0
 11
-160.67451740743761
 21
395.73532599636923
 31
0.0
  0
LINE
  5
291E
  8
0
 10
-122.5745174074395
 20
197.49947503538101
 30
0.0
 11
-122.5745174074388
 21
395.73532599636923
 31
0.0
  0
LINE
  5
291F
  8
0
 10
-84.474517407438483
 20
179.27157952549391
 30
0.0
 11
-84.474517407438043
 21
395.73532599636923
 31
0.0
  0
LINE
  5
2920
  8
0
 10
-46.374517407438809
 20
197.49947503538101
 30
0.0
 11
-46.374517407438582
 21
395.73532599636923
 31
0.0
  0
LINE
  5
2921
  8
0
 10
29.825482592562139
 20
197.49947503538121
 30
0.0
 11
29.825482592562139
 21
395.73532599636923
 31
0.0
  0
LINE
  5
2922
  8
0
 10
-8.2745174074368606
 20
179.27157952549371
 30
0.0
 11
-8.2745174074373153
 21
390.99460153564269
 31
0.0
  0
LINE
  5
2923
  8
0
 10
67.925482592562275
 20
179.27157952549391
 30
0.0
 11
67.925482592562275
 21
395.73532599636923
 31
0.0
  0
LINE
  5
2924
  8
0
 10
-313.0745174074375
 20
179.33233723336889
 30
0.0
 11
-313.0745174074379
 21
395.73532599636923
 31
0.0
  0
LINE
  5
2925
  8
0
 10
-389.27451740743732
 20
179.33233723336889
 30
0.0
 11
-389.27451740743783
 21
395.73532599636923
 31
0.0
  0
LINE
  5
2926
  8
0
 10
-274.97451740743782
 20
197.43966507386389
 30
0.0
 11
-274.9745174074381
 21
395.73532599636923
 31
0.0
  0
LINE
  5
2927
  8
0
 10
-351.17451740743672
 20
197.43966507386381
 30
0.0
 11
-351.17451740743741
 21
395.73532599636923
 31
0.0
  0
LINE
  5
292B
  8
0
 10
-617.87451740743904
 20
179.332337233369
 30
0.0
 11
-617.87451740743859
 21
395.73532599636923
 31
0.0
  0
LINE
  5
292C
  8
0
 10
-579.77451740743845
 20
197.43966507386369
 30
0.0
 11
-579.77451740743822
 21
395.73532599636923
 31
0.0
  0
LINE
  5
292D
  8
0
 10
-541.67451740743832
 20
179.33233723336889
 30
0.0
 11
-541.67451740743832
 21
395.73532599636923
 31
0.0
  0
LINE
  5
292E
  8
0
 10
-465.47451740743799
 20
179.33233723336889
 30
0.0
 11
-465.47451740743799
 21
395.73532599636923
 31
0.0
  0
LINE
  5
292F
  8
0
 10
-503.57451740743812
 20
197.43966507386381
 30
0.0
 11
-503.57451740743812
 21
395.73532599636923
 31
0.0
  0
LINE
  5
2930
  8
0
 10
-427.37451740743739
 20
197.43966507386389
 30
0.0
 11
-427.37451740743768
 21
395.73532599636923
 31
0.0
  0
POLYLINE
  5
2985
  8
0
 66
     1
 10
0.0
 20
0.0
 30
0.0
  0
VERTEX
  5
2987
  8
0
 10
290.10954648742091
 20
-162.83032587384241
 30
0.0
  0
VERTEX
  5
2988
  8
0
 10
292.25874545123111
 20
-161.0550806303288
 30
0.0
  0
VERTEX
  5
2989
  8
0
 10
294.47950646660018
 20
-159.42613326000881
 30
0.0
  0
VERTEX
  5
298A
  8
0
 10
296.79103667071308
 20
-158.03175431101559
 30
0.0
  0
VERTEX
  5
298B
  8
0
 10
299.21442167340803
 20
-156.93710167816039
 30
0.0
  0
VERTEX
  5
298C
  8
0
 10
301.72944240285261
 20
-156.1552069404058
 30
0.0
  0
VERTEX
  5
298D
  8
0
 10
304.30555361679791
 20
-155.6860700977538
 30
0.0
  0
VERTEX
  5
298E
  8
0
 10
306.91221007299208
 20
-155.5296911502044
 30
0.0
  0
VERTEX
  5
298F
  8
0
 10
309.51886652918688
 20
-155.6860700977538
 30
0.0
  0
VERTEX
  5
2990
  8
0
 10
312.09497774313132
 20
-156.1552069404058
 30
0.0
  0
VERTEX
  5
2991
  8
0
 10
314.60999847257631
 20
-156.93710167816039
 30
0.0
  0
VERTEX
  5
2992
  8
0
 10
317.03338347527028
 20
-158.03175431101559
 30
0.0
  0
VERTEX
  5
2993
  8
0
 10
319.34491367938313
 20
-159.42613326000881
 30
0.0
  0
VERTEX
  5
2994
  8
0
 10
321.56567469475232
 20
-161.0550806303288
 30
0.0
  0
VERTEX
  5
2995
  8
0
 10
323.72707830163313
 20
-162.84040694819831
 30
0.0
  0
VERTEX
  5
2996
  8
0
 10
325.86053628028299
 20
-164.70392273984339
 30
0.0
  0
VERTEX
  5
2997
  8
0
 10
327.99746041095642
 20
-166.5674385314903
 30
0.0
  0
VERTEX
  5
2998
  8
0
 10
330.16926247391001
 20
-168.3527648493598
 30
0.0
  0
VERTEX
  5
2999
  8
0
 10
332.40735424939999
 20
-169.98171221967979
 30
0.0
  0
VERTEX
  5
299A
  8
0
 10
334.74314751768247
 20
-171.37609116867469
 30
0.0
  0
VERTEX
  5
299B
  8
0
 10
337.19743904259229
 20
-172.47074380152819
 30
0.0
  0
VERTEX
  5
299C
  8
0
 10
339.7485655222892
 20
-173.25263853928271
 30
0.0
  0
VERTEX
  5
299D
  8
0
 10
342.36424863850948
 20
-173.7217753819348
 30
0.0
  0
VERTEX
  5
299E
  8
0
 10
345.0122100729921
 20
-173.8781543294842
 30
0.0
  0
VERTEX
  5
299F
  8
0
 10
347.66017150747462
 20
-173.7217753819348
 30
0.0
  0
VERTEX
  5
29A0
  8
0
 10
350.2758546236949
 20
-173.25263853928271
 30
0.0
  0
VERTEX
  5
29A1
  8
0
 10
352.82698110339078
 20
-172.47074380152819
 30
0.0
  0
VERTEX
  5
29A2
  8
0
 10
355.28127262830162
 20
-171.37609116867469
 30
0.0
  0
VERTEX
  5
29A3
  8
0
 10
357.6170658965832
 20
-169.98171221967979
 30
0.0
  0
VERTEX
  5
29A4
  8
0
 10
359.85515767207357
 20
-168.3527648493598
 30
0.0
  0
VERTEX
  5
29A5
  8
0
 10
362.02695973502728
 20
-166.5674385314903
 30
0.0
  0
VERTEX
  5
29A6
  8
0
 10
364.1638838657006
 20
-164.70392273984339
 30
0.0
  0
VERTEX
  5
29A7
  8
0
 10
366.29734184435011
 20
-162.84040694819831
 30
0.0
  0
VERTEX
  5
29A8
  8
0
 10
368.45874545123138
 20
-161.0550806303288
 30
0.0
  0
VERTEX
  5
29A9
  8
0
 10
370.67950646660051
 20
-159.42613326000881
 30
0.0
  0
VERTEX
  5
29AA
  8
0
 10
372.99103667071239
 20
-158.03175431101559
 30
0.0
  0
VERTEX
  5
29AB
  8
0
 10
375.41442167340779
 20
-156.93710167816039
 30
0.0
  0
VERTEX
  5
29AC
  8
0
 10
377.92944240285237
 20
-156.1552069404058
 30
0.0
  0
VERTEX
  5
29AD
  8
0
 10
380.50555361679682
 20
-155.6860700977538
 30
0.0
  0
VERTEX
  5
29AE
  8
0
 10
383.11221007299099
 20
-155.5296911502044
 30
0.0
  0
VERTEX
  5
29AF
  8
0
 10
385.71886652918579
 20
-155.6860700977538
 30
0.0
  0
VERTEX
  5
29B0
  8
0
 10
388.29497774313018
 20
-156.1552069404058
 30
0.0
  0
VERTEX
  5
29B1
  8
0
 10
390.80999847257522
 20
-156.93710167816039
 30
0.0
  0
VERTEX
  5
29B2
  8
0
 10
393.2333834752705
 20
-158.03175431101559
 30
0.0
  0
VERTEX
  5
29B3
  8
0
 10
395.5449136793834
 20
-159.42613326000881
 30
0.0
  0
VERTEX
  5
29B4
  8
0
 10
397.76567469475248
 20
-161.0550806303288
 30
0.0
  0
VERTEX
  5
29B5
  8
0
 10
399.9270783016334
 20
-162.84040694819831
 30
0.0
  0
VERTEX
  5
29B6
  8
0
 10
402.0605362802828
 20
-164.70392273984339
 30
0.0
  0
VERTEX
  5
29B7
  8
0
 10
404.19746041095658
 20
-166.5674385314903
 30
0.0
  0
VERTEX
  5
29B8
  8
0
 10
406.36926247391079
 20
-168.3527648493598
 30
0.0
  0
VERTEX
  5
29B9
  8
0
 10
408.6073542494002
 20
-169.98171221967979
 30
0.0
  0
VERTEX
  5
29BA
  8
0
 10
410.94314751768178
 20
-171.37609116867469
 30
0.0
  0
VERTEX
  5
29BB
  8
0
 10
413.39743904259262
 20
-172.47074380152819
 30
0.0
  0
VERTEX
  5
29BC
  8
0
 10
415.94856552228907
 20
-173.25263853928271
 30
0.0
  0
VERTEX
  5
29BD
  8
0
 10
418.56424863850879
 20
-173.7217753819348
 30
0.0
  0
VERTEX
  5
29BE
  8
0
 10
421.21221007299141
 20
-173.8781543294842
 30
0.0
  0
VERTEX
  5
29BF
  8
0
 10
423.86017150747392
 20
-173.7217753819348
 30
0.0
  0
VERTEX
  5
29C0
  8
0
 10
426.4758546236942
 20
-173.25263853928271
 30
0.0
  0
VERTEX
  5
29C1
  8
0
 10
429.02698110339111
 20
-172.47074380152819
 30
0.0
  0
VERTEX
  5
29C2
  8
0
 10
431.48127262830093
 20
-171.37609116867469
 30
0.0
  0
VERTEX
  5
29C3
  8
0
 10
433.81706589658302
 20
-169.98171221967979
 30
0.0
  0
VERTEX
  5
29C4
  8
0
 10
436.05515767207288
 20
-168.3527648493598
 30
0.0
  0
VERTEX
  5
29C5
  8
0
 10
438.22695973502658
 20
-166.5674385314903
 30
0.0
  0
VERTEX
  5
29C6
  8
0
 10
440.36388386570002
 20
-164.70392273984339
 30
0.0
  0
VERTEX
  5
29C7
  8
0
 10
442.49734184434988
 20
-162.84040694819831
 30
0.0
  0
VERTEX
  5
29C8
  8
0
 10
444.65874545123069
 20
-161.0550806303288
 30
0.0
  0
VERTEX
  5
29C9
  8
0
 10
446.87950646659982
 20
-159.42613326000881
 30
0.0
  0
VERTEX
  5
29CA
  8
0
 10
449.19103667071272
 20
-158.03175431101559
 30
0.0
  0
VERTEX
  5
29CB
  8
0
 10
451.61442167340749
 20
-156.93710167816039
 30
0.0
  0
VERTEX
  5
29CC
  8
0
 10
454.12944240285219
 20
-156.1552069404058
 30
0.0
  0
VERTEX
  5
29CD
  8
0
 10
456.70555361679737
 20
-155.6860700977538
 30
0.0
  0
VERTEX
  5
29CE
  8
0
 10
459.31221007299172
 20
-155.5296911502044
 30
0.0
  0
VERTEX
  5
29CF
  8
0
 10
461.91886652918652
 20
-155.6860700977538
 30
0.0
  0
VERTEX
  5
29D0
  8
0
 10
464.4949777431309
 20
-156.1552069404058
 30
0.0
  0
VERTEX
  5
29D1
  8
0
 10
467.00999847257589
 20
-156.93710167816039
 30
0.0
  0
VERTEX
  5
29D2
  8
0
 10
469.43338347527077
 20
-158.03175431101559
 30
0.0
  0
VERTEX
  5
29D3
  8
0
 10
471.74491367938322
 20
-159.42613326000881
 30
0.0
  0
VERTEX
  5
29D4
  8
0
 10
473.96567469475229
 20
-161.0550806303288
 30
0.0
  0
VERTEX
  5
29D5
  8
0
 10
476.12707830163362
 20
-162.84040694819831
 30
0.0
  0
VERTEX
  5
29D6
  8
0
 10
478.26053628028302
 20
-164.70392273984339
 30
0.0
  0
VERTEX
  5
29D7
  8
0
 10
480.3974604109564
 20
-166.5674385314903
 30
0.0
  0
VERTEX
  5
29D8
  8
0
 10
482.5692624739101
 20
-168.3527648493598
 30
0.0
  0
VERTEX
  5
29D9
  8
0
 10
484.80735424940048
 20
-169.98171221967979
 30
0.0
  0
VERTEX
  5
29DA
  8
0
 10
487.14314751768262
 20
-171.37609116867469
 30
0.0
  0
VERTEX
  5
29DB
  8
0
 10
489.59743904259278
 20
-172.47074380152819
 30
0.0
  0
VERTEX
  5
29DC
  8
0
 10
492.14856552228969
 20
-173.25263853928271
 30
0.0
  0
VERTEX
  5
29DD
  8
0
 10
494.76424863850951
 20
-173.7217753819348
 30
0.0
  0
VERTEX
  5
29DE
  8
0
 10
497.41221007299208
 20
-173.8781543294842
 30
0.0
  0
VERTEX
  5
29DF
  8
0
 10
500.06017150747471
 20
-173.7217753819348
 30
0.0
  0
VERTEX
  5
29E0
  8
0
 10
502.67585462369487
 20
-173.25263853928271
 30
0.0
  0
VERTEX
  5
29E1
  8
0
 10
505.22698110339132
 20
-172.47074380152819
 30
0.0
  0
VERTEX
  5
29E2
  8
0
 10
507.68127262830171
 20
-171.37609116867469
 30
0.0
  0
VERTEX
  5
29E3
  8
0
 10
510.01706589658369
 20
-169.98171221967979
 30
0.0
  0
VERTEX
  5
29E4
  8
0
 10
512.25515767207355
 20
-168.3527648493598
 30
0.0
  0
VERTEX
  5
29E5
  8
0
 10
514.42695973502725
 20
-166.5674385314903
 30
0.0
  0
VERTEX
  5
29E6
  8
0
 10
516.56388386570075
 20
-164.70392273984339
 30
0.0
  0
VERTEX
  5
29E7
  8
0
 10
518.69734184434958
 20
-162.84040694819831
 30
0.0
  0
VERTEX
  5
29E8
  8
0
 10
520.85874545123102
 20
-161.0550806303288
 30
0.0
  0
VERTEX
  5
29E9
  8
0
 10
523.07950646660015
 20
-159.42613326000881
 30
0.0
  0
VERTEX
  5
29EA
  8
0
 10
525.39103667071254
 20
-158.03175431101559
 30
0.0
  0
VERTEX
  5
29EB
  8
0
 10
527.81442167340776
 20
-156.93710167816039
 30
0.0
  0
VERTEX
  5
29EC
  8
0
 10
530.32944240285235
 20
-156.1552069404058
 30
0.0
  0
VERTEX
  5
29ED
  8
0
 10
532.90555361679731
 20
-155.6860700977538
 30
0.0
  0
VERTEX
  5
29EE
  8
0
 10
535.51221007299205
 20
-155.5296911502044
 30
0.0
  0
VERTEX
  5
29EF
  8
0
 10
538.11886652918668
 20
-155.6860700977538
 30
0.0
  0
VERTEX
  5
29F0
  8
0
 10
540.69497774313118
 20
-156.1552069404058
 30
0.0
  0
VERTEX
  5
29F1
  8
0
 10
543.20999847257622
 20
-156.93710167816039
 30
0.0
  0
VERTEX
  5
29F2
  8
0
 10
545.63338347527144
 20
-158.03175431101559
 30
0.0
  0
VERTEX
  5
29F3
  8
0
 10
547.94491367938394
 20
-159.42613326000881
 30
0.0
  0
VERTEX
  5
29F4
  8
0
 10
550.16567469475308
 20
-161.0550806303288
 30
0.0
  0
VERTEX
  5
29F5
  8
0
 10
552.3270783016344
 20
-162.84040694819831
 30
0.0
  0
VERTEX
  5
29F6
  8
0
 10
554.4605362802838
 20
-164.70392273984339
 30
0.0
  0
VERTEX
  5
29F7
  8
0
 10
556.59746041095707
 20
-166.5674385314903
 30
0.0
  0
VERTEX
  5
29F8
  8
0
 10
558.76926247391077
 20
-168.3527648493598
 30
0.0
  0
VERTEX
  5
29F9
  8
0
 10
561.00735424940035
 20
-169.98171221967979
 30
0.0
  0
VERTEX
  5
29FA
  8
0
 10
563.34314751768227
 20
-171.37609116867469
 30
0.0
  0
VERTEX
  5
29FB
  8
0
 10
565.79743904259215
 20
-172.47074380152819
 30
0.0
  0
VERTEX
  5
29FC
  8
0
 10
568.34856552228916
 20
-173.25263853928271
 30
0.0
  0
VERTEX
  5
29FD
  8
0
 10
570.96424863850928
 20
-173.7217753819348
 30
0.0
  0
VERTEX
  5
29FE
  8
0
 10
573.61221007299196
 20
-173.8781543294842
 30
0.0
  0
VERTEX
  5
29FF
  8
0
 10
576.26017150747452
 20
-173.7217753819348
 30
0.0
  0
VERTEX
  5
2A00
  8
0
 10
578.8758546236952
 20
-173.25263853928271
 30
0.0
  0
VERTEX
  5
2A01
  8
0
 10
581.4269811033912
 20
-172.47074380152819
 30
0.0
  0
VERTEX
  5
2A02
  8
0
 10
583.88127262830153
 20
-171.37609116867469
 30
0.0
  0
VERTEX
  5
2A03
  8
0
 10
586.22078478885908
 20
-169.98171221967979
 30
0.0
  0
VERTEX
  5
2A04
  8
0
 10
588.48490881028033
 20
-168.3527648493598
 30
0.0
  0
VERTEX
  5
2A05
  8
0
 10
590.72736982647643
 20
-166.5674385314903
 30
0.0
  0
VERTEX
  5
2A06
  8
0
 10
593.00189297135898
 20
-164.70392273984339
 30
0.0
  0
VERTEX
  5
2A07
  8
0
 10
595.36220337883901
 20
-162.84040694819831
 30
0.0
  0
VERTEX
  5
2A08
  8
0
 10
597.86202618282834
 20
-161.0550806303288
 30
0.0
  0
VERTEX
  5
2A09
  8
0
 10
600.55508651723915
 20
-159.42613326000881
 30
0.0
  0
VERTEX
  5
2A0A
  8
0
 10
603.49510951598063
 20
-158.03175431101559
 30
0.0
  0
VERTEX
  5
2A0B
  8
0
 10
606.72221437935218
 20
-156.9544914707746
 30
0.0
  0
VERTEX
  5
2A0C
  8
0
 10
610.22209657318922
 20
-156.29432528132901
 30
0.0
  0
VERTEX
  5
2A0D
  8
0
 10
613.96684562971382
 20
-156.15559449836991
 30
0.0
  0
VERTEX
  5
2A0E
  8
0
 10
617.92855108114895
 20
-156.64263787758841
 30
0.0
  0
VERTEX
  5
2A0F
  8
0
 10
622.07930245971568
 20
-157.85979417467911
 30
0.0
  0
VERTEX
  5
2A10
  8
0
 10
624.99999999999977
 20
-159.24947033705249
 30
0.0
  0
SEQEND
  5
2986
  8
0
  0
POLYLINE
  5
2A11
  8
0
 66
     1
 10
0.0
 20
0.0
 30
0.0
  0
VERTEX
  5
2A13
  8
0
 10
-290.10954648742131
 20
-162.83032587384241
 30
0.0
  0
VERTEX
  5
2A14
  8
0
 10
-292.25874545123162
 20
-161.0550806303288
 30
0.0
  0
VERTEX
  5
2A15
  8
0
 10
-294.4795064666007
 20
-159.42613326000881
 30
0.0
  0
VERTEX
  5
2A16
  8
0
 10
-296.79103667071348
 20
-158.03175431101559
 30
0.0
  0
VERTEX
  5
2A17
  8
0
 10
-299.21442167340842
 20
-156.93710167816039
 30
0.0
  0
VERTEX
  5
2A18
  8
0
 10
-301.72944240285301
 20
-156.1552069404058
 30
0.0
  0
VERTEX
  5
2A19
  8
0
 10
-304.30555361679831
 20
-155.6860700977538
 30
0.0
  0
VERTEX
  5
2A1A
  8
0
 10
-306.91221007299259
 20
-155.5296911502044
 30
0.0
  0
VERTEX
  5
2A1B
  8
0
 10
-309.51886652918728
 20
-155.6860700977538
 30
0.0
  0
VERTEX
  5
2A1C
  8
0
 10
-312.09497774313172
 20
-156.1552069404058
 30
0.0
  0
VERTEX
  5
2A1D
  8
0
 10
-314.60999847257682
 20
-156.93710167816039
 30
0.0
  0
VERTEX
  5
2A1E
  8
0
 10
-317.03338347527068
 20
-158.03175431101559
 30
0.0
  0
VERTEX
  5
2A1F
  8
0
 10
-319.34491367938358
 20
-159.42613326000881
 30
0.0
  0
VERTEX
  5
2A20
  8
0
 10
-321.56567469475272
 20
-161.0550806303288
 30
0.0
  0
VERTEX
  5
2A21
  8
0
 10
-323.72707830163358
 20
-162.84040694819831
 30
0.0
  0
VERTEX
  5
2A22
  8
0
 10
-325.8605362802835
 20
-164.70392273984339
 30
0.0
  0
VERTEX
  5
2A23
  8
0
 10
-327.99746041095682
 20
-166.5674385314903
 30
0.0
  0
VERTEX
  5
2A24
  8
0
 10
-330.16926247391052
 20
-168.3527648493598
 30
0.0
  0
VERTEX
  5
2A25
  8
0
 10
-332.4073542494005
 20
-169.98171221967979
 30
0.0
  0
VERTEX
  5
2A26
  8
0
 10
-334.74314751768293
 20
-171.37609116867469
 30
0.0
  0
VERTEX
  5
2A27
  8
0
 10
-337.1974390425928
 20
-172.47074380152819
 30
0.0
  0
VERTEX
  5
2A28
  8
0
 10
-339.74856552228971
 20
-173.25263853928271
 30
0.0
  0
VERTEX
  5
2A29
  8
0
 10
-342.36424863850988
 20
-173.7217753819348
 30
0.0
  0
VERTEX
  5
2A2A
  8
0
 10
-345.0122100729925
 20
-173.8781543294842
 30
0.0
  0
VERTEX
  5
2A2B
  8
0
 10
-347.66017150747513
 20
-173.7217753819348
 30
0.0
  0
VERTEX
  5
2A2C
  8
0
 10
-350.2758546236953
 20
-173.25263853928271
 30
0.0
  0
VERTEX
  5
2A2D
  8
0
 10
-352.82698110339129
 20
-172.47074380152819
 30
0.0
  0
VERTEX
  5
2A2E
  8
0
 10
-355.28127262830208
 20
-171.37609116867469
 30
0.0
  0
VERTEX
  5
2A2F
  8
0
 10
-357.6170658965836
 20
-169.98171221967979
 30
0.0
  0
VERTEX
  5
2A30
  8
0
 10
-359.85515767207397
 20
-168.3527648493598
 30
0.0
  0
VERTEX
  5
2A31
  8
0
 10
-362.02695973502767
 20
-166.5674385314903
 30
0.0
  0
VERTEX
  5
2A32
  8
0
 10
-364.16388386570111
 20
-164.70392273984339
 30
0.0
  0
VERTEX
  5
2A33
  8
0
 10
-366.29734184435051
 20
-162.84040694819831
 30
0.0
  0
VERTEX
  5
2A34
  8
0
 10
-368.45874545123178
 20
-161.0550806303288
 30
0.0
  0
VERTEX
  5
2A35
  8
0
 10
-370.67950646660103
 20
-159.42613326000881
 30
0.0
  0
VERTEX
  5
2A36
  8
0
 10
-372.9910366707129
 20
-158.03175431101559
 30
0.0
  0
VERTEX
  5
2A37
  8
0
 10
-375.41442167340819
 20
-156.93710167816039
 30
0.0
  0
VERTEX
  5
2A38
  8
0
 10
-377.92944240285283
 20
-156.1552069404058
 30
0.0
  0
VERTEX
  5
2A39
  8
0
 10
-380.50555361679721
 20
-155.6860700977538
 30
0.0
  0
VERTEX
  5
2A3A
  8
0
 10
-383.1122100729915
 20
-155.5296911502044
 30
0.0
  0
VERTEX
  5
2A3B
  8
0
 10
-385.71886652918619
 20
-155.6860700977538
 30
0.0
  0
VERTEX
  5
2A3C
  8
0
 10
-388.29497774313057
 20
-156.1552069404058
 30
0.0
  0
VERTEX
  5
2A3D
  8
0
 10
-390.80999847257573
 20
-156.93710167816039
 30
0.0
  0
VERTEX
  5
2A3E
  8
0
 10
-393.23338347527101
 20
-158.03175431101559
 30
0.0
  0
VERTEX
  5
2A3F
  8
0
 10
-395.54491367938391
 20
-159.42613326000881
 30
0.0
  0
VERTEX
  5
2A40
  8
0
 10
-397.76567469475299
 20
-161.0550806303288
 30
0.0
  0
VERTEX
  5
2A41
  8
0
 10
-399.9270783016338
 20
-162.84040694819831
 30
0.0
  0
VERTEX
  5
2A42
  8
0
 10
-402.0605362802832
 20
-164.70392273984339
 30
0.0
  0
VERTEX
  5
2A43
  8
0
 10
-404.19746041095698
 20
-166.5674385314903
 30
0.0
  0
VERTEX
  5
2A44
  8
0
 10
-406.36926247391119
 20
-168.3527648493598
 30
0.0
  0
VERTEX
  5
2A45
  8
0
 10
-408.6073542494006
 20
-169.98171221967979
 30
0.0
  0
VERTEX
  5
2A46
  8
0
 10
-410.94314751768229
 20
-171.37609116867469
 30
0.0
  0
VERTEX
  5
2A47
  8
0
 10
-413.39743904259302
 20
-172.47074380152819
 30
0.0
  0
VERTEX
  5
2A48
  8
0
 10
-415.94856552228953
 20
-173.25263853928271
 30
0.0
  0
VERTEX
  5
2A49
  8
0
 10
-418.56424863850918
 20
-173.7217753819348
 30
0.0
  0
VERTEX
  5
2A4A
  8
0
 10
-421.21221007299181
 20
-173.8781543294842
 30
0.0
  0
VERTEX
  5
2A4B
  8
0
 10
-423.86017150747438
 20
-173.7217753819348
 30
0.0
  0
VERTEX
  5
2A4C
  8
0
 10
-426.4758546236946
 20
-173.25263853928271
 30
0.0
  0
VERTEX
  5
2A4D
  8
0
 10
-429.02698110339151
 20
-172.47074380152819
 30
0.0
  0
VERTEX
  5
2A4E
  8
0
 10
-431.48127262830138
 20
-171.37609116867469
 30
0.0
  0
VERTEX
  5
2A4F
  8
0
 10
-433.81706589658341
 20
-169.98171221967979
 30
0.0
  0
VERTEX
  5
2A50
  8
0
 10
-436.05515767207339
 20
-168.3527648493598
 30
0.0
  0
VERTEX
  5
2A51
  8
0
 10
-438.22695973502709
 20
-166.5674385314903
 30
0.0
  0
VERTEX
  5
2A52
  8
0
 10
-440.36388386570047
 20
-164.70392273984339
 30
0.0
  0
VERTEX
  5
2A53
  8
0
 10
-442.49734184435027
 20
-162.84040694819831
 30
0.0
  0
VERTEX
  5
2A54
  8
0
 10
-444.6587454512312
 20
-161.0550806303288
 30
0.0
  0
VERTEX
  5
2A55
  8
0
 10
-446.87950646660028
 20
-159.42613326000881
 30
0.0
  0
VERTEX
  5
2A56
  8
0
 10
-449.19103667071317
 20
-158.03175431101559
 30
0.0
  0
VERTEX
  5
2A57
  8
0
 10
-451.61442167340812
 20
-156.93710167816039
 30
0.0
  0
VERTEX
  5
2A58
  8
0
 10
-454.12944240285259
 20
-156.1552069404058
 30
0.0
  0
VERTEX
  5
2A59
  8
0
 10
-456.70555361679789
 20
-155.6860700977538
 30
0.0
  0
VERTEX
  5
2A5A
  8
0
 10
-459.31221007299217
 20
-155.5296911502044
 30
0.0
  0
VERTEX
  5
2A5B
  8
0
 10
-461.91886652918691
 20
-155.6860700977538
 30
0.0
  0
VERTEX
  5
2A5C
  8
0
 10
-464.4949777431313
 20
-156.1552069404058
 30
0.0
  0
VERTEX
  5
2A5D
  8
0
 10
-467.0099984725764
 20
-156.93710167816039
 30
0.0
  0
VERTEX
  5
2A5E
  8
0
 10
-469.43338347527123
 20
-158.03175431101559
 30
0.0
  0
VERTEX
  5
2A5F
  8
0
 10
-471.74491367938361
 20
-159.42613326000881
 30
0.0
  0
VERTEX
  5
2A60
  8
0
 10
-473.96567469475269
 20
-161.0550806303288
 30
0.0
  0
VERTEX
  5
2A61
  8
0
 10
-476.12707830163413
 20
-162.84040694819831
 30
0.0
  0
VERTEX
  5
2A62
  8
0
 10
-478.26053628028347
 20
-164.70392273984339
 30
0.0
  0
VERTEX
  5
2A63
  8
0
 10
-480.3974604109568
 20
-166.5674385314903
 30
0.0
  0
VERTEX
  5
2A64
  8
0
 10
-482.5692624739105
 20
-168.3527648493598
 30
0.0
  0
VERTEX
  5
2A65
  8
0
 10
-484.80735424940099
 20
-169.98171221967979
 30
0.0
  0
VERTEX
  5
2A66
  8
0
 10
-487.14314751768302
 20
-171.37609116867469
 30
0.0
  0
VERTEX
  5
2A67
  8
0
 10
-489.59743904259329
 20
-172.47074380152819
 30
0.0
  0
VERTEX
  5
2A68
  8
0
 10
-492.1485655222902
 20
-173.25263853928271
 30
0.0
  0
VERTEX
  5
2A69
  8
0
 10
-494.76424863851003
 20
-173.7217753819348
 30
0.0
  0
VERTEX
  5
2A6A
  8
0
 10
-497.41221007299259
 20
-173.8781543294842
 30
0.0
  0
VERTEX
  5
2A6B
  8
0
 10
-500.0601715074751
 20
-173.7217753819348
 30
0.0
  0
VERTEX
  5
2A6C
  8
0
 10
-502.67585462369539
 20
-173.25263853928271
 30
0.0
  0
VERTEX
  5
2A6D
  8
0
 10
-505.22698110339178
 20
-172.47074380152819
 30
0.0
  0
VERTEX
  5
2A6E
  8
0
 10
-507.68127262830211
 20
-171.37609116867469
 30
0.0
  0
VERTEX
  5
2A6F
  8
0
 10
-510.0170658965842
 20
-169.98171221967979
 30
0.0
  0
VERTEX
  5
2A70
  8
0
 10
-512.25515767207412
 20
-168.3527648493598
 30
0.0
  0
VERTEX
  5
2A71
  8
0
 10
-514.42695973502782
 20
-166.5674385314903
 30
0.0
  0
VERTEX
  5
2A72
  8
0
 10
-516.56388386570109
 20
-164.70392273984339
 30
0.0
  0
VERTEX
  5
2A73
  8
0
 10
-518.69734184435015
 20
-162.84040694819831
 30
0.0
  0
VERTEX
  5
2A74
  8
0
 10
-520.85874545123136
 20
-161.0550806303288
 30
0.0
  0
VERTEX
  5
2A75
  8
0
 10
-523.07950646660061
 20
-159.42613326000881
 30
0.0
  0
VERTEX
  5
2A76
  8
0
 10
-525.39103667071288
 20
-158.03175431101559
 30
0.0
  0
VERTEX
  5
2A77
  8
0
 10
-527.81442167340833
 20
-156.93710167816039
 30
0.0
  0
VERTEX
  5
2A78
  8
0
 10
-530.32944240285281
 20
-156.1552069404058
 30
0.0
  0
VERTEX
  5
2A79
  8
0
 10
-532.90555361679765
 20
-155.6860700977538
 30
0.0
  0
VERTEX
  5
2A7A
  8
0
 10
-535.5122100729925
 20
-155.5296911502044
 30
0.0
  0
VERTEX
  5
2A7B
  8
0
 10
-538.11886652918724
 20
-155.6860700977538
 30
0.0
  0
VERTEX
  5
2A7C
  8
0
 10
-540.69497774313163
 20
-156.1552069404058
 30
0.0
  0
VERTEX
  5
2A7D
  8
0
 10
-543.20999847257656
 20
-156.93710167816039
 30
0.0
  0
VERTEX
  5
2A7E
  8
0
 10
-545.63338347527201
 20
-158.03175431101559
 30
0.0
  0
VERTEX
  5
2A7F
  8
0
 10
-547.9449136793844
 20
-159.42613326000881
 30
0.0
  0
VERTEX
  5
2A80
  8
0
 10
-550.16567469475353
 20
-161.0550806303288
 30
0.0
  0
VERTEX
  5
2A81
  8
0
 10
-552.32707830163486
 20
-162.84040694819831
 30
0.0
  0
VERTEX
  5
2A82
  8
0
 10
-554.46053628028415
 20
-164.70392273984339
 30
0.0
  0
VERTEX
  5
2A83
  8
0
 10
-556.59746041095764
 20
-166.5674385314903
 30
0.0
  0
VERTEX
  5
2A84
  8
0
 10
-558.76926247391134
 20
-168.3527648493598
 30
0.0
  0
VERTEX
  5
2A85
  8
0
 10
-561.00735424940069
 20
-169.98171221967979
 30
0.0
  0
VERTEX
  5
2A86
  8
0
 10
-563.34314751768284
 20
-171.37609116867469
 30
0.0
  0
VERTEX
  5
2A87
  8
0
 10
-565.79743904259271
 20
-172.47074380152819
 30
0.0
  0
VERTEX
  5
2A88
  8
0
 10
-568.34856552228962
 20
-173.25263853928271
 30
0.0
  0
VERTEX
  5
2A89
  8
0
 10
-570.96424863850984
 20
-173.7217753819348
 30
0.0
  0
VERTEX
  5
2A8A
  8
0
 10
-573.6122100729923
 20
-173.8781543294842
 30
0.0
  0
VERTEX
  5
2A8B
  8
0
 10
-576.26017150747487
 20
-173.7217753819348
 30
0.0
  0
VERTEX
  5
2A8C
  8
0
 10
-578.87585462369555
 20
-173.25263853928271
 30
0.0
  0
VERTEX
  5
2A8D
  8
0
 10
-581.42698110339165
 20
-172.47074380152819
 30
0.0
  0
VERTEX
  5
2A8E
  8
0
 10
-583.88127262830199
 20
-171.37609116867469
 30
0.0
  0
VERTEX
  5
2A8F
  8
0
 10
-586.22078478885965
 20
-169.98171221967979
 30
0.0
  0
VERTEX
  5
2A90
  8
0
 10
-588.48490881028067
 20
-168.3527648493598
 30
0.0
  0
VERTEX
  5
2A91
  8
0
 10
-590.72736982647677
 20
-166.5674385314903
 30
0.0
  0
VERTEX
  5
2A92
  8
0
 10
-593.00189297135944
 20
-164.70392273984339
 30
0.0
  0
VERTEX
  5
2A93
  8
0
 10
-595.36220337883935
 20
-162.84040694819831
 30
0.0
  0
VERTEX
  5
2A94
  8
0
 10
-597.86202618282891
 20
-161.0550806303288
 30
0.0
  0
VERTEX
  5
2A95
  8
0
 10
-600.55508651723972
 20
-159.42613326000881
 30
0.0
  0
VERTEX
  5
2A96
  8
0
 10
-603.49510951598108
 20
-158.03175431101559
 30
0.0
  0
VERTEX
  5
2A97
  8
0
 10
-606.72221437935264
 20
-156.9544914707746
 30
0.0
  0
VERTEX
  5
2A98
  8
0
 10
-610.22209657318967
 20
-156.29432528132901
 30
0.0
  0
VERTEX
  5
2A99
  8
0
 10
-613.96684562971416
 20
-156.15559449836991
 30
0.0
  0
VERTEX
  5
2A9A
  8
0
 10
-617.92855108114941
 20
-156.64263787758841
 30
0.0
  0
VERTEX
  5
2A9B
  8
0
 10
-622.07930245971625
 20
-157.85979417467911
 30
0.0
  0
VERTEX
  5
2A9C
  8
0
 10
-625.00000000000023
 20
-159.24947033705249
 30
0.0
  0
SEQEND
  5
2A12
  8
0
  0
POLYLINE
  5
2A9E
  8
0
 66
     1
 10
0.0
 20
0.0
 30
0.0
  0
VERTEX
  5
3F72
  8
0
 10
-645.00000000000023
 20
395.73532599636923
 30
0.0
  0
VERTEX
  5
3F73
  8
0
 10
-9.9999999999984084
 20
395.73532599636923
 30
0.0
  0
VERTEX
  5
3F74
  8
0
 10
-5.0000000000002274
 20
381.9979388990929
 30
0.0
  0
VERTEX
  5
3F75
  8
0
 10
4.9999999999997717
 20
409.47271309364669
 30
0.0
  0
VERTEX
  5
3F76
  8
0
 10
10.00000000000159
 20
395.73532599636923
 30
0.0
  0
VERTEX
  5
3F77
  8
0
 10
644.99999999999966
 20
395.73532599636923
 30
0.0
  0
SEQEND
  5
3F78
  8
0
  0
INSERT
  5
2AA0
  8
0
  6
CONTINUOUS
  2
*U10
 10
0.0
 20
0.0
 30
0.0
  0
INSERT
  5
2AA1
  8
0
  6
CONTINUOUS
  2
*U11
 10
0.0
 20
0.0
 30
0.0
  0
INSERT
  5
2AA2
  8
0
  6
CONTINUOUS
  2
*U12
 10
0.0
 20
0.0
 30
0.0
  0
INSERT
  5
2AA3
  8
0
  6
CONTINUOUS
  2
*U13
 10
0.0
 20
0.0
 30
0.0
  0
INSERT
  5
2AA4
  8
0
  6
CONTINUOUS
  2
*U14
 10
0.0
 20
0.0
 30
0.0
  0
INSERT
  5
2AA5
  8
0
  6
CONTINUOUS
  2
*U15
 10
0.0
 20
0.0
 30
0.0
  0
INSERT
  5
2AFE
  8
0
  6
CONTINUOUS
  2
*U16
 10
0.0
 20
0.0
 30
0.0
  0
LINE
  5
2AFF
  8
0
 10
611.71221007299175
 20
-175.91536428073161
 30
0.0
 11
611.71221007299175
 21
-484.43298945941319
 31
0.0
  0
LINE
  5
2B00
  8
0
 10
-611.71221007299232
 20
-185.91536428073371
 30
0.0
 11
-611.71221007299232
 21
-484.43298945941319
 31
0.0
  0
ENDSEC
  0
EOF
