  0
SECTION
  2
HEADER
  9
$ACADVER
  1
AC1009
  9
$INSBASE
 10
0.0
 20
0.0
 30
0.0
  9
$EXTMIN
 10
-192.52308750297331
 20
-415.02151770817261
 30
-0.0015258207003583
  9
$EXTMAX
 10
139.36619955313401
 20
37.07939522001675
 30
0.0000000349246037
  9
$LIMMIN
 10
0.0
 20
0.0
  9
$LIMMAX
 10
12.0
 20
9.0
  9
$ORTHOMODE
 70
     0
  9
$REGENMODE
 70
     1
  9
$FILLMODE
 70
     1
  9
$QTEXTMODE
 70
     0
  9
$MIRRTEXT
 70
     0
  9
$DRAGMODE
 70
     2
  9
$LTSCALE
 40
0.5
  9
$OSMODE
 70
     0
  9
$ATTMODE
 70
     1
  9
$TEXTSIZE
 40
1.5
  9
$TRACEWID
 40
0.05
  9
$TEXTSTYLE
  7
ARIAL
  9
$CLAYER
  8
0
  9
$CELTYPE
  6
CONTINUOUS
  9
$CECOLOR
 62
   256
  9
$DIMSCALE
 40
2.0
  9
$DIMASZ
 40
3.0
  9
$DIMEXO
 40
2.0
  9
$DIMDLI
 40
6.0
  9
$DIMRND
 40
0.0
  9
$DIMDLE
 40
2.0
  9
$DIMEXE
 40
2.0
  9
$DIMTP
 40
0.0
  9
$DIMTM
 40
0.0
  9
$DIMTXT
 40
2.5
  9
$DIMCEN
 40
2.0
  9
$DIMTSZ
 40
0.0
  9
$DIMTOL
 70
     0
  9
$DIMLIM
 70
     0
  9
$DIMTIH
 70
     0
  9
$DIMTOH
 70
     0
  9
$DIMSE1
 70
     0
  9
$DIMSE2
 70
     0
  9
$DIMTAD
 70
     1
  9
$DIMZIN
 70
     0
  9
$DIMBLK
  1

  9
$DIMASO
 70
     1
  9
$DIMSHO
 70
     1
  9
$DIMPOST
  1
mm
  9
$DIMAPOST
  1

  9
$DIMALT
 70
     0
  9
$DIMALTD
 70
     2
  9
$DIMALTF
 40
0.0394
  9
$DIMLFAC
 40
1.0
  9
$DIMTOFL
 70
     0
  9
$DIMTVP
 40
0.0
  9
$DIMTIX
 70
     0
  9
$DIMSOXD
 70
     0
  9
$DIMSAH
 70
     0
  9
$DIMBLK1
  1

  9
$DIMBLK2
  1

  9
$DIMSTYLE
  2
STANDARD
  9
$DIMCLRD
 70
     0
  9
$DIMCLRE
 70
     0
  9
$DIMCLRT
 70
     0
  9
$DIMTFAC
 40
1.0
  9
$DIMGAP
 40
1.0
  9
$LUNITS
 70
     2
  9
$LUPREC
 70
     1
  9
$SKETCHINC
 40
0.1
  9
$FILLETRAD
 40
0.0
  9
$AUNITS
 70
     1
  9
$AUPREC
 70
     4
  9
$MENU
  1
.
  9
$ELEVATION
 40
0.0
  9
$PELEVATION
 40
0.0
  9
$THICKNESS
 40
0.0
  9
$LIMCHECK
 70
     0
  9
$BLIPMODE
 70
     0
  9
$CHAMFERA
 40
0.0
  9
$CHAMFERB
 40
0.0
  9
$SKPOLY
 70
     0
  9
$TDCREATE
 40
2452152.65359294
  9
$TDUPDATE
 40
2455936.539816794
  9
$TDINDWG
 40
13.8549366667
  9
$TDUSRTIMER
 40
13.8549366667
  9
$USRTIMER
 70
     1
  9
$ANGBASE
 50
0.0
  9
$ANGDIR
 70
     0
  9
$PDMODE
 70
     3
  9
$PDSIZE
 40
0.0
  9
$PLINEWID
 40
0.0
  9
$COORDS
 70
     1
  9
$SPLFRAME
 70
     0
  9
$SPLINETYPE
 70
     6
  9
$SPLINESEGS
 70
     8
  9
$ATTDIA
 70
     0
  9
$ATTREQ
 70
     1
  9
$HANDLING
 70
     1
  9
$HANDSEED
  5
DEF
  9
$SURFTAB1
 70
     6
  9
$SURFTAB2
 70
     6
  9
$SURFTYPE
 70
     6
  9
$SURFU
 70
     6
  9
$SURFV
 70
     6
  9
$UCSNAME
  2

  9
$UCSORG
 10
0.0
 20
0.0
 30
0.0
  9
$UCSXDIR
 10
1.0
 20
0.0
 30
0.0
  9
$UCSYDIR
 10
0.0
 20
1.0
 30
0.0
  9
$PUCSNAME
  2

  9
$PUCSORG
 10
0.0
 20
0.0
 30
0.0
  9
$PUCSXDIR
 10
1.0
 20
0.0
 30
0.0
  9
$PUCSYDIR
 10
0.0
 20
1.0
 30
0.0
  9
$USERI1
 70
     0
  9
$USERI2
 70
     0
  9
$USERI3
 70
     0
  9
$USERI4
 70
     0
  9
$USERI5
 70
     0
  9
$USERR1
 40
0.0
  9
$USERR2
 40
0.0
  9
$USERR3
 40
0.0
  9
$USERR4
 40
0.0
  9
$USERR5
 40
0.0
  9
$WORLDVIEW
 70
     1
  9
$SHADEDGE
 70
     3
  9
$SHADEDIF
 70
    70
  9
$TILEMODE
 70
     1
  9
$MAXACTVP
 70
    48
  9
$PLIMCHECK
 70
     0
  9
$PEXTMIN
 10
0.0
 20
0.0
 30
0.0
  9
$PEXTMAX
 10
0.0
 20
0.0
 30
0.0
  9
$PLIMMIN
 10
0.0
 20
0.0
  9
$PLIMMAX
 10
12.0
 20
9.0
  9
$UNITMODE
 70
     0
  9
$VISRETAIN
 70
     1
  9
$PLINEGEN
 70
     1
  9
$PSLTSCALE
 70
     1
  0
ENDSEC
  0
SECTION
  2
TABLES
  0
TABLE
  2
VPORT
 70
     1
  0
VPORT
  2
*ACTIVE
 70
     0
 10
0.0
 20
0.0
 11
1.0
 21
1.0
 12
-26.578443974919601
 22
-188.9710612440779
 13
0.0
 23
0.0
 14
1.0
 24
1.0
 15
0.5
 25
0.5
 16
0.0
 26
0.0
 36
1.0
 17
0.0
 27
0.0
 37
0.0
 40
454.8189544888798
 41
1.908726178535606
 42
50.0
 43
0.0
 44
0.0
 50
0.0
 51
0.0
 71
     0
 72
 20000
 73
     1
 74
     3
 75
     0
 76
     0
 77
     0
 78
     0
  0
ENDTAB
  0
TABLE
  2
LTYPE
 70
     2
  0
LTYPE
  2
CONTINUOUS
 70
     0
  3
Solid line
 72
    65
 73
     0
 40
0.0
  0
LTYPE
  2
HCAV-19_METR_HEAD_SIL$0$DA
 70
     0
  3
Dashed __ __ __ __ __ __ __ __ __ __ __ __ __ _
 72
    65
 73
     2
 40
19.050000000000001
 49
12.699999999999999
 49
-6.3499999999999988
  0
ENDTAB
  0
TABLE
  2
LAYER
 70
     5
  0
LAYER
  2
0
 70
     0
 62
     7
  6
CONTINUOUS
  0
ENDTAB
  0
TABLE
  2
STYLE
 70
     5
  0
STYLE
  2
STANDARD
 70
     0
 40
0.0
 41
1.0
 50
0.0
 71
     0
 42
1.5
  3
romans.shx
  4

  0
STYLE
  2
ARIAL
 70
     0
 40
0.0
 41
1.0
 50
0.0
 71
     0
 42
1.5
  3
txt
  4

  0
STYLE
  2
HCAV-19_METR_HEAD_SIL$0$AR
 70
     0
 40
0.0
 41
1.0
 50
0.0
 71
     0
 42
1.5
  3
txt
  4

  0
ENDTAB
  0
TABLE
  2
VIEW
 70
     2
  0
VIEW
  2
COMM-04
 70
     1
 40
477.26027331217421
 10
194.21746115522001
 20
180.60494410563541
 41
755.81685306636155
 11
0.0
 21
0.0
 31
1.0
 12
0.0
 22
0.0
 32
0.0
 42
50.0
 43
0.0
 44
0.0
 50
0.0
 71
     0
  0
ENDTAB
  0
TABLE
  2
UCS
 70
     0
  0
ENDTAB
  0
TABLE
  2
APPID
 70
    28
  0
APPID
  2
ACAD
 70
     0
  0
APPID
  2
RAK
 70
     0
  0
APPID
  2
GENIUS_GENOREF_13
 70
     0
  0
APPID
  2
ACAD_EXEMPT_FROM_CAD_STANDARDS
 70
     0
  0
APPID
  2
ACAD_MLEADERVER
 70
     0
  0
APPID
  2
ACAD_DSTYLE_DIMJAG
 70
     0
  0
APPID
  2
ACAD_DSTYLE_DIMTALN
 70
     0
  0
APPID
  2
ACAD_DSTYLE_DIMEXT_ENABLED
 70
     0
  0
APPID
  2
ACAD_DSTYLE_DIMEXT_LENGTH
 70
     0
  0
APPID
  2
ACADANNOTATIVE
 70
     0
  0
APPID
  2
ACDBBLOCKREPETAG
 70
     0
  0
APPID
  2
ACDBDYNAMICBLOCKGUID
 70
     0
  0
APPID
  2
GENIUS_GENODEF_13
 70
     0
  0
APPID
  2
GENIUS_GENSCREG_15
 70
     0
  0
APPID
  2
GENIUS_GENOBJ-N-SDF_13
 70
     0
  0
APPID
  2
GENIUS_GENCFG_13
 70
     0
  0
APPID
  2
GENIUS_GENCFG0_13
 70
     0
  0
APPID
  2
ACAD_PSEXT
 70
     0
  0
APPID
  2
ACAECLAYERSTANDARD
 70
     0
  0
APPID
  2
ACCMTRANSPARENCY
 70
     0
  0
APPID
  2
ACADANNOPO
 70
     0
  0
APPID
  2
ADESKUNDERLAYLAYEROVERRIDEDATA
 70
     0
  0
APPID
  2
URBANX
 70
     0
  0
APPID
  2
GRADIENTCOLOR1ACI
 70
     0
  0
APPID
  2
GRADIENTCOLOR2ACI
 70
     0
  0
APPID
  2
ACAD_NAV_VCDISPLAY
 70
     0
  0
APPID
  2
ACAD_DSTYLE_DIMJOGGED_JOGA
 70
     0
  0
APPID
  2
PE_URL
 70
     0
  0
ENDTAB
  0
TABLE
  2
DIMSTYLE
 70
     5
  0
DIMSTYLE
  2
STANDARD
 70
     0
  3
mm
  4

  5

  6

  7

 40
2.0
 41
3.0
 42
2.0
 43
6.0
 44
2.0
 45
0.0
 46
2.0
 47
0.0
 48
0.0
140
2.5
141
2.0
142
0.0
143
0.0394
144
1.0
145
0.0
146
1.0
147
1.0
 71
     0
 72
     0
 73
     0
 74
     0
 75
     0
 76
     0
 77
     1
 78
     0
170
     0
171
     2
172
     0
173
     0
174
     0
175
     0
176
     0
177
     0
178
     0
  0
DIMSTYLE
  2
HCAV-19_METR_HEAD_SIL$0$1_
 70
     0
  3

  4

  5
HCAV-19_METR_HEAD_SIL$0$_A
  6

  7

 40
2.0
 41
2.0
 42
2.0
 43
6.0
 44
1.5
 45
0.0
 46
1.5
 47
0.0
 48
0.0
140
2.0
141
2.0
142
0.0
143
0.0394
144
1.0
145
0.0
146
1.0
147
1.0
 71
     0
 72
     0
 73
     0
 74
     0
 75
     0
 76
     0
 77
     0
 78
     0
170
     0
171
     2
172
     1
173
     0
174
     1
175
     0
176
     0
177
     0
178
     0
  0
ENDTAB
  0
ENDSEC
  0
SECTION
  2
BLOCKS
  0
BLOCK
  8
0
  2
$MODEL_SPACE
 70
     2
 10
0.0
 20
0.0
 30
0.0
  3
$MODEL_SPACE
  1

  0
ENDBLK
  5
C
  8
0
  0
BLOCK
 67
     1
  8
0
  2
$PAPER_SPACE
 70
     0
 10
0.0
 20
0.0
 30
0.0
  3
$PAPER_SPACE
  1

  0
ENDBLK
  5
819
 67
     1
  8
0
  0
BLOCK
  8
0
  2
HCAV-19_METR_HEAD_SIL$0$_A
 70
     0
 10
0.0
 20
0.0
 30
0.0
  3
HCAV-19_METR_HEAD_SIL$0$_A
  1

  0
POLYLINE
  5
75E
  8
0
  6
BYBLOCK
 62
     0
 66
     1
 10
0.0
 20
0.0
 30
0.0
 40
0.15
 41
0.15
  0
VERTEX
  5
A51
  8
0
  6
BYBLOCK
 62
     0
 10
-0.5
 20
-0.5
 30
0.0
  0
VERTEX
  5
A52
  8
0
  6
BYBLOCK
 62
     0
 10
0.5
 20
0.5
 30
0.0
  0
SEQEND
  5
A53
  8
0
  6
BYBLOCK
 62
     0
  0
ENDBLK
  5
75F
  8
0
  0
BLOCK
  8
0
  2
*X6
 70
     1
 10
0.0
 20
0.0
 30
0.0
  3
*X6
  1

  0
LINE
  5
AA0
  8
0
  6
CONTINUOUS
 62
     0
 10
-102.4266776796218
 20
-367.44054984217479
 30
0.0
 11
-102.4266776796218
 21
-367.44054984217479
 31
0.0
  0
LINE
  5
AA1
  8
0
  6
CONTINUOUS
 62
     0
 10
-105.42102500934691
 20
-367.57128586998613
 30
0.0
 11
-105.42102500934691
 21
-367.57128586998613
 31
0.0
  0
LINE
  5
AA2
  8
0
  6
CONTINUOUS
 62
     0
 10
-106.0554206300514
 20
-367.5989841809631
 30
0.0
 11
-106.0554206300514
 21
-367.5989841809631
 31
0.0
  0
LINE
  5
AA3
  8
0
  6
CONTINUOUS
 62
     0
 10
-101.59821391773301
 20
-360.59577805436197
 30
0.0
 11
-101.59821391773301
 21
-360.59577805436197
 31
0.0
  0
LINE
  5
AA4
  8
0
  6
CONTINUOUS
 62
     0
 10
-102.2326095384374
 20
-360.623476365339
 30
0.0
 11
-102.2326095384374
 21
-360.623476365339
 31
0.0
  0
LINE
  5
AA5
  8
0
  6
CONTINUOUS
 62
     0
 10
-105.65834589024161
 20
-360.77304724461482
 30
0.0
 11
-105.65834589024161
 21
-360.77304724461482
 31
0.0
  0
LINE
  5
AA6
  8
0
  6
CONTINUOUS
 62
     0
 10
-108.65269321996681
 20
-360.90378327242621
 30
0.0
 11
-108.65269321996681
 21
-360.90378327242621
 31
0.0
  0
LINE
  5
AA7
  8
0
  6
CONTINUOUS
 62
     0
 10
-101.83553479862761
 20
-353.79753942899072
 30
0.0
 11
-101.83553479862761
 21
-353.79753942899072
 31
0.0
  0
LINE
  5
AA8
  8
0
  6
CONTINUOUS
 62
     0
 10
-104.82988212835281
 20
-353.928275456802
 30
0.0
 11
-104.82988212835281
 21
-353.928275456802
 31
0.0
  0
LINE
  5
AA9
  8
0
  6
CONTINUOUS
 62
     0
 10
-105.4642777490572
 20
-353.95597376777903
 30
0.0
 11
-105.4642777490572
 21
-353.95597376777903
 31
0.0
  0
LINE
  5
AAA
  8
0
  6
CONTINUOUS
 62
     0
 10
-108.89001410086141
 20
-354.10554464705478
 30
0.0
 11
-108.89001410086141
 21
-354.10554464705478
 31
0.0
  0
LINE
  5
AAB
  8
0
  6
CONTINUOUS
 62
     0
 10
-101.00707103673879
 20
-346.9527676411779
 30
0.0
 11
-101.00707103673879
 21
-346.9527676411779
 31
0.0
  0
LINE
  5
AAC
  8
0
  6
CONTINUOUS
 62
     0
 10
-101.6414666574432
 20
-346.98046595215487
 30
0.0
 11
-101.6414666574432
 21
-346.98046595215487
 31
0.0
  0
LINE
  5
AAD
  8
0
  6
CONTINUOUS
 62
     0
 10
-105.06720300924739
 20
-347.13003683143057
 30
0.0
 11
-105.06720300924739
 21
-347.13003683143057
 31
0.0
  0
LINE
  5
AAE
  8
0
  6
CONTINUOUS
 62
     0
 10
-108.06155033897259
 20
-347.26077285924202
 30
0.0
 11
-108.06155033897259
 21
-347.26077285924202
 31
0.0
  0
LINE
  5
AAF
  8
0
  6
CONTINUOUS
 62
     0
 10
-108.6959459596771
 20
-347.288471170219
 30
0.0
 11
-108.6959459596771
 21
-347.288471170219
 31
0.0
  0
LINE
  5
AB0
  8
0
  6
CONTINUOUS
 62
     0
 10
-101.24439191763349
 20
-340.15452901580647
 30
0.0
 11
-101.24439191763349
 21
-340.15452901580647
 31
0.0
  0
LINE
  5
AB1
  8
0
  6
CONTINUOUS
 62
     0
 10
-104.23873924735859
 20
-340.28526504361793
 30
0.0
 11
-104.23873924735859
 21
-340.28526504361793
 31
0.0
  0
LINE
  5
AB2
  8
0
  6
CONTINUOUS
 62
     0
 10
-104.8731348680631
 20
-340.31296335459479
 30
0.0
 11
-104.8731348680631
 21
-340.31296335459479
 31
0.0
  0
LINE
  5
AB3
  8
0
  6
CONTINUOUS
 62
     0
 10
-108.29887121986729
 20
-340.4625342338706
 30
0.0
 11
-108.29887121986729
 21
-340.4625342338706
 31
0.0
  0
LINE
  5
AB4
  8
0
  6
CONTINUOUS
 62
     0
 10
-101.0503237764491
 20
-333.3374555389708
 30
0.0
 11
-101.0503237764491
 21
-333.3374555389708
 31
0.0
  0
LINE
  5
AB5
  8
0
  6
CONTINUOUS
 62
     0
 10
-104.47606012825329
 20
-333.4870264182465
 30
0.0
 11
-104.47606012825329
 21
-333.4870264182465
 31
0.0
  0
LINE
  5
AB6
  8
0
  6
CONTINUOUS
 62
     0
 10
-107.4704074579784
 20
-333.6177624460579
 30
0.0
 11
-107.4704074579784
 21
-333.6177624460579
 31
0.0
  0
LINE
  5
AB7
  8
0
  6
CONTINUOUS
 62
     0
 10
-108.10480307868291
 20
-333.64546075703493
 30
0.0
 11
-108.10480307868291
 21
-333.64546075703493
 31
0.0
  0
LINE
  5
AB8
  8
0
  6
CONTINUOUS
 62
     0
 10
-103.6475963663644
 20
-326.6422546304338
 30
0.0
 11
-103.6475963663644
 21
-326.6422546304338
 31
0.0
  0
LINE
  5
AB9
  8
0
  6
CONTINUOUS
 62
     0
 10
-104.28199198706891
 20
-326.66995294141083
 30
0.0
 11
-104.28199198706891
 21
-326.66995294141083
 31
0.0
  0
LINE
  5
ABA
  8
0
  6
CONTINUOUS
 62
     0
 10
-107.7077283388731
 20
-326.81952382068653
 30
0.0
 11
-107.7077283388731
 21
-326.81952382068653
 31
0.0
  0
LINE
  5
ABB
  8
0
  6
CONTINUOUS
 62
     0
 10
-103.8849172472591
 20
-319.84401600506237
 30
0.0
 11
-103.8849172472591
 21
-319.84401600506237
 31
0.0
  0
LINE
  5
ABC
  8
0
  6
CONTINUOUS
 62
     0
 10
-106.8792645769842
 20
-319.97475203287382
 30
0.0
 11
-106.8792645769842
 21
-319.97475203287382
 31
0.0
  0
LINE
  5
ABD
  8
0
  6
CONTINUOUS
 62
     0
 10
-107.51366019768869
 20
-320.0024503438508
 30
0.0
 11
-107.51366019768869
 21
-320.0024503438508
 31
0.0
  0
LINE
  5
ABE
  8
0
  6
CONTINUOUS
 62
     0
 10
-103.0564534853702
 20
-312.99924421724972
 30
0.0
 11
-103.0564534853702
 21
-312.99924421724972
 31
0.0
  0
LINE
  5
ABF
  8
0
  6
CONTINUOUS
 62
     0
 10
-103.69084910607469
 20
-313.02694252822658
 30
0.0
 11
-103.69084910607469
 21
-313.02694252822658
 31
0.0
  0
LINE
  5
AC0
  8
0
  6
CONTINUOUS
 62
     0
 10
-107.1165854578789
 20
-313.1765134075024
 30
0.0
 11
-107.1165854578789
 21
-313.1765134075024
 31
0.0
  0
LINE
  5
AC1
  8
0
  6
CONTINUOUS
 62
     0
 10
-103.2937743662649
 20
-306.2010055918783
 30
0.0
 11
-103.2937743662649
 21
-306.2010055918783
 31
0.0
  0
LINE
  5
AC2
  8
0
  6
CONTINUOUS
 62
     0
 10
-106.2881216959901
 20
-306.33174161968969
 30
0.0
 11
-106.2881216959901
 21
-306.33174161968969
 31
0.0
  0
LINE
  5
AC3
  8
0
  6
CONTINUOUS
 62
     0
 10
-106.9225173166945
 20
-306.35943993066661
 30
0.0
 11
-106.9225173166945
 21
-306.35943993066661
 31
0.0
  0
LINE
  5
AC4
  8
0
  6
CONTINUOUS
 62
     0
 10
-102.465310604376
 20
-299.3562338040656
 30
0.0
 11
-102.465310604376
 21
-299.3562338040656
 31
0.0
  0
LINE
  5
AC5
  8
0
  6
CONTINUOUS
 62
     0
 10
-103.0997062250805
 20
-299.38393211504263
 30
0.0
 11
-103.0997062250805
 21
-299.38393211504263
 31
0.0
  0
LINE
  5
AC6
  8
0
  6
CONTINUOUS
 62
     0
 10
-106.5254425768847
 20
-299.53350299431833
 30
0.0
 11
-106.5254425768847
 21
-299.53350299431833
 31
0.0
  0
LINE
  5
AC7
  8
0
  6
CONTINUOUS
 62
     0
 10
-102.7026314852707
 20
-292.55799517869428
 30
0.0
 11
-102.7026314852707
 21
-292.55799517869428
 31
0.0
  0
LINE
  5
AC8
  8
0
  6
CONTINUOUS
 62
     0
 10
-105.6969788149958
 20
-292.68873120650562
 30
0.0
 11
-105.6969788149958
 21
-292.68873120650562
 31
0.0
  0
LINE
  5
AC9
  8
0
  6
CONTINUOUS
 62
     0
 10
-106.3313744357003
 20
-292.7164295174826
 30
0.0
 11
-106.3313744357003
 21
-292.7164295174826
 31
0.0
  0
LINE
  5
ACA
  8
0
  6
CONTINUOUS
 62
     0
 10
-101.8741677233819
 20
-285.71322339088141
 30
0.0
 11
-101.8741677233819
 21
-285.71322339088141
 31
0.0
  0
LINE
  5
ACB
  8
0
  6
CONTINUOUS
 62
     0
 10
-102.5085633440864
 20
-285.74092170185838
 30
0.0
 11
-102.5085633440864
 21
-285.74092170185838
 31
0.0
  0
LINE
  5
ACC
  8
0
  6
CONTINUOUS
 62
     0
 10
-105.9342996958905
 20
-285.8904925811342
 30
0.0
 11
-105.9342996958905
 21
-285.8904925811342
 31
0.0
  0
LINE
  5
ACD
  8
0
  6
CONTINUOUS
 62
     0
 10
-108.9286470256157
 20
-286.02122860894559
 30
0.0
 11
-108.9286470256157
 21
-286.02122860894559
 31
0.0
  0
LINE
  5
ACE
  8
0
  6
CONTINUOUS
 62
     0
 10
-102.1114886042765
 20
-278.91498476551021
 30
0.0
 11
-102.1114886042765
 21
-278.91498476551021
 31
0.0
  0
LINE
  5
ACF
  8
0
  6
CONTINUOUS
 62
     0
 10
-105.1058359340017
 20
-279.04572079332149
 30
0.0
 11
-105.1058359340017
 21
-279.04572079332149
 31
0.0
  0
LINE
  5
AD0
  8
0
  6
CONTINUOUS
 62
     0
 10
-105.7402315547061
 20
-279.07341910429852
 30
0.0
 11
-105.7402315547061
 21
-279.07341910429852
 31
0.0
  0
LINE
  5
AD1
  8
0
  6
CONTINUOUS
 62
     0
 10
-101.2830248423877
 20
-272.07021297769739
 30
0.0
 11
-101.2830248423877
 21
-272.07021297769739
 31
0.0
  0
LINE
  5
AD2
  8
0
  6
CONTINUOUS
 62
     0
 10
-101.9174204630922
 20
-272.09791128867442
 30
0.0
 11
-101.9174204630922
 21
-272.09791128867442
 31
0.0
  0
LINE
  5
AD3
  8
0
  6
CONTINUOUS
 62
     0
 10
-105.3431568148963
 20
-272.24748216795012
 30
0.0
 11
-105.3431568148963
 21
-272.24748216795012
 31
0.0
  0
LINE
  5
AD4
  8
0
  6
CONTINUOUS
 62
     0
 10
-108.33750414462151
 20
-272.37821819576152
 30
0.0
 11
-108.33750414462151
 21
-272.37821819576152
 31
0.0
  0
LINE
  5
AD5
  8
0
  6
CONTINUOUS
 62
     0
 10
-108.971899765326
 20
-272.40591650673849
 30
0.0
 11
-108.971899765326
 21
-272.40591650673849
 31
0.0
  0
LINE
  5
AD6
  8
0
  6
CONTINUOUS
 62
     0
 10
-101.5203457232823
 20
-265.27197435232603
 30
0.0
 11
-101.5203457232823
 21
-265.27197435232603
 31
0.0
  0
LINE
  5
AD7
  8
0
  6
CONTINUOUS
 62
     0
 10
-104.51469305300751
 20
-265.40271038013742
 30
0.0
 11
-104.51469305300751
 21
-265.40271038013742
 31
0.0
  0
LINE
  5
AD8
  8
0
  6
CONTINUOUS
 62
     0
 10
-105.149088673712
 20
-265.43040869111439
 30
0.0
 11
-105.149088673712
 21
-265.43040869111439
 31
0.0
  0
LINE
  5
AD9
  8
0
  6
CONTINUOUS
 62
     0
 10
-108.5748250255162
 20
-265.57997957039009
 30
0.0
 11
-108.5748250255162
 21
-265.57997957039009
 31
0.0
  0
LINE
  5
ADA
  8
0
  6
CONTINUOUS
 62
     0
 10
-101.326277582098
 20
-258.4549008754903
 30
0.0
 11
-101.326277582098
 21
-258.4549008754903
 31
0.0
  0
LINE
  5
ADB
  8
0
  6
CONTINUOUS
 62
     0
 10
-104.75201393390221
 20
-258.604471754766
 30
0.0
 11
-104.75201393390221
 21
-258.604471754766
 31
0.0
  0
LINE
  5
ADC
  8
0
  6
CONTINUOUS
 62
     0
 10
-107.74636126362731
 20
-258.73520778257739
 30
0.0
 11
-107.74636126362731
 21
-258.73520778257739
 31
0.0
  0
LINE
  5
ADD
  8
0
  6
CONTINUOUS
 62
     0
 10
-108.3807568843318
 20
-258.76290609355442
 30
0.0
 11
-108.3807568843318
 21
-258.76290609355442
 31
0.0
  0
LINE
  5
ADE
  8
0
  6
CONTINUOUS
 62
     0
 10
-103.92355017201329
 20
-251.75969996695329
 30
0.0
 11
-103.92355017201329
 21
-251.75969996695329
 31
0.0
  0
LINE
  5
ADF
  8
0
  6
CONTINUOUS
 62
     0
 10
-104.5579457927178
 20
-251.78739827793029
 30
0.0
 11
-104.5579457927178
 21
-251.78739827793029
 31
0.0
  0
LINE
  5
AE0
  8
0
  6
CONTINUOUS
 62
     0
 10
-107.98368214452201
 20
-251.93696915720599
 30
0.0
 11
-107.98368214452201
 21
-251.93696915720599
 31
0.0
  0
LINE
  5
AE1
  8
0
  6
CONTINUOUS
 62
     0
 10
-104.16087105290801
 20
-244.9614613415819
 30
0.0
 11
-104.16087105290801
 21
-244.9614613415819
 31
0.0
  0
LINE
  5
AE2
  8
0
  6
CONTINUOUS
 62
     0
 10
-107.15521838263309
 20
-245.09219736939329
 30
0.0
 11
-107.15521838263309
 21
-245.09219736939329
 31
0.0
  0
LINE
  5
AE3
  8
0
  6
CONTINUOUS
 62
     0
 10
-107.7896140033376
 20
-245.11989568037029
 30
0.0
 11
-107.7896140033376
 21
-245.11989568037029
 31
0.0
  0
LINE
  5
AE4
  8
0
  6
CONTINUOUS
 62
     0
 10
-103.33240729101909
 20
-238.11668955376919
 30
0.0
 11
-103.33240729101909
 21
-238.11668955376919
 31
0.0
  0
LINE
  5
AE5
  8
0
  6
CONTINUOUS
 62
     0
 10
-103.9668029117236
 20
-238.14438786474619
 30
0.0
 11
-103.9668029117236
 21
-238.14438786474619
 31
0.0
  0
LINE
  5
AE6
  8
0
  6
CONTINUOUS
 62
     0
 10
-107.39253926352779
 20
-238.29395874402189
 30
0.0
 11
-107.39253926352779
 21
-238.29395874402189
 31
0.0
  0
LINE
  5
AE7
  8
0
  6
CONTINUOUS
 62
     0
 10
-103.56972817191379
 20
-231.31845092839779
 30
0.0
 11
-103.56972817191379
 21
-231.31845092839779
 31
0.0
  0
LINE
  5
AE8
  8
0
  6
CONTINUOUS
 62
     0
 10
-106.5640755016389
 20
-231.4491869562091
 30
0.0
 11
-106.5640755016389
 21
-231.4491869562091
 31
0.0
  0
LINE
  5
AE9
  8
0
  6
CONTINUOUS
 62
     0
 10
-107.19847112234341
 20
-231.47688526718611
 30
0.0
 11
-107.19847112234341
 21
-231.47688526718611
 31
0.0
  0
LINE
  5
AEA
  8
0
  6
CONTINUOUS
 62
     0
 10
-103.1625520771811
 20
-369.4725490529836
 30
0.0
 11
-103.1625520771811
 21
-369.4725490529836
 31
0.0
  0
LINE
  5
AEB
  8
0
  6
CONTINUOUS
 62
     0
 10
-107.6261774217334
 20
-370.46211096790859
 30
0.0
 11
-107.6261774217334
 21
-370.46211096790859
 31
0.0
  0
LINE
  5
AEC
  8
0
  6
CONTINUOUS
 62
     0
 10
-108.86607335077569
 20
-370.73698927761001
 30
0.0
 11
-108.86607335077569
 21
-370.73698927761001
 31
0.0
  0
LINE
  5
AED
  8
0
  6
CONTINUOUS
 62
     0
 10
-102.043179163408
 20
-364.85878784894288
 30
0.0
 11
-102.043179163408
 21
-364.85878784894288
 31
0.0
  0
LINE
  5
AEE
  8
0
  6
CONTINUOUS
 62
     0
 10
-103.2830750924503
 20
-365.1336661586443
 30
0.0
 11
-103.2830750924503
 21
-365.1336661586443
 31
0.0
  0
LINE
  5
AEF
  8
0
  6
CONTINUOUS
 62
     0
 10
-103.5275877006238
 20
-360.82227109527508
 30
0.0
 11
-103.5275877006238
 21
-360.82227109527508
 31
0.0
  0
LINE
  5
AF0
  8
0
  6
CONTINUOUS
 62
     0
 10
-107.9912130451761
 20
-361.81183301020008
 30
0.0
 11
-107.9912130451761
 21
-361.81183301020008
 31
0.0
  0
LINE
  5
AF1
  8
0
  6
CONTINUOUS
 62
     0
 10
-102.40821478685081
 20
-356.20850989123443
 30
0.0
 11
-102.40821478685081
 21
-356.20850989123443
 31
0.0
  0
LINE
  5
AF2
  8
0
  6
CONTINUOUS
 62
     0
 10
-103.6481107158931
 20
-356.48338820093568
 30
0.0
 11
-103.6481107158931
 21
-356.48338820093568
 31
0.0
  0
LINE
  5
AF3
  8
0
  6
CONTINUOUS
 62
     0
 10
-103.89262332406651
 20
-352.17199313756657
 30
0.0
 11
-103.89262332406651
 21
-352.17199313756657
 31
0.0
  0
LINE
  5
AF4
  8
0
  6
CONTINUOUS
 62
     0
 10
-108.3562486686189
 20
-353.16155505249162
 30
0.0
 11
-108.3562486686189
 21
-353.16155505249162
 31
0.0
  0
LINE
  5
AF5
  8
0
  6
CONTINUOUS
 62
     0
 10
-102.7732504102935
 20
-347.55823193352592
 30
0.0
 11
-102.7732504102935
 21
-347.55823193352592
 31
0.0
  0
LINE
  5
AF6
  8
0
  6
CONTINUOUS
 62
     0
 10
-104.0131463393358
 20
-347.83311024322728
 30
0.0
 11
-104.0131463393358
 21
-347.83311024322728
 31
0.0
  0
LINE
  5
AF7
  8
0
  6
CONTINUOUS
 62
     0
 10
-104.2576589475092
 20
-343.52171517985812
 30
0.0
 11
-104.2576589475092
 21
-343.52171517985812
 31
0.0
  0
LINE
  5
AF8
  8
0
  6
CONTINUOUS
 62
     0
 10
-108.7212842920616
 20
-344.511277094783
 30
0.0
 11
-108.7212842920616
 21
-344.511277094783
 31
0.0
  0
LINE
  5
AF9
  8
0
  6
CONTINUOUS
 62
     0
 10
-103.13828603373619
 20
-338.90795397581729
 30
0.0
 11
-103.13828603373619
 21
-338.90795397581729
 31
0.0
  0
LINE
  5
AFA
  8
0
  6
CONTINUOUS
 62
     0
 10
-104.3781819627786
 20
-339.18283228551871
 30
0.0
 11
-104.3781819627786
 21
-339.18283228551871
 31
0.0
  0
LINE
  5
AFB
  8
0
  6
CONTINUOUS
 62
     0
 10
-104.62269457095211
 20
-334.87143722214961
 30
0.0
 11
-104.62269457095211
 21
-334.87143722214961
 31
0.0
  0
LINE
  5
AFC
  8
0
  6
CONTINUOUS
 62
     0
 10
-103.5033216571791
 20
-330.25767601810878
 30
0.0
 11
-103.5033216571791
 21
-330.25767601810878
 31
0.0
  0
LINE
  5
AFD
  8
0
  6
CONTINUOUS
 62
     0
 10
-104.74321758622141
 20
-330.5325543278102
 30
0.0
 11
-104.74321758622141
 21
-330.5325543278102
 31
0.0
  0
LINE
  5
AFE
  8
0
  6
CONTINUOUS
 62
     0
 10
-104.9877301943948
 20
-326.22115926444098
 30
0.0
 11
-104.9877301943948
 21
-326.22115926444098
 31
0.0
  0
LINE
  5
AFF
  8
0
  6
CONTINUOUS
 62
     0
 10
-103.86835728062179
 20
-321.60739806040033
 30
0.0
 11
-103.86835728062179
 21
-321.60739806040033
 31
0.0
  0
LINE
  5
B00
  8
0
  6
CONTINUOUS
 62
     0
 10
-105.1082532096641
 20
-321.88227637010169
 30
0.0
 11
-105.1082532096641
 21
-321.88227637010169
 31
0.0
  0
LINE
  5
B01
  8
0
  6
CONTINUOUS
 62
     0
 10
-105.35276581783771
 20
-317.57088130673247
 30
0.0
 11
-105.35276581783771
 21
-317.57088130673247
 31
0.0
  0
LINE
  5
B02
  8
0
  6
CONTINUOUS
 62
     0
 10
-104.2333929040646
 20
-312.95712010269182
 30
0.0
 11
-104.2333929040646
 21
-312.95712010269182
 31
0.0
  0
LINE
  5
B03
  8
0
  6
CONTINUOUS
 62
     0
 10
-105.47328883310691
 20
-313.23199841239318
 30
0.0
 11
-105.47328883310691
 21
-313.23199841239318
 31
0.0
  0
LINE
  5
B04
  8
0
  6
CONTINUOUS
 62
     0
 10
-105.7178014412805
 20
-308.92060334902402
 30
0.0
 11
-105.7178014412805
 21
-308.92060334902402
 31
0.0
  0
LINE
  5
B05
  8
0
  6
CONTINUOUS
 62
     0
 10
-104.59842852750739
 20
-304.30684214498331
 30
0.0
 11
-104.59842852750739
 21
-304.30684214498331
 31
0.0
  0
LINE
  5
B06
  8
0
  6
CONTINUOUS
 62
     0
 10
-105.8383244565497
 20
-304.58172045468473
 30
0.0
 11
-105.8383244565497
 21
-304.58172045468473
 31
0.0
  0
LINE
  5
B07
  8
0
  6
CONTINUOUS
 62
     0
 10
-106.08283706472319
 20
-300.27032539131551
 30
0.0
 11
-106.08283706472319
 21
-300.27032539131551
 31
0.0
  0
LINE
  5
B08
  8
0
  6
CONTINUOUS
 62
     0
 10
-104.9634641509501
 20
-295.65656418727491
 30
0.0
 11
-104.9634641509501
 21
-295.65656418727491
 31
0.0
  0
LINE
  5
B09
  8
0
  6
CONTINUOUS
 62
     0
 10
-106.20336007999239
 20
-295.93144249697622
 30
0.0
 11
-106.20336007999239
 21
-295.93144249697622
 31
0.0
  0
LINE
  5
B0A
  8
0
  6
CONTINUOUS
 62
     0
 10
-106.4478726881659
 20
-291.620047433607
 30
0.0
 11
-106.4478726881659
 21
-291.620047433607
 31
0.0
  0
LINE
  5
B0B
  8
0
  6
CONTINUOUS
 62
     0
 10
-105.3284997743929
 20
-287.00628622956629
 30
0.0
 11
-105.3284997743929
 21
-287.00628622956629
 31
0.0
  0
LINE
  5
B0C
  8
0
  6
CONTINUOUS
 62
     0
 10
-106.5683957034352
 20
-287.28116453926759
 30
0.0
 11
-106.5683957034352
 21
-287.28116453926759
 31
0.0
  0
LINE
  5
B0D
  8
0
  6
CONTINUOUS
 62
     0
 10
-106.81290831160869
 20
-282.96976947589849
 30
0.0
 11
-106.81290831160869
 21
-282.96976947589849
 31
0.0
  0
LINE
  5
B0E
  8
0
  6
CONTINUOUS
 62
     0
 10
-101.22991005328321
 20
-277.36644635693278
 30
0.0
 11
-101.22991005328321
 21
-277.36644635693278
 31
0.0
  0
LINE
  5
B0F
  8
0
  6
CONTINUOUS
 62
     0
 10
-105.6935353978356
 20
-278.35600827185777
 30
0.0
 11
-105.6935353978356
 21
-278.35600827185777
 31
0.0
  0
LINE
  5
B10
  8
0
  6
CONTINUOUS
 62
     0
 10
-106.93343132687789
 20
-278.63088658155908
 30
0.0
 11
-106.93343132687789
 21
-278.63088658155908
 31
0.0
  0
LINE
  5
B11
  8
0
  6
CONTINUOUS
 62
     0
 10
-101.3504330685526
 20
-273.02756346259338
 30
0.0
 11
-101.3504330685526
 21
-273.02756346259338
 31
0.0
  0
LINE
  5
B12
  8
0
  6
CONTINUOUS
 62
     0
 10
-107.1779439350515
 20
-274.31949151818998
 30
0.0
 11
-107.1779439350515
 21
-274.31949151818998
 31
0.0
  0
LINE
  5
B13
  8
0
  6
CONTINUOUS
 62
     0
 10
-101.594945676726
 20
-268.71616839922422
 30
0.0
 11
-101.594945676726
 21
-268.71616839922422
 31
0.0
  0
LINE
  5
B14
  8
0
  6
CONTINUOUS
 62
     0
 10
-106.0585710212784
 20
-269.70573031414921
 30
0.0
 11
-106.0585710212784
 21
-269.70573031414921
 31
0.0
  0
LINE
  5
B15
  8
0
  6
CONTINUOUS
 62
     0
 10
-107.2984669503207
 20
-269.98060862385063
 30
0.0
 11
-107.2984669503207
 21
-269.98060862385063
 31
0.0
  0
LINE
  5
B16
  8
0
  6
CONTINUOUS
 62
     0
 10
-101.7154686919954
 20
-264.37728550488492
 30
0.0
 11
-101.7154686919954
 21
-264.37728550488492
 31
0.0
  0
LINE
  5
B17
  8
0
  6
CONTINUOUS
 62
     0
 10
-107.5429795584943
 20
-265.66921356048141
 30
0.0
 11
-107.5429795584943
 21
-265.66921356048141
 31
0.0
  0
LINE
  5
B18
  8
0
  6
CONTINUOUS
 62
     0
 10
-101.95998130016891
 20
-260.06589044151582
 30
0.0
 11
-101.95998130016891
 21
-260.06589044151582
 31
0.0
  0
LINE
  5
B19
  8
0
  6
CONTINUOUS
 62
     0
 10
-106.4236066447212
 20
-261.0554523564407
 30
0.0
 11
-106.4236066447212
 21
-261.0554523564407
 31
0.0
  0
LINE
  5
B1A
  8
0
  6
CONTINUOUS
 62
     0
 10
-107.66350257376349
 20
-261.33033066614212
 30
0.0
 11
-107.66350257376349
 21
-261.33033066614212
 31
0.0
  0
LINE
  5
B1B
  8
0
  6
CONTINUOUS
 62
     0
 10
-102.08050431543811
 20
-255.7270075471763
 30
0.0
 11
-102.08050431543811
 21
-255.7270075471763
 31
0.0
  0
LINE
  5
B1C
  8
0
  6
CONTINUOUS
 62
     0
 10
-107.908015181937
 20
-257.0189356027729
 30
0.0
 11
-107.908015181937
 21
-257.0189356027729
 31
0.0
  0
LINE
  5
B1D
  8
0
  6
CONTINUOUS
 62
     0
 10
-102.3250169236116
 20
-251.41561248380719
 30
0.0
 11
-102.3250169236116
 21
-251.41561248380719
 31
0.0
  0
LINE
  5
B1E
  8
0
  6
CONTINUOUS
 62
     0
 10
-106.788642268164
 20
-252.40517439873221
 30
0.0
 11
-106.788642268164
 21
-252.40517439873221
 31
0.0
  0
LINE
  5
B1F
  8
0
  6
CONTINUOUS
 62
     0
 10
-108.0285381972063
 20
-252.68005270843361
 30
0.0
 11
-108.0285381972063
 21
-252.68005270843361
 31
0.0
  0
LINE
  5
B20
  8
0
  6
CONTINUOUS
 62
     0
 10
-101.20564400983859
 20
-246.80185127976651
 30
0.0
 11
-101.20564400983859
 21
-246.80185127976651
 31
0.0
  0
LINE
  5
B21
  8
0
  6
CONTINUOUS
 62
     0
 10
-102.4455399388809
 20
-247.0767295894679
 30
0.0
 11
-102.4455399388809
 21
-247.0767295894679
 31
0.0
  0
LINE
  5
B22
  8
0
  6
CONTINUOUS
 62
     0
 10
-108.2730508053798
 20
-248.3686576450645
 30
0.0
 11
-108.2730508053798
 21
-248.3686576450645
 31
0.0
  0
LINE
  5
B23
  8
0
  6
CONTINUOUS
 62
     0
 10
-102.69005254705441
 20
-242.76533452609871
 30
0.0
 11
-102.69005254705441
 21
-242.76533452609871
 31
0.0
  0
LINE
  5
B24
  8
0
  6
CONTINUOUS
 62
     0
 10
-107.1536778916067
 20
-243.7548964410237
 30
0.0
 11
-107.1536778916067
 21
-243.7548964410237
 31
0.0
  0
LINE
  5
B25
  8
0
  6
CONTINUOUS
 62
     0
 10
-108.3935738206491
 20
-244.0297747507251
 30
0.0
 11
-108.3935738206491
 21
-244.0297747507251
 31
0.0
  0
LINE
  5
B26
  8
0
  6
CONTINUOUS
 62
     0
 10
-101.5706796332814
 20
-238.151573322058
 30
0.0
 11
-101.5706796332814
 21
-238.151573322058
 31
0.0
  0
LINE
  5
B27
  8
0
  6
CONTINUOUS
 62
     0
 10
-102.81057556232371
 20
-238.42645163175939
 30
0.0
 11
-102.81057556232371
 21
-238.42645163175939
 31
0.0
  0
LINE
  5
B28
  8
0
  6
CONTINUOUS
 62
     0
 10
-108.6380864288226
 20
-239.71837968735591
 30
0.0
 11
-108.6380864288226
 21
-239.71837968735591
 31
0.0
  0
LINE
  5
B29
  8
0
  6
CONTINUOUS
 62
     0
 10
-103.0550881704971
 20
-234.1150565683902
 30
0.0
 11
-103.0550881704971
 21
-234.1150565683902
 31
0.0
  0
LINE
  5
B2A
  8
0
  6
CONTINUOUS
 62
     0
 10
-107.5187135150494
 20
-235.10461848331519
 30
0.0
 11
-107.5187135150494
 21
-235.10461848331519
 31
0.0
  0
LINE
  5
B2B
  8
0
  6
CONTINUOUS
 62
     0
 10
-108.7586094440917
 20
-235.37949679301661
 30
0.0
 11
-108.7586094440917
 21
-235.37949679301661
 31
0.0
  0
LINE
  5
B2C
  8
0
  6
CONTINUOUS
 62
     0
 10
-101.93571525672409
 20
-229.50129536434949
 30
0.0
 11
-101.93571525672409
 21
-229.50129536434949
 31
0.0
  0
LINE
  5
B2D
  8
0
  6
CONTINUOUS
 62
     0
 10
-103.1756111857665
 20
-229.77617367405091
 30
0.0
 11
-103.1756111857665
 21
-229.77617367405091
 31
0.0
  0
LINE
  5
B2E
  8
0
  6
CONTINUOUS
 62
     0
 10
-101.1523053796915
 20
-367.45672227524273
 30
0.0
 11
-101.1523053796915
 21
-367.45672227524273
 31
0.0
  0
LINE
  5
B2F
  8
0
  6
CONTINUOUS
 62
     0
 10
-101.96408874527459
 20
-368.514658954521
 30
0.0
 11
-101.96408874527459
 21
-368.514658954521
 31
0.0
  0
LINE
  5
B30
  8
0
  6
CONTINUOUS
 62
     0
 10
-104.0824567659391
 20
-371.27536990806652
 30
0.0
 11
-104.0824567659391
 21
-371.27536990806652
 31
0.0
  0
LINE
  5
B31
  8
0
  6
CONTINUOUS
 62
     0
 10
-101.774486352637
 20
-357.55699742463668
 30
0.0
 11
-101.774486352637
 21
-357.55699742463668
 31
0.0
  0
LINE
  5
B32
  8
0
  6
CONTINUOUS
 62
     0
 10
-103.0424146569764
 20
-359.2093937617953
 30
0.0
 11
-103.0424146569764
 21
-359.2093937617953
 31
0.0
  0
LINE
  5
B33
  8
0
  6
CONTINUOUS
 62
     0
 10
-103.8541980225595
 20
-360.26733044107368
 30
0.0
 11
-103.8541980225595
 21
-360.26733044107368
 31
0.0
  0
LINE
  5
B34
  8
0
  6
CONTINUOUS
 62
     0
 10
-105.97256604322411
 20
-363.02804139461909
 30
0.0
 11
-105.97256604322411
 21
-363.02804139461909
 31
0.0
  0
LINE
  5
B35
  8
0
  6
CONTINUOUS
 62
     0
 10
-107.2404943475634
 20
-364.6804377317776
 30
0.0
 11
-107.2404943475634
 21
-364.6804377317776
 31
0.0
  0
LINE
  5
B36
  8
0
  6
CONTINUOUS
 62
     0
 10
-108.05227771314659
 20
-365.73837441105599
 30
0.0
 11
-108.05227771314659
 21
-365.73837441105599
 31
0.0
  0
LINE
  5
B37
  8
0
  6
CONTINUOUS
 62
     0
 10
-101.5462276092574
 20
-346.54895795764401
 30
0.0
 11
-101.5462276092574
 21
-346.54895795764401
 31
0.0
  0
LINE
  5
B38
  8
0
  6
CONTINUOUS
 62
     0
 10
-103.664595629922
 20
-349.30966891118942
 30
0.0
 11
-103.664595629922
 21
-349.30966891118942
 31
0.0
  0
LINE
  5
B39
  8
0
  6
CONTINUOUS
 62
     0
 10
-104.9325239342613
 20
-350.96206524834798
 30
0.0
 11
-104.9325239342613
 21
-350.96206524834798
 31
0.0
  0
LINE
  5
B3A
  8
0
  6
CONTINUOUS
 62
     0
 10
-105.74430729984439
 20
-352.02000192762642
 30
0.0
 11
-105.74430729984439
 21
-352.02000192762642
 31
0.0
  0
LINE
  5
B3B
  8
0
  6
CONTINUOUS
 62
     0
 10
-107.862675320509
 20
-354.78071288117178
 30
0.0
 11
-107.862675320509
 21
-354.78071288117178
 31
0.0
  0
LINE
  5
B3C
  8
0
  6
CONTINUOUS
 62
     0
 10
-101.3566252166198
 20
-335.59129642775969
 30
0.0
 11
-101.3566252166198
 21
-335.59129642775969
 31
0.0
  0
LINE
  5
B3D
  8
0
  6
CONTINUOUS
 62
     0
 10
-102.6245535209592
 20
-337.24369276491831
 30
0.0
 11
-102.6245535209592
 21
-337.24369276491831
 31
0.0
  0
LINE
  5
B3E
  8
0
  6
CONTINUOUS
 62
     0
 10
-103.43633688654231
 20
-338.30162944419658
 30
0.0
 11
-103.43633688654231
 21
-338.30162944419658
 31
0.0
  0
LINE
  5
B3F
  8
0
  6
CONTINUOUS
 62
     0
 10
-105.5547049072068
 20
-341.0623403977421
 30
0.0
 11
-105.5547049072068
 21
-341.0623403977421
 31
0.0
  0
LINE
  5
B40
  8
0
  6
CONTINUOUS
 62
     0
 10
-106.8226332115462
 20
-342.71473673490061
 30
0.0
 11
-106.8226332115462
 21
-342.71473673490061
 31
0.0
  0
LINE
  5
B41
  8
0
  6
CONTINUOUS
 62
     0
 10
-107.6344165771293
 20
-343.772673414179
 30
0.0
 11
-107.6344165771293
 21
-343.772673414179
 31
0.0
  0
LINE
  5
B42
  8
0
  6
CONTINUOUS
 62
     0
 10
-101.12836647324011
 20
-324.58325696076702
 30
0.0
 11
-101.12836647324011
 21
-324.58325696076702
 31
0.0
  0
LINE
  5
B43
  8
0
  6
CONTINUOUS
 62
     0
 10
-103.2467344939047
 20
-327.34396791431237
 30
0.0
 11
-103.2467344939047
 21
-327.34396791431237
 31
0.0
  0
LINE
  5
B44
  8
0
  6
CONTINUOUS
 62
     0
 10
-104.5146627982441
 20
-328.99636425147099
 30
0.0
 11
-104.5146627982441
 21
-328.99636425147099
 31
0.0
  0
LINE
  5
B45
  8
0
  6
CONTINUOUS
 62
     0
 10
-105.3264461638272
 20
-330.05430093074938
 30
0.0
 11
-105.3264461638272
 21
-330.05430093074938
 31
0.0
  0
LINE
  5
B46
  8
0
  6
CONTINUOUS
 62
     0
 10
-107.4448141844917
 20
-332.81501188429479
 30
0.0
 11
-107.4448141844917
 21
-332.81501188429479
 31
0.0
  0
LINE
  5
B47
  8
0
  6
CONTINUOUS
 62
     0
 10
-108.7127424888311
 20
-334.46740822145341
 30
0.0
 11
-108.7127424888311
 21
-334.46740822145341
 31
0.0
  0
LINE
  5
B48
  8
0
  6
CONTINUOUS
 62
     0
 10
-102.2066923849419
 20
-315.2779917680412
 30
0.0
 11
-102.2066923849419
 21
-315.2779917680412
 31
0.0
  0
LINE
  5
B49
  8
0
  6
CONTINUOUS
 62
     0
 10
-103.0184757505251
 20
-316.33592844731959
 30
0.0
 11
-103.0184757505251
 21
-316.33592844731959
 31
0.0
  0
LINE
  5
B4A
  8
0
  6
CONTINUOUS
 62
     0
 10
-105.1368437711896
 20
-319.096639400865
 30
0.0
 11
-105.1368437711896
 21
-319.096639400865
 31
0.0
  0
LINE
  5
B4B
  8
0
  6
CONTINUOUS
 62
     0
 10
-106.404772075529
 20
-320.74903573802362
 30
0.0
 11
-106.404772075529
 21
-320.74903573802362
 31
0.0
  0
LINE
  5
B4C
  8
0
  6
CONTINUOUS
 62
     0
 10
-107.21655544111211
 20
-321.80697241730201
 30
0.0
 11
-107.21655544111211
 21
-321.80697241730201
 31
0.0
  0
LINE
  5
B4D
  8
0
  6
CONTINUOUS
 62
     0
 10
-102.8288733578875
 20
-305.37826691743533
 30
0.0
 11
-102.8288733578875
 21
-305.37826691743533
 31
0.0
  0
LINE
  5
B4E
  8
0
  6
CONTINUOUS
 62
     0
 10
-104.0968016622268
 20
-307.03066325459378
 30
0.0
 11
-104.0968016622268
 21
-307.03066325459378
 31
0.0
  0
LINE
  5
B4F
  8
0
  6
CONTINUOUS
 62
     0
 10
-104.90858502780991
 20
-308.08859993387222
 30
0.0
 11
-104.90858502780991
 21
-308.08859993387222
 31
0.0
  0
LINE
  5
B50
  8
0
  6
CONTINUOUS
 62
     0
 10
-107.0269530484745
 20
-310.84931088741757
 30
0.0
 11
-107.0269530484745
 21
-310.84931088741757
 31
0.0
  0
LINE
  5
B51
  8
0
  6
CONTINUOUS
 62
     0
 10
-108.2948813528139
 20
-312.50170722457619
 30
0.0
 11
-108.2948813528139
 21
-312.50170722457619
 31
0.0
  0
LINE
  5
B52
  8
0
  6
CONTINUOUS
 62
     0
 10
-101.78883124892469
 20
-293.3122907711641
 30
0.0
 11
-101.78883124892469
 21
-293.3122907711641
 31
0.0
  0
LINE
  5
B53
  8
0
  6
CONTINUOUS
 62
     0
 10
-102.6006146145078
 20
-294.37022745044248
 30
0.0
 11
-102.6006146145078
 21
-294.37022745044248
 31
0.0
  0
LINE
  5
B54
  8
0
  6
CONTINUOUS
 62
     0
 10
-104.7189826351724
 20
-297.13093840398801
 30
0.0
 11
-104.7189826351724
 21
-297.13093840398801
 31
0.0
  0
LINE
  5
B55
  8
0
  6
CONTINUOUS
 62
     0
 10
-105.9869109395117
 20
-298.78333474114652
 30
0.0
 11
-105.9869109395117
 21
-298.78333474114652
 31
0.0
  0
LINE
  5
B56
  8
0
  6
CONTINUOUS
 62
     0
 10
-106.7986943050948
 20
-299.8412714204249
 30
0.0
 11
-106.7986943050948
 21
-299.8412714204249
 31
0.0
  0
LINE
  5
B57
  8
0
  6
CONTINUOUS
 62
     0
 10
-108.9170623257594
 20
-302.60198237397032
 30
0.0
 11
-108.9170623257594
 21
-302.60198237397032
 31
0.0
  0
LINE
  5
B58
  8
0
  6
CONTINUOUS
 62
     0
 10
-102.41101222187019
 20
-283.41256592055822
 30
0.0
 11
-102.41101222187019
 21
-283.41256592055822
 31
0.0
  0
LINE
  5
B59
  8
0
  6
CONTINUOUS
 62
     0
 10
-103.6789405262096
 20
-285.06496225771679
 30
0.0
 11
-103.6789405262096
 21
-285.06496225771679
 31
0.0
  0
LINE
  5
B5A
  8
0
  6
CONTINUOUS
 62
     0
 10
-104.4907238917927
 20
-286.12289893699523
 30
0.0
 11
-104.4907238917927
 21
-286.12289893699523
 31
0.0
  0
LINE
  5
B5B
  8
0
  6
CONTINUOUS
 62
     0
 10
-106.6090919124572
 20
-288.88360989054058
 30
0.0
 11
-106.6090919124572
 21
-288.88360989054058
 31
0.0
  0
LINE
  5
B5C
  8
0
  6
CONTINUOUS
 62
     0
 10
-107.87702021679659
 20
-290.5360062276992
 30
0.0
 11
-107.87702021679659
 21
-290.5360062276992
 31
0.0
  0
LINE
  5
B5D
  8
0
  6
CONTINUOUS
 62
     0
 10
-108.68880358237971
 20
-291.59394290697747
 30
0.0
 11
-108.68880358237971
 21
-291.59394290697747
 31
0.0
  0
LINE
  5
B5E
  8
0
  6
CONTINUOUS
 62
     0
 10
-101.3709701129074
 20
-271.34658977428711
 30
0.0
 11
-101.3709701129074
 21
-271.34658977428711
 31
0.0
  0
LINE
  5
B5F
  8
0
  6
CONTINUOUS
 62
     0
 10
-102.1827534784906
 20
-272.4045264535655
 30
0.0
 11
-102.1827534784906
 21
-272.4045264535655
 31
0.0
  0
LINE
  5
B60
  8
0
  6
CONTINUOUS
 62
     0
 10
-104.3011214991551
 20
-275.16523740711091
 30
0.0
 11
-104.3011214991551
 21
-275.16523740711091
 31
0.0
  0
LINE
  5
B61
  8
0
  6
CONTINUOUS
 62
     0
 10
-105.56904980349449
 20
-276.81763374426947
 30
0.0
 11
-105.56904980349449
 21
-276.81763374426947
 31
0.0
  0
LINE
  5
B62
  8
0
  6
CONTINUOUS
 62
     0
 10
-106.3808331690776
 20
-277.87557042354791
 30
0.0
 11
-106.3808331690776
 21
-277.87557042354791
 31
0.0
  0
LINE
  5
B63
  8
0
  6
CONTINUOUS
 62
     0
 10
-108.49920118974219
 20
-280.63628137709333
 30
0.0
 11
-108.49920118974219
 21
-280.63628137709333
 31
0.0
  0
LINE
  5
B64
  8
0
  6
CONTINUOUS
 62
     0
 10
-101.993151085853
 20
-261.44686492368112
 30
0.0
 11
-101.993151085853
 21
-261.44686492368112
 31
0.0
  0
LINE
  5
B65
  8
0
  6
CONTINUOUS
 62
     0
 10
-103.26107939019241
 20
-263.09926126083968
 30
0.0
 11
-103.26107939019241
 21
-263.09926126083968
 31
0.0
  0
LINE
  5
B66
  8
0
  6
CONTINUOUS
 62
     0
 10
-104.0728627557755
 20
-264.15719794011812
 30
0.0
 11
-104.0728627557755
 21
-264.15719794011812
 31
0.0
  0
LINE
  5
B67
  8
0
  6
CONTINUOUS
 62
     0
 10
-106.19123077643999
 20
-266.91790889366348
 30
0.0
 11
-106.19123077643999
 21
-266.91790889366348
 31
0.0
  0
LINE
  5
B68
  8
0
  6
CONTINUOUS
 62
     0
 10
-107.4591590807794
 20
-268.5703052308221
 30
0.0
 11
-107.4591590807794
 21
-268.5703052308221
 31
0.0
  0
LINE
  5
B69
  8
0
  6
CONTINUOUS
 62
     0
 10
-108.2709424463625
 20
-269.62824191010043
 30
0.0
 11
-108.2709424463625
 21
-269.62824191010043
 31
0.0
  0
LINE
  5
B6A
  8
0
  6
CONTINUOUS
 62
     0
 10
-101.7648923424733
 20
-250.43882545668831
 30
0.0
 11
-101.7648923424733
 21
-250.43882545668831
 31
0.0
  0
LINE
  5
B6B
  8
0
  6
CONTINUOUS
 62
     0
 10
-103.88326036313789
 20
-253.1995364102338
 30
0.0
 11
-103.88326036313789
 21
-253.1995364102338
 31
0.0
  0
LINE
  5
B6C
  8
0
  6
CONTINUOUS
 62
     0
 10
-105.1511886674773
 20
-254.8519327473924
 30
0.0
 11
-105.1511886674773
 21
-254.8519327473924
 31
0.0
  0
LINE
  5
B6D
  8
0
  6
CONTINUOUS
 62
     0
 10
-105.9629720330604
 20
-255.9098694266707
 30
0.0
 11
-105.9629720330604
 21
-255.9098694266707
 31
0.0
  0
LINE
  5
B6E
  8
0
  6
CONTINUOUS
 62
     0
 10
-108.0813400537249
 20
-258.67058038021611
 30
0.0
 11
-108.0813400537249
 21
-258.67058038021611
 31
0.0
  0
LINE
  5
B6F
  8
0
  6
CONTINUOUS
 62
     0
 10
-101.57528994983581
 20
-239.48116392680399
 30
0.0
 11
-101.57528994983581
 21
-239.48116392680399
 31
0.0
  0
LINE
  5
B70
  8
0
  6
CONTINUOUS
 62
     0
 10
-102.8432182541751
 20
-241.13356026396261
 30
0.0
 11
-102.8432182541751
 21
-241.13356026396261
 31
0.0
  0
LINE
  5
B71
  8
0
  6
CONTINUOUS
 62
     0
 10
-103.65500161975829
 20
-242.19149694324099
 30
0.0
 11
-103.65500161975829
 21
-242.19149694324099
 31
0.0
  0
LINE
  5
B72
  8
0
  6
CONTINUOUS
 62
     0
 10
-105.7733696404228
 20
-244.9522078967864
 30
0.0
 11
-105.7733696404228
 21
-244.9522078967864
 31
0.0
  0
LINE
  5
B73
  8
0
  6
CONTINUOUS
 62
     0
 10
-107.04129794476221
 20
-246.604604233945
 30
0.0
 11
-107.04129794476221
 21
-246.604604233945
 31
0.0
  0
LINE
  5
B74
  8
0
  6
CONTINUOUS
 62
     0
 10
-107.8530813103453
 20
-247.66254091322341
 30
0.0
 11
-107.8530813103453
 21
-247.66254091322341
 31
0.0
  0
LINE
  5
B75
  8
0
  6
CONTINUOUS
 62
     0
 10
-103.4653992271207
 20
-231.2338354133567
 30
0.0
 11
-103.4653992271207
 21
-231.2338354133567
 31
0.0
  0
LINE
  5
B76
  8
0
  6
CONTINUOUS
 62
     0
 10
-104.73332753146001
 20
-232.88623175051529
 30
0.0
 11
-104.73332753146001
 21
-232.88623175051529
 31
0.0
  0
LINE
  5
B77
  8
0
  6
CONTINUOUS
 62
     0
 10
-105.5451108970431
 20
-233.94416842979371
 30
0.0
 11
-105.5451108970431
 21
-233.94416842979371
 31
0.0
  0
LINE
  5
B78
  8
0
  6
CONTINUOUS
 62
     0
 10
-107.66347891770771
 20
-236.70487938333909
 30
0.0
 11
-107.66347891770771
 21
-236.70487938333909
 31
0.0
  0
LINE
  5
B79
  8
0
  6
CONTINUOUS
 62
     0
 10
-108.9314072220471
 20
-238.35727572049771
 30
0.0
 11
-108.9314072220471
 21
-238.35727572049771
 31
0.0
  0
LINE
  5
B7A
  8
0
  6
CONTINUOUS
 62
     0
 10
-101.07358762949541
 20
-371.31665492984001
 30
0.0
 11
-101.07358762949541
 21
-371.31665492984001
 31
0.0
  0
LINE
  5
B7B
  8
0
  6
CONTINUOUS
 62
     0
 10
-101.43481215799071
 20
-343.56708424356071
 30
0.0
 11
-101.43481215799071
 21
-343.56708424356071
 31
0.0
  0
LINE
  5
B7C
  8
0
  6
CONTINUOUS
 62
     0
 10
-101.973559016379
 20
-347.65927290888112
 30
0.0
 11
-101.973559016379
 21
-347.65927290888112
 31
0.0
  0
LINE
  5
B7D
  8
0
  6
CONTINUOUS
 62
     0
 10
-102.5371711143852
 20
-351.94033182029318
 30
0.0
 11
-102.5371711143852
 21
-351.94033182029318
 31
0.0
  0
LINE
  5
B7E
  8
0
  6
CONTINUOUS
 62
     0
 10
-103.0411066373083
 20
-355.76810214108519
 30
0.0
 11
-103.0411066373083
 21
-355.76810214108519
 31
0.0
  0
LINE
  5
B7F
  8
0
  6
CONTINUOUS
 62
     0
 10
-103.5798534956966
 20
-359.8602908064056
 30
0.0
 11
-103.5798534956966
 21
-359.8602908064056
 31
0.0
  0
LINE
  5
B80
  8
0
  6
CONTINUOUS
 62
     0
 10
-104.1434655937028
 20
-364.14134971781772
 30
0.0
 11
-104.1434655937028
 21
-364.14134971781772
 31
0.0
  0
LINE
  5
B81
  8
0
  6
CONTINUOUS
 62
     0
 10
-104.647401116626
 20
-367.96912003860967
 30
0.0
 11
-104.647401116626
 21
-367.96912003860967
 31
0.0
  0
LINE
  5
B82
  8
0
  6
CONTINUOUS
 62
     0
 10
-105.18614797501419
 20
-372.06130870393008
 30
0.0
 11
-105.18614797501419
 21
-372.06130870393008
 31
0.0
  0
LINE
  5
B83
  8
0
  6
CONTINUOUS
 62
     0
 10
-101.2921011635628
 20
-311.98974323648929
 30
0.0
 11
-101.2921011635628
 21
-311.98974323648929
 31
0.0
  0
LINE
  5
B84
  8
0
  6
CONTINUOUS
 62
     0
 10
-101.79603668648591
 20
-315.8175135572813
 30
0.0
 11
-101.79603668648591
 21
-315.8175135572813
 31
0.0
  0
LINE
  5
B85
  8
0
  6
CONTINUOUS
 62
     0
 10
-102.3347835448742
 20
-319.90970222260171
 30
0.0
 11
-102.3347835448742
 21
-319.90970222260171
 31
0.0
  0
LINE
  5
B86
  8
0
  6
CONTINUOUS
 62
     0
 10
-102.8983956428804
 20
-324.19076113401383
 30
0.0
 11
-102.8983956428804
 21
-324.19076113401383
 31
0.0
  0
LINE
  5
B87
  8
0
  6
CONTINUOUS
 62
     0
 10
-103.4023311658036
 20
-328.0185314548059
 30
0.0
 11
-103.4023311658036
 21
-328.0185314548059
 31
0.0
  0
LINE
  5
B88
  8
0
  6
CONTINUOUS
 62
     0
 10
-103.9410780241918
 20
-332.11072012012619
 30
0.0
 11
-103.9410780241918
 21
-332.11072012012619
 31
0.0
  0
LINE
  5
B89
  8
0
  6
CONTINUOUS
 62
     0
 10
-104.504690122198
 20
-336.39177903153842
 30
0.0
 11
-104.504690122198
 21
-336.39177903153842
 31
0.0
  0
LINE
  5
B8A
  8
0
  6
CONTINUOUS
 62
     0
 10
-105.0086256451212
 20
-340.21954935233038
 30
0.0
 11
-105.0086256451212
 21
-340.21954935233038
 31
0.0
  0
LINE
  5
B8B
  8
0
  6
CONTINUOUS
 62
     0
 10
-105.54737250350939
 20
-344.31173801765078
 30
0.0
 11
-105.54737250350939
 21
-344.31173801765078
 31
0.0
  0
LINE
  5
B8C
  8
0
  6
CONTINUOUS
 62
     0
 10
-106.1109846015156
 20
-348.5927969290629
 30
0.0
 11
-106.1109846015156
 21
-348.5927969290629
 31
0.0
  0
LINE
  5
B8D
  8
0
  6
CONTINUOUS
 62
     0
 10
-106.6149201244388
 20
-352.42056724985491
 30
0.0
 11
-106.6149201244388
 21
-352.42056724985491
 31
0.0
  0
LINE
  5
B8E
  8
0
  6
CONTINUOUS
 62
     0
 10
-107.1536669828271
 20
-356.51275591517532
 30
0.0
 11
-107.1536669828271
 21
-356.51275591517532
 31
0.0
  0
LINE
  5
B8F
  8
0
  6
CONTINUOUS
 62
     0
 10
-107.71727908083329
 20
-360.79381482658749
 30
0.0
 11
-107.71727908083329
 21
-360.79381482658749
 31
0.0
  0
LINE
  5
B90
  8
0
  6
CONTINUOUS
 62
     0
 10
-108.22121460375639
 20
-364.62158514737939
 30
0.0
 11
-108.22121460375639
 21
-364.62158514737939
 31
0.0
  0
LINE
  5
B91
  8
0
  6
CONTINUOUS
 62
     0
 10
-108.7599614621447
 20
-368.7137738126998
 30
0.0
 11
-108.7599614621447
 21
-368.7137738126998
 31
0.0
  0
LINE
  5
B92
  8
0
  6
CONTINUOUS
 62
     0
 10
-101.0897135940518
 20
-279.95911363879782
 30
0.0
 11
-101.0897135940518
 21
-279.95911363879782
 31
0.0
  0
LINE
  5
B93
  8
0
  6
CONTINUOUS
 62
     0
 10
-101.653325692058
 20
-284.24017255020988
 30
0.0
 11
-101.653325692058
 21
-284.24017255020988
 31
0.0
  0
LINE
  5
B94
  8
0
  6
CONTINUOUS
 62
     0
 10
-102.1572612149812
 20
-288.067942871002
 30
0.0
 11
-102.1572612149812
 21
-288.067942871002
 31
0.0
  0
LINE
  5
B95
  8
0
  6
CONTINUOUS
 62
     0
 10
-102.6960080733695
 20
-292.1601315363223
 30
0.0
 11
-102.6960080733695
 21
-292.1601315363223
 31
0.0
  0
LINE
  5
B96
  8
0
  6
CONTINUOUS
 62
     0
 10
-103.2596201713756
 20
-296.44119044773453
 30
0.0
 11
-103.2596201713756
 21
-296.44119044773453
 31
0.0
  0
LINE
  5
B97
  8
0
  6
CONTINUOUS
 62
     0
 10
-103.7635556942988
 20
-300.26896076852648
 30
0.0
 11
-103.7635556942988
 21
-300.26896076852648
 31
0.0
  0
LINE
  5
B98
  8
0
  6
CONTINUOUS
 62
     0
 10
-104.3023025526871
 20
-304.36114943384689
 30
0.0
 11
-104.3023025526871
 21
-304.36114943384689
 31
0.0
  0
LINE
  5
B99
  8
0
  6
CONTINUOUS
 62
     0
 10
-104.8659146506933
 20
-308.64220834525901
 30
0.0
 11
-104.8659146506933
 21
-308.64220834525901
 31
0.0
  0
LINE
  5
B9A
  8
0
  6
CONTINUOUS
 62
     0
 10
-105.3698501736164
 20
-312.46997866605102
 30
0.0
 11
-105.3698501736164
 21
-312.46997866605102
 31
0.0
  0
LINE
  5
B9B
  8
0
  6
CONTINUOUS
 62
     0
 10
-105.90859703200471
 20
-316.56216733137143
 30
0.0
 11
-105.90859703200471
 21
-316.56216733137143
 31
0.0
  0
LINE
  5
B9C
  8
0
  6
CONTINUOUS
 62
     0
 10
-106.4722091300109
 20
-320.8432262427836
 30
0.0
 11
-106.4722091300109
 21
-320.8432262427836
 31
0.0
  0
LINE
  5
B9D
  8
0
  6
CONTINUOUS
 62
     0
 10
-106.9761446529341
 20
-324.6709965635755
 30
0.0
 11
-106.9761446529341
 21
-324.6709965635755
 31
0.0
  0
LINE
  5
B9E
  8
0
  6
CONTINUOUS
 62
     0
 10
-107.5148915113223
 20
-328.76318522889602
 30
0.0
 11
-107.5148915113223
 21
-328.76318522889602
 31
0.0
  0
LINE
  5
B9F
  8
0
  6
CONTINUOUS
 62
     0
 10
-108.07850360932849
 20
-333.04424414030808
 30
0.0
 11
-108.07850360932849
 21
-333.04424414030808
 31
0.0
  0
LINE
  5
BA0
  8
0
  6
CONTINUOUS
 62
     0
 10
-108.58243913225169
 20
-336.87201446110009
 30
0.0
 11
-108.58243913225169
 21
-336.87201446110009
 31
0.0
  0
LINE
  5
BA1
  8
0
  6
CONTINUOUS
 62
     0
 10
-101.4509381225471
 20
-252.2095429525184
 30
0.0
 11
-101.4509381225471
 21
-252.2095429525184
 31
0.0
  0
LINE
  5
BA2
  8
0
  6
CONTINUOUS
 62
     0
 10
-102.0145502205533
 20
-256.49060186393052
 30
0.0
 11
-102.0145502205533
 21
-256.49060186393052
 31
0.0
  0
LINE
  5
BA3
  8
0
  6
CONTINUOUS
 62
     0
 10
-102.5184857434764
 20
-260.31837218472259
 30
0.0
 11
-102.5184857434764
 21
-260.31837218472259
 31
0.0
  0
LINE
  5
BA4
  8
0
  6
CONTINUOUS
 62
     0
 10
-103.0572326018647
 20
-264.41056085004288
 30
0.0
 11
-103.0572326018647
 21
-264.41056085004288
 31
0.0
  0
LINE
  5
BA5
  8
0
  6
CONTINUOUS
 62
     0
 10
-103.6208446998709
 20
-268.69161976145512
 30
0.0
 11
-103.6208446998709
 21
-268.69161976145512
 31
0.0
  0
LINE
  5
BA6
  8
0
  6
CONTINUOUS
 62
     0
 10
-104.124780222794
 20
-272.51939008224713
 30
0.0
 11
-104.124780222794
 21
-272.51939008224713
 31
0.0
  0
LINE
  5
BA7
  8
0
  6
CONTINUOUS
 62
     0
 10
-104.66352708118229
 20
-276.61157874756748
 30
0.0
 11
-104.66352708118229
 21
-276.61157874756748
 31
0.0
  0
LINE
  5
BA8
  8
0
  6
CONTINUOUS
 62
     0
 10
-105.2271391791885
 20
-280.8926376589796
 30
0.0
 11
-105.2271391791885
 21
-280.8926376589796
 31
0.0
  0
LINE
  5
BA9
  8
0
  6
CONTINUOUS
 62
     0
 10
-105.7310747021117
 20
-284.72040797977161
 30
0.0
 11
-105.7310747021117
 21
-284.72040797977161
 31
0.0
  0
LINE
  5
BAA
  8
0
  6
CONTINUOUS
 62
     0
 10
-106.26982156049991
 20
-288.81259664509201
 30
0.0
 11
-106.26982156049991
 21
-288.81259664509201
 31
0.0
  0
LINE
  5
BAB
  8
0
  6
CONTINUOUS
 62
     0
 10
-106.8334336585061
 20
-293.09365555650407
 30
0.0
 11
-106.8334336585061
 21
-293.09365555650407
 31
0.0
  0
LINE
  5
BAC
  8
0
  6
CONTINUOUS
 62
     0
 10
-107.3373691814293
 20
-296.92142587729609
 30
0.0
 11
-107.3373691814293
 21
-296.92142587729609
 31
0.0
  0
LINE
  5
BAD
  8
0
  6
CONTINUOUS
 62
     0
 10
-107.8761160398176
 20
-301.01361454261649
 30
0.0
 11
-107.8761160398176
 21
-301.01361454261649
 31
0.0
  0
LINE
  5
BAE
  8
0
  6
CONTINUOUS
 62
     0
 10
-108.43972813782381
 20
-305.29467345402873
 30
0.0
 11
-108.43972813782381
 21
-305.29467345402873
 31
0.0
  0
LINE
  5
BAF
  8
0
  6
CONTINUOUS
 62
     0
 10
-108.94366366074691
 20
-309.12244377482068
 30
0.0
 11
-108.94366366074691
 21
-309.12244377482068
 31
0.0
  0
LINE
  5
BB0
  8
0
  6
CONTINUOUS
 62
     0
 10
-102.8797102719717
 20
-232.56880149844329
 30
0.0
 11
-102.8797102719717
 21
-232.56880149844329
 31
0.0
  0
LINE
  5
BB1
  8
0
  6
CONTINUOUS
 62
     0
 10
-103.41845713036
 20
-236.6609901637637
 30
0.0
 11
-103.41845713036
 21
-236.6609901637637
 31
0.0
  0
LINE
  5
BB2
  8
0
  6
CONTINUOUS
 62
     0
 10
-103.9820692283662
 20
-240.94204907517579
 30
0.0
 11
-103.9820692283662
 21
-240.94204907517579
 31
0.0
  0
LINE
  5
BB3
  8
0
  6
CONTINUOUS
 62
     0
 10
-104.4860047512893
 20
-244.7698193959678
 30
0.0
 11
-104.4860047512893
 21
-244.7698193959678
 31
0.0
  0
LINE
  5
BB4
  8
0
  6
CONTINUOUS
 62
     0
 10
-105.02475160967759
 20
-248.86200806128821
 30
0.0
 11
-105.02475160967759
 21
-248.86200806128821
 31
0.0
  0
LINE
  5
BB5
  8
0
  6
CONTINUOUS
 62
     0
 10
-105.5883637076838
 20
-253.1430669727003
 30
0.0
 11
-105.5883637076838
 21
-253.1430669727003
 31
0.0
  0
LINE
  5
BB6
  8
0
  6
CONTINUOUS
 62
     0
 10
-106.092299230607
 20
-256.97083729349242
 30
0.0
 11
-106.092299230607
 21
-256.97083729349242
 31
0.0
  0
LINE
  5
BB7
  8
0
  6
CONTINUOUS
 62
     0
 10
-106.63104608899521
 20
-261.06302595881277
 30
0.0
 11
-106.63104608899521
 21
-261.06302595881277
 31
0.0
  0
LINE
  5
BB8
  8
0
  6
CONTINUOUS
 62
     0
 10
-107.19465818700139
 20
-265.34408487022489
 30
0.0
 11
-107.19465818700139
 21
-265.34408487022489
 31
0.0
  0
LINE
  5
BB9
  8
0
  6
CONTINUOUS
 62
     0
 10
-107.69859370992459
 20
-269.1718551910169
 30
0.0
 11
-107.69859370992459
 21
-269.1718551910169
 31
0.0
  0
LINE
  5
BBA
  8
0
  6
CONTINUOUS
 62
     0
 10
-108.2373405683129
 20
-273.26404385633731
 30
0.0
 11
-108.2373405683129
 21
-273.26404385633731
 31
0.0
  0
LINE
  5
BBB
  8
0
  6
CONTINUOUS
 62
     0
 10
-108.80095266631911
 20
-277.54510276774943
 30
0.0
 11
-108.80095266631911
 21
-277.54510276774943
 31
0.0
  0
LINE
  5
BBC
  8
0
  6
CONTINUOUS
 62
     0
 10
-106.4535237591022
 20
-229.22126660721301
 30
0.0
 11
-106.4535237591022
 21
-229.22126660721301
 31
0.0
  0
LINE
  5
BBD
  8
0
  6
CONTINUOUS
 62
     0
 10
-106.9922706174905
 20
-233.31345527253339
 30
0.0
 11
-106.9922706174905
 21
-233.31345527253339
 31
0.0
  0
LINE
  5
BBE
  8
0
  6
CONTINUOUS
 62
     0
 10
-107.55588271549669
 20
-237.59451418394551
 30
0.0
 11
-107.55588271549669
 21
-237.59451418394551
 31
0.0
  0
LINE
  5
BBF
  8
0
  6
CONTINUOUS
 62
     0
 10
-108.05981823841979
 20
-241.4222845047376
 30
0.0
 11
-108.05981823841979
 21
-241.4222845047376
 31
0.0
  0
LINE
  5
BC0
  8
0
  6
CONTINUOUS
 62
     0
 10
-108.5985650968081
 20
-245.5144731700579
 30
0.0
 11
-108.5985650968081
 21
-245.5144731700579
 31
0.0
  0
ENDBLK
  5
BC2
  8
0
  0
BLOCK
  8
0
  2
*X7
 70
     1
 10
0.0
 20
0.0
 30
0.0
  3
*X7
  1

  0
LINE
  5
BC4
  8
0
  6
CONTINUOUS
 62
     0
 10
-50.481743389032268
 20
-221.12681585305509
 30
0.0
 11
-42.655777072054889
 21
-228.95278217003249
 31
0.0
  0
LINE
  5
BC5
  8
0
  6
CONTINUOUS
 62
     0
 10
-48.590754911314448
 20
-218.52767627023829
 30
0.0
 11
-38.00271385071381
 21
-229.115717330839
 31
0.0
  0
LINE
  5
BC6
  8
0
  6
CONTINUOUS
 62
     0
 10
-45.749264908035677
 20
-216.87903821298249
 30
0.0
 11
-34.300152154933663
 21
-228.32815096608459
 31
0.0
  0
LINE
  5
BC7
  8
0
  6
CONTINUOUS
 62
     0
 10
-42.188040462067299
 20
-215.9501345984163
 30
0.0
 11
-31.317324901843129
 21
-226.8208501586405
 31
0.0
  0
LINE
  5
BC8
  8
0
  6
CONTINUOUS
 62
     0
 10
-37.763688334035763
 20
-215.88435866591331
 30
0.0
 11
-29.197625330815761
 21
-224.45042166913331
 31
0.0
  0
ENDBLK
  5
BCA
  8
0
  0
BLOCK
  8
0
  2
*U8
 70
     1
 10
0.0
 20
0.0
 30
0.0
  3
*U8
  1

  0
SOLID
  5
BEF
  8
0
 10
40.346347727512203
 20
-67.77727296580882
 30
0.0
 11
37.528314670831612
 21
-70.693286363566074
 31
0.0
 12
39.248287541391988
 22
-67.020938644601983
 32
0.0
 13
39.248287541391988
 23
-67.020938644601983
 33
0.0
  0
POLYLINE
  5
BF0
  8
0
 66
     1
 10
0.0
 20
0.0
 30
0.0
  0
VERTEX
  5
BF1
  8
0
 10
39.797317634452099
 20
-67.399105805205409
 30
0.0
  0
VERTEX
  5
BF2
  8
0
 10
74.0
 20
-17.743017603102039
 30
0.0
  0
VERTEX
  5
BF3
  8
0
 10
78.0
 20
-17.743017603102039
 30
0.0
  0
SEQEND
  5
BF4
  8
0
  0
ENDBLK
  5
BF6
  8
0
  0
BLOCK
  8
0
  2
*U9
 70
     1
 10
0.0
 20
0.0
 30
0.0
  3
*U9
  1

  0
TEXT
  5
BF8
  8
0
  6
CONTINUOUS
 10
79.768076398362894
 20
-19.24301760310205
 30
0.0
 40
4.0
  1
5mm gap - do not seal
  7
HCAV-19_METR_HEAD_SIL$0$AR
  0
ENDBLK
  5
BFA
  8
0
  0
BLOCK
  8
0
  2
*U10
 70
     1
 10
0.0
 20
0.0
 30
0.0
  3
*U10
  1

  0
SOLID
  5
BFC
  8
0
 10
59.534038123563711
 20
-99.947640065365036
 30
0.0
 11
56.786525782204968
 21
-102.9301927268491
 31
0.0
 12
58.41820956625218
 22
-99.217774044464036
 32
0.0
 13
58.41820956625218
 23
-99.217774044464036
 33
0.0
  0
POLYLINE
  5
BFD
  8
0
 66
     1
 10
0.0
 20
0.0
 30
0.0
  0
VERTEX
  5
BFE
  8
0
 10
58.976123844907953
 20
-99.582707054914536
 30
0.0
  0
VERTEX
  5
BFF
  8
0
 10
74.0
 20
-76.61401201322883
 30
0.0
  0
VERTEX
  5
C00
  8
0
 10
78.0
 20
-76.61401201322883
 30
0.0
  0
SEQEND
  5
C01
  8
0
  0
ENDBLK
  5
C03
  8
0
  0
BLOCK
  8
0
  2
*U11
 70
     1
 10
0.0
 20
0.0
 30
0.0
  3
*U11
  1

  0
TEXT
  5
C05
  8
0
  6
CONTINUOUS
 10
79.929058663028655
 20
-62.124471312910501
 30
0.0
 40
4.0
  1
40x40 Colorsteel angle
  7
HCAV-19_METR_HEAD_SIL$0$AR
  0
TEXT
  5
C06
  8
0
  6
CONTINUOUS
 10
79.948158253751686
 20
-68.859350803588086
 30
0.0
 40
4.0
  1
flashing
  7
HCAV-19_METR_HEAD_SIL$0$AR
  0
TEXT
  5
C07
  8
0
  6
CONTINUOUS
 10
79.8281036834925
 20
-75.560123882260214
 30
0.0
 40
4.0
  1
sealed and rivetedto
  7
HCAV-19_METR_HEAD_SIL$0$AR
  0
TEXT
  5
C08
  8
0
  6
CONTINUOUS
 10
79.631650750341066
 20
-82.226790548926886
 30
0.0
 40
4.0
  1
meterbox
  7
HCAV-19_METR_HEAD_SIL$0$AR
  0
TEXT
  5
C09
  8
0
  6
CONTINUOUS
 10
79.79809004092769
 20
-88.927563627599014
 30
0.0
 40
4.0
  1
and head flashing
  7
HCAV-19_METR_HEAD_SIL$0$AR
  0
ENDBLK
  5
C0B
  8
0
  0
BLOCK
  8
0
  2
*U12
 70
     1
 10
0.0
 20
0.0
 30
0.0
  3
*U12
  1

  0
SOLID
  5
C0D
  8
0
 10
40.093412454999417
 20
-220.12516548253711
 30
0.0
 11
36.786525782204968
 21
-217.77805130173149
 31
0.0
 12
40.675888044839382
 22
-218.92579065996571
 32
0.0
 13
40.675888044839382
 23
-218.92579065996571
 33
0.0
  0
POLYLINE
  5
C0E
  8
0
 66
     1
 10
0.0
 20
0.0
 30
0.0
  0
VERTEX
  5
C0F
  8
0
 10
40.384650249919403
 20
-219.5254780712514
 30
0.0
  0
VERTEX
  5
C10
  8
0
 10
73.999999999999986
 20
-235.85075045888971
 30
0.0
  0
VERTEX
  5
C11
  8
0
 10
77.999999999999986
 20
-235.85075045888971
 30
0.0
  0
SEQEND
  5
C12
  8
0
  0
ENDBLK
  5
C14
  8
0
  0
BLOCK
  8
0
  2
*U13
 70
     1
 10
0.0
 20
0.0
 30
0.0
  3
*U13
  1

  0
TEXT
  5
C16
  8
0
  6
CONTINUOUS
 10
79.748976807639821
 20
-237.38485687089519
 30
0.0
 40
4.0
  1
Seal and rivet 40x40
  7
HCAV-19_METR_HEAD_SIL$0$AR
  0
TEXT
  5
C17
  8
0
  6
CONTINUOUS
 10
79.721691678035455
 20
-244.11973636157279
 30
0.0
 40
4.0
  1
Colorsteel angle to all
  7
HCAV-19_METR_HEAD_SIL$0$AR
  0
TEXT
  5
C18
  8
0
  6
CONTINUOUS
 10
79.828103683492486
 20
-250.8546158522503
 30
0.0
 40
4.0
  1
sides of box
  7
HCAV-19_METR_HEAD_SIL$0$AR
  0
ENDBLK
  5
C1A
  8
0
  0
BLOCK
  8
0
  2
*U14
 70
     1
 10
0.0
 20
0.0
 30
0.0
  3
*U14
  1

  0
SOLID
  5
C1C
  8
0
 10
57.599781702299772
 20
-236.17019655490449
 30
0.0
 11
56.786525782204961
 21
-232.19740669727611
 31
0.0
 12
58.844294309093037
 22
-235.6916924804074
 32
0.0
 13
58.844294309093037
 23
-235.6916924804074
 33
0.0
  0
POLYLINE
  5
C1D
  8
0
 66
     1
 10
0.0
 20
0.0
 30
0.0
  0
VERTEX
  5
C1E
  8
0
 10
58.222038005696398
 20
-235.930944517656
 30
0.0
  0
VERTEX
  5
C1F
  8
0
 10
74.0
 20
-276.966901488453
 30
0.0
  0
VERTEX
  5
C20
  8
0
 10
78.0
 20
-276.966901488453
 30
0.0
  0
SEQEND
  5
C21
  8
0
  0
ENDBLK
  5
C23
  8
0
  0
BLOCK
  8
0
  2
*U15
 70
     1
 10
0.0
 20
0.0
 30
0.0
  3
*U15
  1

  0
TEXT
  5
C25
  8
0
  6
CONTINUOUS
 10
79.721691678035469
 20
-278.50100790045849
 30
0.0
 40
4.0
  1
Continous compressible
  7
HCAV-19_METR_HEAD_SIL$0$AR
  0
TEXT
  5
C26
  8
0
  6
CONTINUOUS
 10
79.948158253751686
 20
-285.23588739113609
 30
0.0
 40
4.0
  1
foam strip seal
  7
HCAV-19_METR_HEAD_SIL$0$AR
  0
TEXT
  5
C27
  8
0
  6
CONTINUOUS
 10
79.661664392905863
 20
-291.97076688181369
 30
0.0
 40
4.0
  1
(See Note 2 below)
  7
HCAV-19_METR_HEAD_SIL$0$AR
  0
ENDBLK
  5
C29
  8
0
  0
BLOCK
  8
0
  2
*U16
 70
     1
 10
0.0
 20
0.0
 30
0.0
  3
*U16
  1

  0
SOLID
  5
C2B
  8
0
 10
18.109961229977319
 20
-343.2351304817164
 30
0.0
 11
14.293574444614929
 21
-344.6061287854921
 31
0.0
 12
17.45902195386833
 22
-342.07149143261381
 32
0.0
 13
17.45902195386833
 23
-342.07149143261381
 33
0.0
  0
POLYLINE
  5
C2C
  8
0
 66
     1
 10
0.0
 20
0.0
 30
0.0
  0
VERTEX
  5
C2D
  8
0
 10
17.78449159192283
 20
-342.65331095716499
 30
0.0
  0
VERTEX
  5
C2E
  8
0
 10
74.0
 20
-311.20637526222413
 30
0.0
  0
VERTEX
  5
C2F
  8
0
 10
78.0
 20
-311.20637526222413
 30
0.0
  0
SEQEND
  5
C30
  8
0
  0
ENDBLK
  5
C32
  8
0
  0
BLOCK
  8
0
  2
*U17
 70
     1
 10
0.0
 20
0.0
 30
0.0
  3
*U17
  1

  0
TEXT
  5
C34
  8
0
  6
CONTINUOUS
 10
79.721691678035469
 20
-312.74048167422961
 30
0.0
 40
4.0
  1
Cavity battens
  7
HCAV-19_METR_HEAD_SIL$0$AR
  0
ENDBLK
  5
C36
  8
0
  0
BLOCK
  8
0
  2
*U18
 70
     1
 10
0.0
 20
0.0
 30
0.0
  3
*U18
  1

  0
SOLID
  5
C38
  8
0
 10
-1.578976870090788
 20
-42.405316306315882
 30
0.0
 11
2.0000000000000009
 21
-44.311980673161699
 31
0.0
 12
-2.003896293387228
 22
-43.669128500228879
 32
0.0
 13
-2.003896293387228
 23
-43.669128500228879
 33
0.0
  0
POLYLINE
  5
C39
  8
0
 66
     1
 10
0.0
 20
0.0
 30
0.0
  0
VERTEX
  5
C3A
  8
0
 10
-1.7914365817390081
 20
-43.037222403272381
 30
0.0
  0
VERTEX
  5
C3B
  8
0
 10
-124.0
 20
-1.948212074299021
 30
0.0
  0
VERTEX
  5
C3C
  8
0
 10
-128.0
 20
-1.948212074299021
 30
0.0
  0
SEQEND
  5
C3D
  8
0
  0
ENDBLK
  5
C3F
  8
0
  0
BLOCK
  8
0
  2
*U19
 70
     1
 10
0.0
 20
0.0
 30
0.0
  3
*U19
  1

  0
TEXT
  5
C41
  8
0
  6
CONTINUOUS
 10
-183.8226466575716
 20
0.8064491353417224
 30
0.0
 40
4.0
  1
Approved tape and/or
  7
HCAV-19_METR_HEAD_SIL$0$AR
  0
TEXT
  5
C42
  8
0
  6
CONTINUOUS
 10
-171.38881309686221
 20
-5.8943239433304004
 30
0.0
 40
4.0
  1
house wrap over
  7
HCAV-19_METR_HEAD_SIL$0$AR
  0
TEXT
  5
C43
  8
0
  6
CONTINUOUS
 10
-178.82128240109139
 20
-12.560990609997059
 30
0.0
 40
4.0
  1
WANZ cavity closer
  7
HCAV-19_METR_HEAD_SIL$0$AR
  0
ENDBLK
  5
C45
  8
0
  0
BLOCK
  8
0
  2
*U20
 70
     1
 10
0.0
 20
0.0
 30
0.0
  3
*U20
  1

  0
SOLID
  5
C47
  8
0
 10
-1.7805067244658219
 20
-57.4590927232911
 30
0.0
 11
1.999999999999998
 21
-58.926135105335042
 31
0.0
 12
-2.0519525389413791
 22
-58.764502600525638
 32
0.0
 13
-2.0519525389413791
 23
-58.764502600525638
 33
0.0
  0
POLYLINE
  5
C48
  8
0
 66
     1
 10
0.0
 20
0.0
 30
0.0
  0
VERTEX
  5
C49
  8
0
 10
-1.9162296317036009
 20
-58.111797661908369
 30
0.0
  0
VERTEX
  5
C4A
  8
0
 10
-128.0
 20
-31.894046182751708
 30
0.0
  0
SEQEND
  5
C4B
  8
0
  0
ENDBLK
  5
C4D
  8
0
  0
BLOCK
  8
0
  2
*U21
 70
     1
 10
0.0
 20
0.0
 30
0.0
  3
*U21
  1

  0
TEXT
  5
C4F
  8
0
  6
CONTINUOUS
 10
-178.82128240109139
 20
-32.438611894438843
 30
0.0
 40
4.0
  1
WANZ cavity closer
  7
HCAV-19_METR_HEAD_SIL$0$AR
  0
TEXT
  5
C50
  8
0
  6
CONTINUOUS
 10
-155.27421555252391
 20
-39.139384973110971
 30
0.0
 40
4.0
  1
(9010500)
  7
HCAV-19_METR_HEAD_SIL$0$AR
  0
ENDBLK
  5
C52
  8
0
  0
BLOCK
  8
0
  2
*U22
 70
     1
 10
0.0
 20
0.0
 30
0.0
  3
*U22
  1

  0
SOLID
  5
C54
  8
0
 10
59.432045757187261
 20
-74.158804296998312
 30
0.0
 11
57.376907132236248
 21
-77.654637484763271
 31
0.0
 12
58.187173446293158
 22
-73.681236807163657
 32
0.0
 13
58.187173446293158
 23
-73.681236807163657
 33
0.0
  0
POLYLINE
  5
C55
  8
0
 66
     1
 10
0.0
 20
0.0
 30
0.0
  0
VERTEX
  5
C56
  8
0
 10
58.80960960174022
 20
-73.920020552080985
 30
0.0
  0
VERTEX
  5
C57
  8
0
 10
74.0
 20
-34.323321025879302
 30
0.0
  0
VERTEX
  5
C58
  8
0
 10
78.0
 20
-34.323321025879302
 30
0.0
  0
SEQEND
  5
C59
  8
0
  0
ENDBLK
  5
C5B
  8
0
  0
BLOCK
  8
0
  2
*U23
 70
     1
 10
0.0
 20
0.0
 30
0.0
  3
*U23
  1

  0
TEXT
  5
C5D
  8
0
  6
CONTINUOUS
 10
80.0
 20
-35.823321025879302
 30
0.0
 40
4.0
  1
Aluminium head
  7
HCAV-19_METR_HEAD_SIL$0$AR
  0
TEXT
  5
C5E
  8
0
  6
CONTINUOUS
 10
79.948158253751686
 20
-42.524094104551409
 30
0.0
 40
4.0
  1
flashing
  7
HCAV-19_METR_HEAD_SIL$0$AR
  0
TEXT
  5
C5F
  8
0
  6
CONTINUOUS
 10
79.983628922237386
 20
-49.233052722104851
 30
0.0
 40
4.0
  1
with 15º slope
  7
HCAV-19_METR_HEAD_SIL$0$AR
  0
ENDBLK
  5
C61
  8
0
  0
BLOCK
  8
0
  2
*U24
 70
     1
 10
0.0
 20
0.0
 30
0.0
  3
*U24
  1

  0
SOLID
  5
C63
  8
0
 10
-82.870844439836844
 20
-115.9154456817718
 30
0.0
 11
-79.370389006064215
 21
-117.9627014549023
 31
0.0
 12
-83.345605477945497
 22
-117.1613909993807
 32
0.0
 13
-83.345605477945497
 23
-117.1613909993807
 33
0.0
  0
POLYLINE
  5
C64
  8
0
 66
     1
 10
0.0
 20
0.0
 30
0.0
  0
VERTEX
  5
C65
  8
0
 10
-83.108224958891185
 20
-116.5384183405762
 30
0.0
  0
VERTEX
  5
C66
  8
0
 10
-124.0
 20
-100.9568183343427
 30
0.0
  0
VERTEX
  5
C67
  8
0
 10
-128.0
 20
-100.9568183343427
 30
0.0
  0
SEQEND
  5
C68
  8
0
  0
ENDBLK
  5
C6A
  8
0
  0
BLOCK
  8
0
  2
*U25
 70
     1
 10
0.0
 20
0.0
 30
0.0
  3
*U25
  1

  0
TEXT
  5
C6C
  8
0
  6
CONTINUOUS
 10
-180.8458390177353
 20
-94.867459534888454
 30
0.0
 40
4.0
  1
Wall underlay turned
  7
HCAV-19_METR_HEAD_SIL$0$AR
  0
TEXT
  5
C6D
  8
0
  6
CONTINUOUS
 10
-181.80900409276941
 20
-101.5341262015551
 30
0.0
 40
4.0
  1
into trimmed opening
  7
HCAV-19_METR_HEAD_SIL$0$AR
  0
TEXT
  5
C6E
  8
0
  6
CONTINUOUS
 10
-180.8758526603001
 20
-108.2348992802272
 30
0.0
 40
4.0
  1
 with flexible flashing
  7
HCAV-19_METR_HEAD_SIL$0$AR
  0
TEXT
  5
C6F
  8
0
  6
CONTINUOUS
 10
-167.05866302864939
 20
-114.9356723588994
 30
0.0
 40
4.0
  1
tape at corners
  7
HCAV-19_METR_HEAD_SIL$0$AR
  0
ENDBLK
  5
C71
  8
0
  0
BLOCK
  8
0
  2
*U26
 70
     1
 10
0.0
 20
0.0
 30
0.0
  3
*U26
  1

  0
SOLID
  5
C73
  8
0
 10
-50.11268655638883
 20
-122.1728125214478
 30
0.0
 11
-46.132585159750299
 21
-121.3961289842716
 31
0.0
 12
-49.645648576945831
 22
-123.4216733237534
 32
0.0
 13
-49.645648576945831
 23
-123.4216733237534
 33
0.0
  0
POLYLINE
  5
C74
  8
0
 66
     1
 10
0.0
 20
0.0
 30
0.0
  0
VERTEX
  5
C75
  8
0
 10
-49.879167566667341
 20
-122.7972429226006
 30
0.0
  0
VERTEX
  5
C76
  8
0
 10
-124.0
 20
-150.51629996273309
 30
0.0
  0
VERTEX
  5
C77
  8
0
 10
-128.0
 20
-150.51629996273309
 30
0.0
  0
SEQEND
  5
C78
  8
0
  0
ENDBLK
  5
C7A
  8
0
  0
BLOCK
  8
0
  2
*U27
 70
     1
 10
0.0
 20
0.0
 30
0.0
  3
*U27
  1

  0
TEXT
  5
C7C
  8
0
  6
CONTINUOUS
 10
-181.6589358799454
 20
-141.54654098137789
 30
0.0
 40
4.0
  1
Waterproof airseal to
  7
HCAV-19_METR_HEAD_SIL$0$AR
  0
TEXT
  5
C7D
  8
0
  6
CONTINUOUS
 10
-186.46384720327421
 20
-148.28142047205549
 30
0.0
 40
4.0
  1
perimeter of trim cavity
  7
HCAV-19_METR_HEAD_SIL$0$AR
  0
TEXT
  5
C7E
  8
0
  6
CONTINUOUS
 10
-192.51296043656211
 20
-155.016299962733
 30
0.0
 40
4.0
  1
 with expandable foam or
  7
HCAV-19_METR_HEAD_SIL$0$AR
  0
TEXT
  5
C7F
  8
0
  6
CONTINUOUS
 10
-183.97544338335609
 20
-161.71707304140509
 30
0.0
 40
4.0
  1
sealant as per section
  7
HCAV-19_METR_HEAD_SIL$0$AR
  0
TEXT
  5
C80
  8
0
  6
CONTINUOUS
 10
-168.11732605729881
 20
-168.41784612007729
 30
0.0
 40
4.0
  1
9.1.6 of E2/AS1
  7
HCAV-19_METR_HEAD_SIL$0$AR
  0
ENDBLK
  5
C82
  8
0
  0
BLOCK
  8
0
  2
*U28
 70
     1
 10
0.0
 20
0.0
 30
0.0
  3
*U28
  1

  0
SOLID
  5
C84
  8
0
 10
-81.961937673327725
 20
-226.07838121651449
 30
0.0
 11
-79.370389006064258
 21
-229.1974066972775
 31
0.0
 12
-82.833429793182603
 22
-227.0874794589115
 32
0.0
 13
-82.833429793182603
 23
-227.0874794589115
 33
0.0
  0
POLYLINE
  5
C85
  8
0
 66
     1
 10
0.0
 20
0.0
 30
0.0
  0
VERTEX
  5
C86
  8
0
 10
-82.397683733255164
 20
-226.58293033771301
 30
0.0
  0
VERTEX
  5
C87
  8
0
 10
-124.0
 20
-190.65373209824639
 30
0.0
  0
VERTEX
  5
C88
  8
0
 10
-128.0
 20
-190.65373209824639
 30
0.0
  0
SEQEND
  5
C89
  8
0
  0
ENDBLK
  5
C8B
  8
0
  0
BLOCK
  8
0
  2
*U29
 70
     1
 10
0.0
 20
0.0
 30
0.0
  3
*U29
  1

  0
TEXT
  5
C8D
  8
0
  6
CONTINUOUS
 10
-180.8458390177353
 20
-184.56437329879211
 30
0.0
 40
4.0
  1
Wall underlay turned
  7
HCAV-19_METR_HEAD_SIL$0$AR
  0
TEXT
  5
C8E
  8
0
  6
CONTINUOUS
 10
-183.36152796725781
 20
-191.23103996545871
 30
0.0
 40
4.0
  1
 into trimmed opening
  7
HCAV-19_METR_HEAD_SIL$0$AR
  0
TEXT
  5
C8F
  8
0
  6
CONTINUOUS
 10
-180.8758526603001
 20
-197.93181304413079
 30
0.0
 40
4.0
  1
 with flexible flashing
  7
HCAV-19_METR_HEAD_SIL$0$AR
  0
TEXT
  5
C90
  8
0
  6
CONTINUOUS
 10
-167.05866302864931
 20
-204.63258612280299
 30
0.0
 40
4.0
  1
tape at corners
  7
HCAV-19_METR_HEAD_SIL$0$AR
  0
ENDBLK
  5
C92
  8
0
  0
BLOCK
  8
0
  2
*U30
 70
     1
 10
0.0
 20
0.0
 30
0.0
  3
*U30
  1

  0
SOLID
  5
C94
  8
0
 10
64.196996479874485
 20
-120.2367165402253
 30
0.0
 11
61.687066616531411
 21
-123.4217905622133
 31
0.0
 12
63.028327615265233
 22
-119.59485139654581
 32
0.0
 13
63.028327615265233
 23
-119.59485139654581
 33
0.0
  0
POLYLINE
  5
C95
  8
0
 66
     1
 10
0.0
 20
0.0
 30
0.0
  0
VERTEX
  5
C96
  8
0
 10
63.612662047569863
 20
-119.9157839683856
 30
0.0
  0
VERTEX
  5
C97
  8
0
 10
74.0
 20
-101.0031532223217
 30
0.0
  0
VERTEX
  5
C98
  8
0
 10
78.0
 20
-101.0031532223217
 30
0.0
  0
SEQEND
  5
C99
  8
0
  0
ENDBLK
  5
C9B
  8
0
  0
BLOCK
  8
0
  2
*U31
 70
     1
 10
0.0
 20
0.0
 30
0.0
  3
*U31
  1

  0
TEXT
  5
C9D
  8
0
  6
CONTINUOUS
 10
79.585266030013642
 20
-102.5031532223217
 30
0.0
 40
4.0
  1
Metal meterbox
  7
HCAV-19_METR_HEAD_SIL$0$AR
  0
ENDBLK
  5
C9F
  8
0
  0
BLOCK
  8
0
  2
*X32
 70
     1
 10
0.0
 20
0.0
 30
0.0
  3
*X32
  1

  0
LINE
  5
CA8
  8
0
  6
CONTINUOUS
 62
     0
 10
-39.417199620706157
 20
-120.2217082421101
 30
0.0
 11
-41.143659323510079
 21
-118.4952485393062
 31
0.0
  0
LINE
  5
CA9
  8
0
  6
CONTINUOUS
 62
     0
 10
-39.887247539410247
 20
-121.9967243536733
 30
0.0
 11
-43.919479261609247
 21
-117.9644926314743
 31
0.0
  0
LINE
  5
CAA
  8
0
  6
CONTINUOUS
 62
     0
 10
-41.210065808961993
 20
-122.9189701143888
 30
0.0
 11
-45.842528848860759
 21
-118.2865070744901
 31
0.0
  0
LINE
  5
CAB
  8
0
  6
CONTINUOUS
 62
     0
 10
-42.993823722241821
 20
-123.3802762313763
 30
0.0
 11
-47.304638792384203
 21
-119.0694611612339
 31
0.0
  0
LINE
  5
CAC
  8
0
  6
CONTINUOUS
 62
     0
 10
-45.391121113253249
 20
-123.22804287063219
 30
0.0
 11
-48.153209258176027
 21
-120.46595472570939
 31
0.0
  0
LINE
  5
CAD
  8
0
  6
CONTINUOUS
 62
     0
 10
-42.178496042093762
 20
-123.24016284555491
 30
0.0
 11
-39.371156680770909
 21
-120.4328234842321
 31
0.0
  0
LINE
  5
CAE
  8
0
  6
CONTINUOUS
 62
     0
 10
-44.559862874634007
 20
-123.3764656478279
 30
0.0
 11
-40.23565770503393
 21
-119.05226047822779
 31
0.0
  0
LINE
  5
CAF
  8
0
  6
CONTINUOUS
 62
     0
 10
-46.335804259161172
 20
-122.9073430020877
 30
0.0
 11
-41.70558417731003
 21
-118.27712292023659
 31
0.0
  0
LINE
  5
CB0
  8
0
  6
CONTINUOUS
 62
     0
 10
-47.649975403618008
 20
-121.97645011627731
 30
0.0
 11
-43.637280889656452
 21
-117.9637556023158
 31
0.0
  0
LINE
  5
CB1
  8
0
  6
CONTINUOUS
 62
     0
 10
-48.086179076569891
 20
-120.1675897589619
 30
0.0
 11
-46.446945073507827
 21
-118.5283557558998
 31
0.0
  0
ENDBLK
  5
CB3
  8
0
  0
BLOCK
  8
0
  2
*U33
 70
     1
 10
0.0
 20
0.0
 30
0.0
  3
*U33
  1

  0
SOLID
  5
CB5
  8
0
 10
46.63132540311917
 20
17.65793555801044
 30
0.0
 11
42.80905117196221
 21
16.30343781113973
 31
0.0
 12
45.98541941866614
 22
18.824375970987258
 32
0.0
 13
45.98541941866614
 23
18.824375970987258
 33
0.0
  0
POLYLINE
  5
CB6
  8
0
 66
     1
 10
0.0
 20
0.0
 30
0.0
  0
VERTEX
  5
CB7
  8
0
 10
46.308372410892659
 20
18.241155764498849
 30
0.0
  0
VERTEX
  5
CB8
  8
0
 10
73.999999999999986
 20
33.575147779918581
 30
0.0
  0
VERTEX
  5
CB9
  8
0
 10
77.999999999999986
 20
33.575147779918581
 30
0.0
  0
SEQEND
  5
CBA
  8
0
  0
ENDBLK
  5
CBC
  8
0
  0
BLOCK
  8
0
  2
*U34
 70
     1
 10
0.0
 20
0.0
 30
0.0
  3
*U34
  1

  0
TEXT
  5
CBE
  8
0
  6
CONTINUOUS
 10
79.552523874488386
 20
32.006934955907667
 30
0.0
 40
4.0
  1
Horizontal Steel & Tube
  7
HCAV-19_METR_HEAD_SIL$0$AR
  0
TEXT
  5
CBF
  8
0
  6
CONTINUOUS
 10
79.721691678035455
 20
25.269326952269651
 30
0.0
 40
4.0
  1
Custom Orb wall
  7
HCAV-19_METR_HEAD_SIL$0$AR
  0
TEXT
  5
CC0
  8
0
  6
CONTINUOUS
 10
79.781718963165062
 20
18.60266028560299
 30
0.0
 40
4.0
  1
cladding
  7
HCAV-19_METR_HEAD_SIL$0$AR
  0
ENDBLK
  5
CC2
  8
0
  0
BLOCK
  8
0
  2
*U35
 70
     1
 10
0.0
 20
0.0
 30
0.0
  3
*U35
  1

  0
SOLID
  5
CC4
  8
0
 10
-111.5238421917112
 20
12.866759081601099
 30
0.0
 11
-109.0
 21
9.6926977974128476
 31
0.0
 12
-112.4168435708149
 22
11.87664478784675
 32
0.0
 13
-112.4168435708149
 23
11.87664478784675
 33
0.0
  0
POLYLINE
  5
CC5
  8
0
 66
     1
 10
0.0
 20
0.0
 30
0.0
  0
VERTEX
  5
CC6
  8
0
 10
-111.97034288126299
 20
12.371701934723919
 30
0.0
  0
VERTEX
  5
CC7
  8
0
 10
-124.0
 20
23.221459851502232
 30
0.0
  0
VERTEX
  5
CC8
  8
0
 10
-128.0
 20
23.221459851502232
 30
0.0
  0
SEQEND
  5
CC9
  8
0
  0
ENDBLK
  5
CCB
  8
0
  0
BLOCK
  8
0
  2
*U36
 70
     1
 10
0.0
 20
0.0
 30
0.0
  3
*U36
  1

  0
TEXT
  5
CCD
  8
0
  6
CONTINUOUS
 10
-154.78854024556611
 20
21.931555349455849
 30
0.0
 40
4.0
  1
Gib Lining
  7
HCAV-19_METR_HEAD_SIL$0$AR
  0
ENDBLK
  5
CCF
  8
0
  0
BLOCK
  8
0
  2
*U37
 70
     1
 10
0.0
 20
0.0
 30
0.0
  3
*U37
  1

  0
TEXT
  5
CD1
  8
0
  6
CONTINUOUS
 10
-114.47821265784491
 20
-393.65291152736569
 30
0.0
 40
4.0
  1
Notes:
  7
HCAV-19_METR_HEAD_SIL$0$AR
  0
TEXT
  5
CD2
  8
0
  6
CONTINUOUS
 10
-114.6610230261941
 20
-400.35368460603769
 30
0.0
 40
4.0
  1
1.     Cavity battens containing copper must be separated from steel cladding by building paper,
  7
HCAV-19_METR_HEAD_SIL$0$AR
  0
TEXT
  5
CD3
  8
0
  6
CONTINUOUS
 10
-102.4181853727152
 20
-407.08856409671529
 30
0.0
 40
4.0
  1
building wrap, DPC/PVC strips or by painting, otherwise use uPVC Cavibat 
  7
HCAV-19_METR_HEAD_SIL$0$AR
  0
TEXT
  5
CD4
  8
0
  6
CONTINUOUS
 10
84.153165241200156
 20
-404.6218974300487
 30
0.0
 40
2.7999999999999989
  1
TM
  7
HCAV-19_METR_HEAD_SIL$0$AR
  0
TEXT
  5
CD5
  8
0
  6
CONTINUOUS
 10
84.244843276670821
 20
-405.55523076338199
 30
0.0
 40
2.7999999999999989
  1

  7
HCAV-19_METR_HEAD_SIL$0$AR
  0
TEXT
  5
CD6
  8
0
  6
CONTINUOUS
 10
-114.21627868785851
 20
-413.82352426952122
 30
0.0
 40
4.0000799999999987
  1
2.     B.I.Y. available from DMA Flexible Foam 0800 862 625
  7
HCAV-19_METR_HEAD_SIL$0$AR
  0
ENDBLK
  5
CD8
  8
0
  0
BLOCK
  8
0
  2
*U38
 70
     1
 10
0.0
 20
0.0
 30
0.0
  3
*U38
  1

  0
SOLID
  5
CDA
  8
0
 10
51.036575008032088
 20
-353.16108090465292
 30
0.0
 11
47.841543935487557
 21
-355.65832356204908
 31
0.0
 12
50.053954088198481
 22
-352.25984070044359
 32
0.0
 13
50.053954088198481
 23
-352.25984070044359
 33
0.0
  0
POLYLINE
  5
CDB
  8
0
 66
     1
 10
0.0
 20
0.0
 30
0.0
  0
VERTEX
  5
CDC
  8
0
 10
50.545264548115291
 20
-352.7104608025482
 30
0.0
  0
VERTEX
  5
CDD
  8
0
 10
74.0
 20
-327.13779591637979
 30
0.0
  0
VERTEX
  5
CDE
  8
0
 10
78.0
 20
-327.13779591637979
 30
0.0
  0
SEQEND
  5
CDF
  8
0
  0
ENDBLK
  5
CE1
  8
0
  0
BLOCK
  8
0
  2
*U39
 70
     1
 10
0.0
 20
0.0
 30
0.0
  3
*U39
  1

  0
TEXT
  5
CE3
  8
0
  6
CONTINUOUS
 10
79.748976807639835
 20
-328.7060087403907
 30
0.0
 40
4.0
  1
Steel & Tube Custom
  7
HCAV-19_METR_HEAD_SIL$0$AR
  0
TEXT
  5
CE4
  8
0
  6
CONTINUOUS
 10
79.729877216916776
 20
-335.44361674402882
 30
0.0
 40
4.0
  1
Orb wall cladding
  7
HCAV-19_METR_HEAD_SIL$0$AR
  0
ENDBLK
  5
CE6
  8
0
  0
ENDSEC
  0
SECTION
  2
ENTITIES
  0
LINE
  5
795
  8
0
  6
CONTINUOUS
 10
-100.0
 20
-115.9627014549023
 30
0.0
 11
0.0
 21
-65.962701454903652
 31
0.0
  0
LINE
  5
796
  8
0
  6
CONTINUOUS
 10
0.0
 20
-115.96270145490359
 30
0.0
 11
-100.0
 21
-65.962701454902287
 31
0.0
  0
POLYLINE
  5
797
  8
0
  6
CONTINUOUS
 66
     1
 10
0.0
 20
0.0
 30
0.0
 70
     1
  0
VERTEX
  5
A54
  8
0
  6
CONTINUOUS
 10
0.0
 20
-65.962701454903652
 30
0.0
  0
VERTEX
  5
A55
  8
0
  6
CONTINUOUS
 10
0.0
 20
-115.96270145490359
 30
0.0
  0
VERTEX
  5
A56
  8
0
  6
CONTINUOUS
 10
-100.0
 20
-115.9627014549023
 30
0.0
  0
VERTEX
  5
A57
  8
0
  6
CONTINUOUS
 10
-100.0
 20
-65.962701454902287
 30
0.0
  0
SEQEND
  5
A58
  8
0
  6
CONTINUOUS
  0
POLYLINE
  5
798
  8
0
  6
CONTINUOUS
 66
     1
 10
0.0
 20
0.0
 30
0.0
 70
     1
 40
0.5
 41
0.5
  0
VERTEX
  5
A59
  8
0
  6
CONTINUOUS
 10
-0.25
 20
-66.212701454903652
 30
0.0
  0
VERTEX
  5
A5A
  8
0
  6
CONTINUOUS
 10
-0.25
 20
-115.71270145490359
 30
0.0
  0
VERTEX
  5
A5B
  8
0
  6
CONTINUOUS
 10
-99.750000000000014
 20
-115.7127014549023
 30
0.0
  0
VERTEX
  5
A5C
  8
0
  6
CONTINUOUS
 10
-99.750000000000014
 20
-66.212701454902273
 30
0.0
  0
SEQEND
  5
A5D
  8
0
  6
CONTINUOUS
  0
LINE
  5
799
  8
0
  6
CONTINUOUS
 10
-101.0
 20
-117.9627014549018
 30
0.0
 11
-101.0000000000035
 21
29.338740108578861
 31
0.0
  0
LINE
  5
79A
  8
0
  6
CONTINUOUS
 10
-109.0
 20
-117.9627014549023
 30
0.0
 11
-101.0
 21
-117.9627014549018
 31
0.0
  0
LINE
  5
79B
  8
0
  6
CONTINUOUS
 10
-109.0
 20
-117.9627014549023
 30
0.0
 11
-109.0
 21
29.338740108578861
 31
0.0
  0
LINE
  5
79C
  8
0
  6
HCAV-19_METR_HEAD_SIL$0$DA
 10
-100.0000000000036
 20
-117.9627014549023
 30
0.0
 11
0.0
 21
-117.9627014549023
 31
0.0
  0
LINE
  5
79D
  8
0
  6
HCAV-19_METR_HEAD_SIL$0$DA
 10
2.0
 20
29.338740108578861
 30
0.0
 11
2.0000000000000022
 21
-117.9627014549023
 31
0.0
  0
LINE
  5
79E
  8
0
  6
CONTINUOUS
 10
-0.000000000003638
 20
-65.962701454903652
 30
0.0
 11
-0.0000000000001105
 21
29.338740108578861
 31
0.0
  0
LINE
  5
7A0
  8
0
  6
CONTINUOUS
 10
5.9999999999964784
 20
29.338740108578861
 30
0.0
 11
6.0000000000000027
 21
-60.962701454903652
 31
0.0
  0
LINE
  5
7A1
  8
0
  6
CONTINUOUS
 10
23.999999999992959
 20
29.338740108578861
 30
0.0
 11
24.0
 21
-60.962701454903652
 31
0.0
  0
LINE
  5
7A2
  8
0
  6
CONTINUOUS
 10
6.0000000000000027
 20
-60.962701454903652
 30
0.0
 11
24.0
 21
-60.962701454903652
 31
0.0
  0
LINE
  5
7A3
  8
0
 10
34.274999999990541
 20
-6.8692482764610636
 30
0.0
 11
33.924999999995627
 21
-5.6442482764588808
 31
0.0
  0
LINE
  5
7A4
  8
0
 10
34.274999999994179
 20
-15.358498276458869
 30
0.0
 11
34.274999999994179
 21
-6.869248276461974
 31
0.0
  0
LINE
  5
7A5
  8
0
 10
36.489999999994318
 20
-11.863873276459509
 30
0.0
 11
36.489999999994318
 21
-10.3638732764586
 31
0.0
  0
LINE
  5
7A6
  8
0
 10
34.274999999994179
 20
-8.9915607764607444
 30
0.0
 11
37.736812499995722
 21
-8.9915607764607444
 31
0.0
  0
LINE
  5
7A7
  8
0
 10
34.274999999994179
 20
-13.236185776456461
 30
0.0
 11
37.736812499992091
 21
-13.23618577645737
 31
0.0
  0
LINE
  5
7A8
  8
0
 10
34.274999999994179
 20
-15.358498276458869
 30
0.0
 11
37.736812499992091
 21
-15.35849827645796
 31
0.0
  0
LINE
  5
7A9
  8
0
 10
34.274999999994179
 20
-6.869248276461974
 30
0.0
 11
37.736812499995722
 21
-6.8692482764592446
 31
0.0
  0
LINE
  5
7AA
  8
0
 10
32.899999999994179
 20
-16.583498276458329
 30
0.0
 11
32.899999999994179
 21
-5.6442482764588808
 31
0.0
  0
LINE
  5
7AB
  8
0
 10
38.039999999993597
 20
-14.29734202645812
 30
0.0
 11
38.039999999993597
 21
-11.8638732764586
 31
0.0
  0
ARC
  5
7AC
  8
0
 10
30.46031249999578
 20
-11.113873276456779
 30
0.0
 40
7.5796874999999986
 50
343.73979529163802
 51
354.32136653167521
  0
ARC
  5
7AD
  8
0
 10
36.031382812496311
 20
-7.9304045264581751
 30
0.0
 40
2.0086171874996772
 50
328.10920819813828
 51
31.890791801861688
  0
ARC
  5
7AE
  8
0
 10
36.031382812496311
 20
-14.297342026459029
 30
0.0
 40
2.0086171874996772
 50
328.10920819813828
 51
31.890791801861688
  0
ARC
  5
7AF
  8
0
 10
30.46031249999578
 20
-11.113873276456779
 30
0.0
 40
7.5796874999999986
 50
5.678633468273306
 51
16.260204708362071
  0
LINE
  5
7B0
  8
0
 10
38.039999999993597
 20
-10.3638732764586
 30
0.0
 11
38.039999999993597
 21
-7.9304045264581751
 31
0.0
  0
LINE
  5
7B1
  8
0
 10
33.924999999992004
 20
-16.583498276458329
 30
0.0
 11
34.274999999994179
 21
-15.358498276458869
 31
0.0
  0
LINE
  5
7B2
  8
0
 10
32.899999999994179
 20
-5.6442482764588808
 30
0.0
 11
33.924999999995627
 21
-5.6442482764588808
 31
0.0
  0
LINE
  5
7B3
  8
0
 10
32.899999999994179
 20
-16.583498276458329
 30
0.0
 11
33.924999999992004
 21
-16.583498276458329
 31
0.0
  0
LINE
  5
7B4
  8
0
 10
38.039999999993597
 20
-11.8638732764586
 30
0.0
 11
36.489999999994318
 21
-11.863873276459509
 31
0.0
  0
LINE
  5
7B5
  8
0
 10
38.039999999993597
 20
-10.3638732764586
 30
0.0
 11
36.489999999994318
 21
-10.3638732764586
 31
0.0
  0
LINE
  5
7B6
  8
0
 10
-17.561159173990738
 20
-9.6138732764595147
 30
0.0
 11
-16.757311596698852
 21
-12.613873276459509
 31
0.0
  0
LINE
  5
7B7
  8
0
 10
-20.776549483165581
 20
-9.6138732764595147
 30
0.0
 11
-19.97270190587005
 21
-12.613873276460421
 31
0.0
  0
LINE
  5
7B8
  8
0
 10
-23.99193979233678
 20
-9.6138732764604242
 30
0.0
 11
-23.18809221504489
 21
-12.613873276460421
 31
0.0
  0
LINE
  5
7B9
  8
0
 10
-27.207330101511619
 20
-9.6138732764595147
 30
0.0
 11
-26.403482524216091
 21
-12.6138732764586
 31
0.0
  0
LINE
  5
7BA
  8
0
 10
-30.422720410682821
 20
-9.6138732764586052
 30
0.0
 11
-29.618872833390931
 21
-12.613873276459509
 31
0.0
  0
LINE
  5
7BB
  8
0
 10
-33.63811071985765
 20
-9.6138732764595147
 30
0.0
 11
-32.83426314256576
 21
-12.613873276459509
 31
0.0
  0
LINE
  5
7BC
  8
0
 10
-36.853501029028848
 20
-9.6138732764595147
 30
0.0
 11
-36.049653451736958
 21
-12.613873276459509
 31
0.0
  0
LINE
  5
7BD
  8
0
 10
-40.068891338203677
 20
-9.6138732764576957
 30
0.0
 11
-39.265043760908164
 21
-12.613873276459509
 31
0.0
  0
LINE
  5
7BE
  8
0
 10
-43.284281647378521
 20
-9.6138732764595147
 30
0.0
 11
-42.480434070082993
 21
-12.613873276459509
 31
0.0
  0
LINE
  5
7BF
  8
0
 10
-46.499671956549719
 20
-9.6138732764595147
 30
0.0
 11
-45.695824379254191
 21
-12.613873276459509
 31
0.0
  0
LINE
  5
7C0
  8
0
 10
-49.715062265724548
 20
-9.6138732764604242
 30
0.0
 11
-48.911214688429027
 21
-12.613873276460421
 31
0.0
  0
LINE
  5
7C1
  8
0
 10
-52.930452574892108
 20
-9.6138732764586052
 30
0.0
 11
-52.126604997603863
 21
-12.613873276460421
 31
0.0
  0
LINE
  5
7C2
  8
0
 10
32.899999999994179
 20
-12.6138732764586
 30
0.0
 11
-57.920833631658752
 21
-12.61387327646133
 31
0.0
  0
LINE
  5
7C3
  8
0
 10
32.899999999994179
 20
-9.6138732764586052
 30
0.0
 11
-57.92083363166239
 21
-9.6138732764604242
 31
0.0
  0
LINE
  5
7C4
  8
0
 10
-60.920833631662383
 20
-11.11387327646133
 30
0.0
 11
-57.92083363166239
 21
-9.6138732764604242
 31
0.0
  0
LINE
  5
7C5
  8
0
 10
-60.920833631662383
 20
-11.11387327646133
 30
0.0
 11
-57.920833631658752
 21
-12.61387327646133
 31
0.0
  0
LINE
  5
7C6
  8
0
 10
-56.145842884066951
 20
-9.6138732764604242
 30
0.0
 11
-55.341995306775061
 21
-12.613873276460421
 31
0.0
  0
LINE
  5
7C7
  8
0
 10
-59.191055703995509
 20
-10.24898431262608
 30
0.0
 11
-58.655860550625221
 21
-12.246359816979011
 31
0.0
  0
SOLID
  5
7C8
  8
0
  6
CONTINUOUS
 10
30.399999999994179
 20
-16.113873276458602
 30
0.0
 11
32.399999999994179
 21
-16.113873276458602
 31
0.0
 12
30.399999999994179
 22
-6.1138732764586052
 32
0.0
 13
32.399999999994179
 23
-6.1138732764586052
 33
0.0
  0
POLYLINE
  5
7C9
  8
0
 66
     1
 10
0.0
 20
0.0
 30
0.0
  0
VERTEX
  5
A5E
  8
0
 10
40.422464241543842
 20
-372.42573280512079
 30
0.0
  0
VERTEX
  5
A5F
  8
0
 10
43.983371072546909
 20
-367.08276063365912
 30
0.0
 42
0.3026996289851622
  0
VERTEX
  5
A60
  8
0
 10
43.983371072546859
 20
-344.23388649043909
 30
0.0
  0
VERTEX
  5
A61
  8
0
 10
33.96686578605815
 20
-329.20459436320482
 30
0.0
 42
-0.3026996289851626
  0
VERTEX
  5
A62
  8
0
 10
33.96686578605815
 20
-305.91205276089329
 30
0.0
  0
VERTEX
  5
A63
  8
0
 10
43.983371072546923
 20
-290.88276063365902
 30
0.0
 42
0.3026996289851622
  0
VERTEX
  5
A64
  8
0
 10
43.98337107254688
 20
-268.0338864904391
 30
0.0
  0
VERTEX
  5
A65
  8
0
 10
33.966865786058158
 20
-253.0045943632048
 30
0.0
 42
-0.3026996289851623
  0
VERTEX
  5
A66
  8
0
 10
33.966865786058158
 20
-229.7120527608933
 30
0.0
  0
VERTEX
  5
A67
  8
0
 10
38.975118429302547
 20
-222.19740669727611
 30
0.0
  0
SEQEND
  5
A68
  8
0
  0
POLYLINE
  5
7CA
  8
0
 66
     1
 10
0.0
 20
0.0
 30
0.0
  0
VERTEX
  5
A69
  8
0
 10
36.877765388175533
 20
-68.127665909149528
 30
0.0
  0
VERTEX
  5
A6A
  8
0
 10
41.886018031419908
 20
-60.613019845532442
 30
0.0
 42
0.3026996289851622
  0
VERTEX
  5
A6B
  8
0
 10
41.886018031419859
 20
-37.764145702312447
 30
0.0
  0
VERTEX
  5
A6C
  8
0
 10
31.869512744931139
 20
-22.734853575078169
 30
0.0
 42
-0.302699628985162
  0
VERTEX
  5
A6D
  8
0
 10
31.86951274493115
 20
0.557688027233354
 30
0.0
  0
VERTEX
  5
A6E
  8
0
 10
41.88601803141993
 20
15.5869801544676
 30
0.0
 42
0.1770875644051641
  0
VERTEX
  5
A6F
  8
0
 10
45.212301901500091
 20
29.338740108578829
 30
0.0
 42
0.1770875644051641
  0
SEQEND
  5
A70
  8
0
  0
POLYLINE
  5
7CB
  8
0
 66
     1
 10
0.0
 20
0.0
 30
0.0
  0
VERTEX
  5
A71
  8
0
 10
45.614829796909419
 20
29.338740108578829
 30
0.0
 42
-0.1765292547366624
  0
VERTEX
  5
A72
  8
0
 10
42.218869043790029
 20
15.365146424921759
 30
0.0
  0
VERTEX
  5
A73
  8
0
 10
32.202363757301242
 20
0.3358542976875469
 30
0.0
 42
0.3026996289851599
  0
VERTEX
  5
A74
  8
0
 10
32.202363757301242
 20
-22.513019845532341
 30
0.0
  0
VERTEX
  5
A75
  8
0
 10
42.218869043789972
 20
-37.542311972766612
 30
0.0
 42
-0.3026996289851592
  0
VERTEX
  5
A76
  8
0
 10
42.218869043790008
 20
-60.834853575078277
 30
0.0
  0
VERTEX
  5
A77
  8
0
 10
37.358460936795673
 20
-68.127665909149528
 30
0.0
  0
SEQEND
  5
A78
  8
0
  0
POLYLINE
  5
7CD
  8
0
 66
     1
 10
0.0
 20
0.0
 30
0.0
  0
VERTEX
  5
A79
  8
0
 10
39.455813977922702
 20
-222.19740669727611
 30
0.0
  0
VERTEX
  5
A7A
  8
0
 10
34.299716798428257
 20
-229.93388649043899
 30
0.0
 42
0.1584583192693117
  0
VERTEX
  5
A7B
  8
0
 10
30.858639876726201
 20
-242.19740669727611
 30
0.0
 42
0.1584583192693117
  0
SEQEND
  5
A7C
  8
0
  0
POLYLINE
  5
7CE
  8
0
 66
     1
 10
0.0
 20
0.0
 30
0.0
  0
VERTEX
  5
A7D
  8
0
 10
30.858639876726201
 20
-242.19740669727611
 30
0.0
 42
0.137639398205455
  0
VERTEX
  5
A7E
  8
0
 10
34.299716798428257
 20
-252.782760633659
 30
0.0
  0
VERTEX
  5
A7F
  8
0
 10
44.31622208491698
 20
-267.81205276089332
 30
0.0
 42
-0.3026996289851651
  0
VERTEX
  5
A80
  8
0
 10
44.316222084917023
 20
-291.1045943632048
 30
0.0
  0
VERTEX
  5
A81
  8
0
 10
34.299716798428243
 20
-306.13388649043901
 30
0.0
 42
0.3026996289851599
  0
VERTEX
  5
A82
  8
0
 10
34.299716798428243
 20
-328.98276063365898
 30
0.0
  0
VERTEX
  5
A83
  8
0
 10
44.316222084916959
 20
-344.01205276089331
 30
0.0
 42
-0.3026996289851595
  0
VERTEX
  5
A84
  8
0
 10
44.316222084917023
 20
-367.3045943632049
 30
0.0
  0
VERTEX
  5
A85
  8
0
 10
40.903159790164011
 20
-372.42573280512079
 30
0.0
  0
SEQEND
  5
A86
  8
0
  0
POLYLINE
  5
7CF
  8
0
  6
HCAV-19_METR_HEAD_SIL$0$DA
 66
     1
 10
0.0
 20
0.0
 30
0.0
 70
   128
  0
VERTEX
  5
A87
  8
0
  6
HCAV-19_METR_HEAD_SIL$0$DA
 10
26.0
 20
29.338740108578861
 30
0.0
  0
VERTEX
  5
A88
  8
0
  6
HCAV-19_METR_HEAD_SIL$0$DA
 10
26.000000000000011
 20
-17.890604707292621
 30
0.0
 42
0.1678075813921403
  0
VERTEX
  5
A89
  8
0
  6
HCAV-19_METR_HEAD_SIL$0$DA
 10
26.639312962260028
 20
-19.741862849704539
 30
0.0
  0
VERTEX
  5
A8A
  8
0
  6
HCAV-19_METR_HEAD_SIL$0$DA
 10
29.360687037739979
 20
-23.212104172428582
 30
0.0
 42
-0.1678075813921409
  0
VERTEX
  5
A8B
  8
0
  6
HCAV-19_METR_HEAD_SIL$0$DA
 10
30.0
 20
-25.063362314840511
 30
0.0
  0
VERTEX
  5
A8C
  8
0
  6
HCAV-19_METR_HEAD_SIL$0$DA
 10
30.0
 20
-53.660381278903287
 30
0.0
  0
SEQEND
  5
A8D
  8
0
  6
HCAV-19_METR_HEAD_SIL$0$DA
  0
POLYLINE
  5
7D0
  8
0
 66
     1
 10
0.0
 20
0.0
 30
0.0
 70
   128
 40
0.5
 41
0.5
  0
VERTEX
  5
A8E
  8
0
 10
28.000000000000011
 20
-24.02734316503069
 30
0.0
  0
VERTEX
  5
A8F
  8
0
 10
28.0
 20
-67.352609529637135
 30
0.0
 42
0.3203090829961859
  0
VERTEX
  5
A90
  8
0
 10
30.025421525243502
 20
-70.189896402080819
 30
0.0
  0
VERTEX
  5
A91
  8
0
 10
56.562982917512549
 20
-77.300614546230648
 30
0.0
 42
-0.3394542588633759
  0
VERTEX
  5
A92
  8
0
 10
58.78652578220499
 20
-80.198392025097846
 30
0.0
  0
VERTEX
  5
A93
  8
0
 10
58.78652578220499
 20
-95.550609093054618
 30
0.0
  0
SEQEND
  5
A94
  8
0
  0
LINE
  5
7D1
  8
0
 10
-64.713474217795095
 20
-123.4217905622133
 30
0.0
 11
85.702114814420838
 21
-123.4217905622133
 31
0.0
  0
LINE
  5
7D2
  8
0
 10
85.702114814420838
 20
-123.4217905622133
 30
0.0
 11
85.70211481442081
 21
-147.31560517145221
 31
0.0
  0
LINE
  5
7D3
  8
0
 10
85.702114814420767
 20
-176.4465026670004
 30
0.0
 11
85.702114814420753
 21
-215.77805130173149
 31
0.0
  0
LINE
  5
7D4
  8
0
 10
85.702114814420753
 20
-215.77805130173149
 30
0.0
 11
-64.713474217795095
 21
-215.77805130173149
 31
0.0
  0
LINE
  5
7D5
  8
0
 10
-64.713474217795095
 20
-215.77805130173149
 30
0.0
 11
-64.713474217795095
 21
-176.4465026670004
 31
0.0
  0
LINE
  5
7D6
  8
0
 10
-64.713474217795095
 20
-147.31560517145221
 30
0.0
 11
-64.713474217795095
 21
-123.4217905622133
 31
0.0
  0
LINE
  5
7D7
  8
0
  6
HCAV-19_METR_HEAD_SIL$0$DA
 10
16.78652578220499
 20
-123.42179056221219
 30
0.0
 11
16.786525782204979
 21
-147.31560517145221
 31
0.0
  0
LINE
  5
7D8
  8
0
  6
HCAV-19_METR_HEAD_SIL$0$DA
 10
16.786525782204979
 20
-176.4465026670004
 30
0.0
 11
16.786525782204979
 21
-215.77805130173149
 31
0.0
  0
LINE
  5
7D9
  8
0
  6
HCAV-19_METR_HEAD_SIL$0$DA
 10
56.78652578220499
 20
-123.42179056221219
 30
0.0
 11
56.786525782204983
 21
-147.31560517145221
 31
0.0
  0
LINE
  5
7DA
  8
0
  6
HCAV-19_METR_HEAD_SIL$0$DA
 10
56.786525782204983
 20
-176.4465026670004
 30
0.0
 11
56.786525782204961
 21
-215.77805130173149
 31
0.0
  0
LINE
  5
7DB
  8
0
  6
CONTINUOUS
 10
-100.0
 20
-231.1974066972775
 30
0.0
 11
0.0
 21
-281.19740669727622
 31
0.0
  0
LINE
  5
7DC
  8
0
  6
CONTINUOUS
 10
0.0
 20
-231.19740669727619
 30
0.0
 11
-100.0
 21
-281.19740669727747
 31
0.0
  0
POLYLINE
  5
7DD
  8
0
  6
CONTINUOUS
 66
     1
 10
0.0
 20
0.0
 30
0.0
 70
     1
  0
VERTEX
  5
A95
  8
0
  6
CONTINUOUS
 10
0.0
 20
-281.19740669727622
 30
0.0
  0
VERTEX
  5
A96
  8
0
  6
CONTINUOUS
 10
0.0
 20
-231.19740669727619
 30
0.0
  0
VERTEX
  5
A97
  8
0
  6
CONTINUOUS
 10
-100.0
 20
-231.1974066972775
 30
0.0
  0
VERTEX
  5
A98
  8
0
  6
CONTINUOUS
 10
-100.0
 20
-281.19740669727747
 30
0.0
  0
SEQEND
  5
A99
  8
0
  6
CONTINUOUS
  0
POLYLINE
  5
7DE
  8
0
  6
CONTINUOUS
 66
     1
 10
0.0
 20
0.0
 30
0.0
 70
     1
 40
0.5
 41
0.5
  0
VERTEX
  5
A9A
  8
0
  6
CONTINUOUS
 10
-0.25
 20
-280.94740669727622
 30
0.0
  0
VERTEX
  5
A9B
  8
0
  6
CONTINUOUS
 10
-0.25
 20
-231.44740669727619
 30
0.0
  0
VERTEX
  5
A9C
  8
0
  6
CONTINUOUS
 10
-99.750000000000014
 20
-231.4474066972775
 30
0.0
  0
VERTEX
  5
A9D
  8
0
  6
CONTINUOUS
 10
-99.750000000000014
 20
-280.94740669727747
 30
0.0
  0
SEQEND
  5
A9E
  8
0
  6
CONTINUOUS
  0
LINE
  5
7DF
  8
0
  6
CONTINUOUS
 10
-101.0
 20
-229.19740669727801
 30
0.0
 11
-101.0000000000034
 21
-372.42573280512079
 31
0.0
  0
LINE
  5
7E0
  8
0
  6
CONTINUOUS
 10
-109.0
 20
-229.1974066972775
 30
0.0
 11
-109.0
 21
-372.42573280512079
 31
0.0
  0
LINE
  5
7E1
  8
0
  6
HCAV-19_METR_HEAD_SIL$0$DA
 10
-100.0000000000036
 20
-229.1974066972775
 30
0.0
 11
0.0
 21
-229.1974066972775
 31
0.0
  0
LINE
  5
7E2
  8
0
  6
HCAV-19_METR_HEAD_SIL$0$DA
 10
2.0
 20
-372.42573280512079
 30
0.0
 11
2.0000000000000022
 21
-229.1974066972775
 31
0.0
  0
LINE
  5
7E3
  8
0
  6
CONTINUOUS
 10
-0.000000000003638
 20
-281.19740669727622
 30
0.0
 11
-0.0000000000002612
 21
-372.42573280512079
 31
0.0
  0
INSERT
  5
7E4
  8
0
  6
CONTINUOUS
  2
*X6
 10
0.0
 20
0.0
 30
0.0
1001
ACAD
1000
HATCH
1002
{
1070
    19
1000
AR-SAND
1040
0.1
1040
0.7853981633974483
1000
R14_HATCH_DATA
1000
7E4
1011
1.0
1021
0.0
1031
0.0
1021
0.0
1031
0.0
1011
0.0
1021
0.0
1031
0.0
1021
1.0
1031
0.0
1011
0.0
1021
0.0
1031
0.0
1021
0.0
1031
1.0
1040
0.0
1010
0.0
1020
0.0
1030
1.0
1000
AR-SAND
1070
     0
1070
     0
1071
        1
1071
        1
1071
        4
1070
     1
1040
-109.0
1040
-372.42573280512079
1040
-101.0000000000034
1040
-372.42573280512079
1070
     1
1040
-101.0000000000034
1040
-372.42573280512079
1040
-101.0
1040
-229.1974066972785
1070
     1
1040
-101.0
1040
-229.1974066972785
1040
-109.0
1040
-229.19740669727801
1070
     1
1040
-109.0
1040
-229.19740669727801
1040
-109.0
1040
-372.42573280512079
1071
        0
1070
     0
1070
     1
1040
0.7853981633974483
1040
0.1
1070
     0
1070
     4
1040
1.4398966328953211
1040
0.0
1040
0.0
1040
-3.5738134871304919
1040
3.34753489123029
1070
     6
1040
0.0
1040
-3.8607999999999998
1040
0.0
1040
-4.3179999999999987
1040
0.0
1040
-4.1274999999999986
1040
0.9162978572970228
1040
0.0
1040
0.0
1040
-1.8901092772849011
1040
8.2473285134473429
1070
     6
1040
0.0
1040
-2.0828000000000002
1040
0.0
1040
-3.4798
1040
0.0
1040
-1.3334999999999999
1040
0.2181661564992912
1040
-2.209143005783011
1040
-2.209143005783011
1040
5.5829982583253814
1040
5.6033231189657222
1070
     6
1040
0.0
1040
-1.27
1040
0.0
1040
-4.5720000000000001
1040
0.0
1040
-5.9690000000000003
1040
0.0436332312998582
1040
-2.209143005783011
1040
-2.209143005783011
1040
3.822811091613997
1040
6.9755078156241046
1070
     6
1040
0.0
1040
-0.635
1040
0.0
1040
-2.997199999999999
1040
0.0
1040
-3.4289999999999998
1071
        1
1040
-103.64368222559639
1040
-316.17967816289359
1040
0.0
1002
}
  0
LINE
  5
7E5
  8
0
  6
CONTINUOUS
 10
5.9999999999966374
 20
-372.42573280512079
 30
0.0
 11
6.0000000000025011
 21
-222.19740669727619
 31
0.0
  0
LINE
  5
7E6
  8
0
  6
CONTINUOUS
 10
23.999999999993278
 20
-372.42573280512079
 30
0.0
 11
24.000000000004992
 21
-222.19740669727611
 31
0.0
  0
LINE
  5
7E7
  8
0
  6
CONTINUOUS
 10
6.0000000000025011
 20
-222.19740669727619
 30
0.0
 11
24.000000000004992
 21
-222.19740669727611
 31
0.0
  0
LINE
  5
7E8
  8
0
  6
HCAV-19_METR_HEAD_SIL$0$DA
 10
26.0
 20
-372.42573280512079
 30
0.0
 11
26.000000000000011
 21
-222.19740669727619
 31
0.0
  0
INSERT
  5
7E9
  8
0
  6
CONTINUOUS
  2
*X7
 10
0.0
 20
0.0
 30
0.0
1001
ACAD
1000
HATCH
1002
{
1070
    19
1000
ANSI31
1040
1.0
1040
0.0
1000
ASC_BOUNDS
1070
     1
1070
     2
1070
     1
1005
7EA
1000
ASC_SEEDPOINT
1011
0.0
1021
0.0
1031
0.0
1021
-231.19740669727619
1031
0.0
1000
R14_HATCH_DATA
1000
7E9
1011
1.0
1021
0.0
1031
0.0
1021
0.0
1031
0.0
1011
0.0
1021
0.0
1031
0.0
1021
1.0
1031
0.0
1011
0.0
1021
0.0
1031
0.0
1021
0.0
1031
1.0
1040
0.0
1010
0.0
1020
0.0
1030
1.0
1000
ANSI31
1070
     0
1070
     1
1071
        1
1071
        1
1071
        1
1070
     3
1040
-39.713474217795103
1040
-222.4877289995045
1040
10.996846333662599
1040
0.0
1040
0.6101456266815281
1040
0.0
1040
6.2831853071795862
1070
     0
1071
        1
1005
7EA
1070
     0
1070
     1
1040
0.0
1040
1.0
1070
     0
1070
     1
1040
5.4977871437821371
1040
0.0
1040
-231.19740669727619
1040
-2.2450640302672871
1040
-2.245064030267288
1070
     0
1071
        1
1040
0.0
1040
-231.19740669727619
1040
0.0
1002
}
  0
POLYLINE
  5
7EA
  8
0
 10
-28.716627884132503
 20
-222.4877289995045
 30
0.0
 66
     1
 70
     8
  0
VERTEX
  8
0
  5
CEB
 10
-28.7166
 20
-222.488
 30
0.000000
  70
    32
  0
VERTEX
  8
0
  5
CEC
 10
-28.7299
 20
-222.817
 30
0.000000
  70
    32
  0
VERTEX
  8
0
  5
CED
 10
-28.7696
 20
-223.145
 30
0.000000
  70
    32
  0
VERTEX
  8
0
  5
CEE
 10
-28.8357
 20
-223.472
 30
0.000000
  70
    32
  0
VERTEX
  8
0
  5
CEF
 10
-28.9279
 20
-223.797
 30
0.000000
  70
    32
  0
VERTEX
  8
0
  5
CF0
 10
-29.0462
 20
-224.118
 30
0.000000
  70
    32
  0
VERTEX
  8
0
  5
CF1
 10
-29.1901
 20
-224.435
 30
0.000000
  70
    32
  0
VERTEX
  8
0
  5
CF2
 10
-29.3595
 20
-224.748
 30
0.000000
  70
    32
  0
VERTEX
  8
0
  5
CF3
 10
-29.5537
 20
-225.055
 30
0.000000
  70
    32
  0
VERTEX
  8
0
  5
CF4
 10
-29.7724
 20
-225.356
 30
0.000000
  70
    32
  0
VERTEX
  8
0
  5
CF5
 10
-30.0151
 20
-225.651
 30
0.000000
  70
    32
  0
VERTEX
  8
0
  5
CF6
 10
-30.2812
 20
-225.937
 30
0.000000
  70
    32
  0
VERTEX
  8
0
  5
CF7
 10
-30.5699
 20
-226.215
 30
0.000000
  70
    32
  0
VERTEX
  8
0
  5
CF8
 10
-30.8807
 20
-226.485
 30
0.000000
  70
    32
  0
VERTEX
  8
0
  5
CF9
 10
-31.2128
 20
-226.744
 30
0.000000
  70
    32
  0
VERTEX
  8
0
  5
CFA
 10
-31.5653
 20
-226.994
 30
0.000000
  70
    32
  0
VERTEX
  8
0
  5
CFB
 10
-31.9375
 20
-227.232
 30
0.000000
  70
    32
  0
VERTEX
  8
0
  5
CFC
 10
-32.3284
 20
-227.459
 30
0.000000
  70
    32
  0
VERTEX
  8
0
  5
CFD
 10
-32.7371
 20
-227.674
 30
0.000000
  70
    32
  0
VERTEX
  8
0
  5
CFE
 10
-33.1627
 20
-227.877
 30
0.000000
  70
    32
  0
VERTEX
  8
0
  5
CFF
 10
-33.6040
 20
-228.067
 30
0.000000
  70
    32
  0
VERTEX
  8
0
  5
D00
 10
-34.0600
 20
-228.243
 30
0.000000
  70
    32
  0
VERTEX
  8
0
  5
D01
 10
-34.5296
 20
-228.405
 30
0.000000
  70
    32
  0
VERTEX
  8
0
  5
D02
 10
-35.0117
 20
-228.553
 30
0.000000
  70
    32
  0
VERTEX
  8
0
  5
D03
 10
-35.5052
 20
-228.687
 30
0.000000
  70
    32
  0
VERTEX
  8
0
  5
D04
 10
-36.0087
 20
-228.805
 30
0.000000
  70
    32
  0
VERTEX
  8
0
  5
D05
 10
-36.5213
 20
-228.908
 30
0.000000
  70
    32
  0
VERTEX
  8
0
  5
D06
 10
-37.0415
 20
-228.996
 30
0.000000
  70
    32
  0
VERTEX
  8
0
  5
D07
 10
-37.5681
 20
-229.068
 30
0.000000
  70
    32
  0
VERTEX
  8
0
  5
D08
 10
-38.0999
 20
-229.125
 30
0.000000
  70
    32
  0
VERTEX
  8
0
  5
D09
 10
-38.6356
 20
-229.165
 30
0.000000
  70
    32
  0
VERTEX
  8
0
  5
D0A
 10
-39.1739
 20
-229.189
 30
0.000000
  70
    32
  0
VERTEX
  8
0
  5
D0B
 10
-39.7135
 20
-229.197
 30
0.000000
  70
    32
  0
VERTEX
  8
0
  5
D0C
 10
-40.2531
 20
-229.189
 30
0.000000
  70
    32
  0
VERTEX
  8
0
  5
D0D
 10
-40.7914
 20
-229.165
 30
0.000000
  70
    32
  0
VERTEX
  8
0
  5
D0E
 10
-41.3270
 20
-229.125
 30
0.000000
  70
    32
  0
VERTEX
  8
0
  5
D0F
 10
-41.8589
 20
-229.068
 30
0.000000
  70
    32
  0
VERTEX
  8
0
  5
D10
 10
-42.3855
 20
-228.996
 30
0.000000
  70
    32
  0
VERTEX
  8
0
  5
D11
 10
-42.9057
 20
-228.908
 30
0.000000
  70
    32
  0
VERTEX
  8
0
  5
D12
 10
-43.4182
 20
-228.805
 30
0.000000
  70
    32
  0
VERTEX
  8
0
  5
D13
 10
-43.9218
 20
-228.687
 30
0.000000
  70
    32
  0
VERTEX
  8
0
  5
D14
 10
-44.4152
 20
-228.553
 30
0.000000
  70
    32
  0
VERTEX
  8
0
  5
D15
 10
-44.8974
 20
-228.405
 30
0.000000
  70
    32
  0
VERTEX
  8
0
  5
D16
 10
-45.3670
 20
-228.243
 30
0.000000
  70
    32
  0
VERTEX
  8
0
  5
D17
 10
-45.8230
 20
-228.067
 30
0.000000
  70
    32
  0
VERTEX
  8
0
  5
D18
 10
-46.2643
 20
-227.877
 30
0.000000
  70
    32
  0
VERTEX
  8
0
  5
D19
 10
-46.6898
 20
-227.674
 30
0.000000
  70
    32
  0
VERTEX
  8
0
  5
D1A
 10
-47.0985
 20
-227.459
 30
0.000000
  70
    32
  0
VERTEX
  8
0
  5
D1B
 10
-47.4894
 20
-227.232
 30
0.000000
  70
    32
  0
VERTEX
  8
0
  5
D1C
 10
-47.8616
 20
-226.994
 30
0.000000
  70
    32
  0
VERTEX
  8
0
  5
D1D
 10
-48.2142
 20
-226.744
 30
0.000000
  70
    32
  0
VERTEX
  8
0
  5
D1E
 10
-48.5462
 20
-226.485
 30
0.000000
  70
    32
  0
VERTEX
  8
0
  5
D1F
 10
-48.8570
 20
-226.215
 30
0.000000
  70
    32
  0
VERTEX
  8
0
  5
D20
 10
-49.1458
 20
-225.937
 30
0.000000
  70
    32
  0
VERTEX
  8
0
  5
D21
 10
-49.4118
 20
-225.651
 30
0.000000
  70
    32
  0
VERTEX
  8
0
  5
D22
 10
-49.6545
 20
-225.356
 30
0.000000
  70
    32
  0
VERTEX
  8
0
  5
D23
 10
-49.8732
 20
-225.055
 30
0.000000
  70
    32
  0
VERTEX
  8
0
  5
D24
 10
-50.0675
 20
-224.748
 30
0.000000
  70
    32
  0
VERTEX
  8
0
  5
D25
 10
-50.2368
 20
-224.435
 30
0.000000
  70
    32
  0
VERTEX
  8
0
  5
D26
 10
-50.3808
 20
-224.118
 30
0.000000
  70
    32
  0
VERTEX
  8
0
  5
D27
 10
-50.4990
 20
-223.797
 30
0.000000
  70
    32
  0
VERTEX
  8
0
  5
D28
 10
-50.5913
 20
-223.472
 30
0.000000
  70
    32
  0
VERTEX
  8
0
  5
D29
 10
-50.6574
 20
-223.145
 30
0.000000
  70
    32
  0
VERTEX
  8
0
  5
D2A
 10
-50.6971
 20
-222.817
 30
0.000000
  70
    32
  0
VERTEX
  8
0
  5
D2B
 10
-50.7103
 20
-222.488
 30
0.000000
  70
    32
  0
VERTEX
  8
0
  5
D2C
 10
-50.6971
 20
-222.159
 30
0.000000
  70
    32
  0
VERTEX
  8
0
  5
D2D
 10
-50.6574
 20
-221.830
 30
0.000000
  70
    32
  0
VERTEX
  8
0
  5
D2E
 10
-50.5913
 20
-221.503
 30
0.000000
  70
    32
  0
VERTEX
  8
0
  5
D2F
 10
-50.4990
 20
-221.179
 30
0.000000
  70
    32
  0
VERTEX
  8
0
  5
D30
 10
-50.3808
 20
-220.857
 30
0.000000
  70
    32
  0
VERTEX
  8
0
  5
D31
 10
-50.2368
 20
-220.540
 30
0.000000
  70
    32
  0
VERTEX
  8
0
  5
D32
 10
-50.0675
 20
-220.227
 30
0.000000
  70
    32
  0
VERTEX
  8
0
  5
D33
 10
-49.8732
 20
-219.920
 30
0.000000
  70
    32
  0
VERTEX
  8
0
  5
D34
 10
-49.6545
 20
-219.619
 30
0.000000
  70
    32
  0
VERTEX
  8
0
  5
D35
 10
-49.4118
 20
-219.325
 30
0.000000
  70
    32
  0
VERTEX
  8
0
  5
D36
 10
-49.1458
 20
-219.038
 30
0.000000
  70
    32
  0
VERTEX
  8
0
  5
D37
 10
-48.8570
 20
-218.760
 30
0.000000
  70
    32
  0
VERTEX
  8
0
  5
D38
 10
-48.5462
 20
-218.491
 30
0.000000
  70
    32
  0
VERTEX
  8
0
  5
D39
 10
-48.2142
 20
-218.231
 30
0.000000
  70
    32
  0
VERTEX
  8
0
  5
D3A
 10
-47.8616
 20
-217.982
 30
0.000000
  70
    32
  0
VERTEX
  8
0
  5
D3B
 10
-47.4894
 20
-217.743
 30
0.000000
  70
    32
  0
VERTEX
  8
0
  5
D3C
 10
-47.0985
 20
-217.516
 30
0.000000
  70
    32
  0
VERTEX
  8
0
  5
D3D
 10
-46.6898
 20
-217.301
 30
0.000000
  70
    32
  0
VERTEX
  8
0
  5
D3E
 10
-46.2643
 20
-217.098
 30
0.000000
  70
    32
  0
VERTEX
  8
0
  5
D3F
 10
-45.8230
 20
-216.909
 30
0.000000
  70
    32
  0
VERTEX
  8
0
  5
D40
 10
-45.3670
 20
-216.733
 30
0.000000
  70
    32
  0
VERTEX
  8
0
  5
D41
 10
-44.8974
 20
-216.570
 30
0.000000
  70
    32
  0
VERTEX
  8
0
  5
D42
 10
-44.4152
 20
-216.422
 30
0.000000
  70
    32
  0
VERTEX
  8
0
  5
D43
 10
-43.9218
 20
-216.289
 30
0.000000
  70
    32
  0
VERTEX
  8
0
  5
D44
 10
-43.4182
 20
-216.170
 30
0.000000
  70
    32
  0
VERTEX
  8
0
  5
D45
 10
-42.9057
 20
-216.067
 30
0.000000
  70
    32
  0
VERTEX
  8
0
  5
D46
 10
-42.3855
 20
-215.979
 30
0.000000
  70
    32
  0
VERTEX
  8
0
  5
D47
 10
-41.8589
 20
-215.907
 30
0.000000
  70
    32
  0
VERTEX
  8
0
  5
D48
 10
-41.3270
 20
-215.851
 30
0.000000
  70
    32
  0
VERTEX
  8
0
  5
D49
 10
-40.7914
 20
-215.810
 30
0.000000
  70
    32
  0
VERTEX
  8
0
  5
D4A
 10
-40.2531
 20
-215.786
 30
0.000000
  70
    32
  0
VERTEX
  8
0
  5
D4B
 10
-39.7135
 20
-215.778
 30
0.000000
  70
    32
  0
VERTEX
  8
0
  5
D4C
 10
-39.1739
 20
-215.786
 30
0.000000
  70
    32
  0
VERTEX
  8
0
  5
D4D
 10
-38.6356
 20
-215.810
 30
0.000000
  70
    32
  0
VERTEX
  8
0
  5
D4E
 10
-38.0999
 20
-215.851
 30
0.000000
  70
    32
  0
VERTEX
  8
0
  5
D4F
 10
-37.5681
 20
-215.907
 30
0.000000
  70
    32
  0
VERTEX
  8
0
  5
D50
 10
-37.0415
 20
-215.979
 30
0.000000
  70
    32
  0
VERTEX
  8
0
  5
D51
 10
-36.5213
 20
-216.067
 30
0.000000
  70
    32
  0
VERTEX
  8
0
  5
D52
 10
-36.0087
 20
-216.170
 30
0.000000
  70
    32
  0
VERTEX
  8
0
  5
D53
 10
-35.5052
 20
-216.289
 30
0.000000
  70
    32
  0
VERTEX
  8
0
  5
D54
 10
-35.0117
 20
-216.422
 30
0.000000
  70
    32
  0
VERTEX
  8
0
  5
D55
 10
-34.5296
 20
-216.570
 30
0.000000
  70
    32
  0
VERTEX
  8
0
  5
D56
 10
-34.0600
 20
-216.733
 30
0.000000
  70
    32
  0
VERTEX
  8
0
  5
D57
 10
-33.6040
 20
-216.909
 30
0.000000
  70
    32
  0
VERTEX
  8
0
  5
D58
 10
-33.1627
 20
-217.098
 30
0.000000
  70
    32
  0
VERTEX
  8
0
  5
D59
 10
-32.7371
 20
-217.301
 30
0.000000
  70
    32
  0
VERTEX
  8
0
  5
D5A
 10
-32.3284
 20
-217.516
 30
0.000000
  70
    32
  0
VERTEX
  8
0
  5
D5B
 10
-31.9375
 20
-217.743
 30
0.000000
  70
    32
  0
VERTEX
  8
0
  5
D5C
 10
-31.5653
 20
-217.982
 30
0.000000
  70
    32
  0
VERTEX
  8
0
  5
D5D
 10
-31.2128
 20
-218.231
 30
0.000000
  70
    32
  0
VERTEX
  8
0
  5
D5E
 10
-30.8807
 20
-218.491
 30
0.000000
  70
    32
  0
VERTEX
  8
0
  5
D5F
 10
-30.5699
 20
-218.760
 30
0.000000
  70
    32
  0
VERTEX
  8
0
  5
D60
 10
-30.2812
 20
-219.038
 30
0.000000
  70
    32
  0
VERTEX
  8
0
  5
D61
 10
-30.0151
 20
-219.325
 30
0.000000
  70
    32
  0
VERTEX
  8
0
  5
D62
 10
-29.7724
 20
-219.619
 30
0.000000
  70
    32
  0
VERTEX
  8
0
  5
D63
 10
-29.5537
 20
-219.920
 30
0.000000
  70
    32
  0
VERTEX
  8
0
  5
D64
 10
-29.3595
 20
-220.227
 30
0.000000
  70
    32
  0
VERTEX
  8
0
  5
D65
 10
-29.1901
 20
-220.540
 30
0.000000
  70
    32
  0
VERTEX
  8
0
  5
D66
 10
-29.0462
 20
-220.857
 30
0.000000
  70
    32
  0
VERTEX
  8
0
  5
D67
 10
-28.9279
 20
-221.179
 30
0.000000
  70
    32
  0
VERTEX
  8
0
  5
D68
 10
-28.8357
 20
-221.503
 30
0.000000
  70
    32
  0
VERTEX
  8
0
  5
D69
 10
-28.7696
 20
-221.830
 30
0.000000
  70
    32
  0
VERTEX
  8
0
  5
D6A
 10
-28.7299
 20
-222.159
 30
0.000000
  70
    32
  0
VERTEX
  8
0
  5
D6B
 10
-28.7166
 20
-222.488
 30
0.000000
  70
    32
  0
SEQEND
  8
0
  5
D6C
  0
POLYLINE
  5
7EB
  8
0
 66
     1
 10
0.0
 20
0.0
 30
0.0
 70
   128
 40
0.5
 41
0.5
  0
VERTEX
  5
BCB
  8
0
 10
16.786525782204979
 20
-217.77805130173149
 30
0.0
  0
VERTEX
  5
BCC
  8
0
 10
53.786525782204961
 20
-217.77805130173149
 30
0.0
 42
-0.4142135623730953
  0
VERTEX
  5
BCD
  8
0
 10
56.786525782204947
 20
-220.77805130173149
 30
0.0
  0
VERTEX
  5
BCE
  8
0
 10
56.786525782204947
 20
-257.77805130173152
 30
0.0
 42
-0.9999999999999998
  0
VERTEX
  5
BCF
  8
0
 10
54.786525782204947
 20
-257.77805130173152
 30
0.0
  0
VERTEX
  5
BD0
  8
0
 10
54.786525782204947
 20
-253.77805130173141
 30
0.0
  0
SEQEND
  5
BD1
  8
0
  0
LINE
  5
7EC
  8
0
 10
39.455813977922702
 20
-222.19740669727611
 30
0.0
 11
56.786525782204961
 21
-222.19740669727611
 31
0.0
  0
LINE
  5
7ED
  8
0
 10
56.786525782204961
 20
-222.19740669727611
 30
0.0
 11
56.786525782204947
 21
-242.19740669727611
 31
0.0
  0
LINE
  5
7EE
  8
0
 10
56.786525782204947
 20
-242.19740669727611
 30
0.0
 11
30.858639876726208
 21
-242.19740669727611
 31
0.0
  0
POLYLINE
  5
7EF
  8
0
  6
CONTINUOUS
 66
     1
 10
0.0
 20
0.0
 30
0.0
 70
   128
  0
VERTEX
  5
BD2
  8
0
  6
CONTINUOUS
 10
-117.1958022857652
 20
29.338740108578861
 30
0.0
  0
VERTEX
  5
BD3
  8
0
  6
CONTINUOUS
 10
-33.610512035789377
 20
29.338740108578861
 30
0.0
  0
VERTEX
  5
BD4
  8
0
  6
CONTINUOUS
 10
-32.610512035789078
 20
26.591262689124111
 30
0.0
  0
VERTEX
  5
BD5
  8
0
  6
CONTINUOUS
 10
-30.610512035789089
 20
32.086217528033387
 30
0.0
  0
VERTEX
  5
BD6
  8
0
  6
CONTINUOUS
 10
-29.61051203578938
 20
29.338740108578861
 30
0.0
  0
VERTEX
  5
BD7
  8
0
  6
CONTINUOUS
 10
53.97477821418579
 20
29.338740108578861
 30
0.0
  0
SEQEND
  5
BD8
  8
0
  6
CONTINUOUS
  0
POLYLINE
  5
7F0
  8
0
  6
CONTINUOUS
 66
     1
 10
0.0
 20
0.0
 30
0.0
 70
   128
  0
VERTEX
  5
BD9
  8
0
  6
CONTINUOUS
 10
-77.78569789112953
 20
-147.31560517145221
 30
0.0
  0
VERTEX
  5
BDA
  8
0
  6
CONTINUOUS
 10
34.043572167891853
 20
-147.31560517145221
 30
0.0
  0
VERTEX
  5
BDB
  8
0
  6
CONTINUOUS
 10
35.043572167891568
 20
-150.0630825909065
 30
0.0
  0
VERTEX
  5
BDC
  8
0
  6
CONTINUOUS
 10
37.043572167891568
 20
-144.56812775199751
 30
0.0
  0
VERTEX
  5
BDD
  8
0
  6
CONTINUOUS
 10
38.043572167891853
 20
-147.31560517145221
 30
0.0
  0
VERTEX
  5
BDE
  8
0
  6
CONTINUOUS
 10
100.2884312591282
 20
-147.31560517145221
 30
0.0
  0
SEQEND
  5
BDF
  8
0
  6
CONTINUOUS
  0
POLYLINE
  5
7F1
  8
0
  6
CONTINUOUS
 66
     1
 10
0.0
 20
0.0
 30
0.0
 70
   128
  0
VERTEX
  5
BE0
  8
0
  6
CONTINUOUS
 10
-77.785697891129516
 20
-176.4465026670004
 30
0.0
  0
VERTEX
  5
BE1
  8
0
  6
CONTINUOUS
 10
34.043572167891853
 20
-176.4465026670004
 30
0.0
  0
VERTEX
  5
BE2
  8
0
  6
CONTINUOUS
 10
35.043572167891689
 20
-179.1939800864547
 30
0.0
  0
VERTEX
  5
BE3
  8
0
  6
CONTINUOUS
 10
37.043572167891682
 20
-173.69902524754571
 30
0.0
  0
VERTEX
  5
BE4
  8
0
  6
CONTINUOUS
 10
38.043572167891853
 20
-176.4465026670004
 30
0.0
  0
VERTEX
  5
BE5
  8
0
  6
CONTINUOUS
 10
100.2884312591282
 20
-176.4465026670004
 30
0.0
  0
SEQEND
  5
BE6
  8
0
  6
CONTINUOUS
  0
POLYLINE
  5
7F2
  8
0
  6
CONTINUOUS
 66
     1
 10
0.0
 20
0.0
 30
0.0
 70
   128
  0
VERTEX
  5
BE7
  8
0
  6
CONTINUOUS
 10
-120.1610925853674
 20
-372.42573280512079
 30
0.0
  0
VERTEX
  5
BE8
  8
0
  6
CONTINUOUS
 10
-33.007994913215498
 20
-372.42573280512079
 30
0.0
  0
VERTEX
  5
BE9
  8
0
  6
CONTINUOUS
 10
-32.007994913215803
 20
-375.17321022457509
 30
0.0
  0
VERTEX
  5
BEA
  8
0
  6
CONTINUOUS
 10
-30.0079949132158
 20
-369.67825538566598
 30
0.0
  0
VERTEX
  5
BEB
  8
0
  6
CONTINUOUS
 10
-29.007994913215501
 20
-372.42573280512079
 30
0.0
  0
VERTEX
  5
BEC
  8
0
  6
CONTINUOUS
 10
58.145102758935529
 20
-372.42573280512079
 30
0.0
  0
SEQEND
  5
BED
  8
0
  6
CONTINUOUS
  0
INSERT
  5
7F3
  8
0
  6
CONTINUOUS
  2
*U8
 10
0.0
 20
0.0
 30
0.0
  0
INSERT
  5
7F4
  8
0
  6
CONTINUOUS
  2
*U9
 10
0.0
 20
0.0
 30
0.0
  0
INSERT
  5
7F5
  8
0
  6
CONTINUOUS
  2
*U10
 10
0.0
 20
0.0
 30
0.0
1001
ACAD
1000
DSTYLE
1002
{
1070
    77
1070
     0
1002
}
  0
INSERT
  5
7F6
  8
0
  6
CONTINUOUS
  2
*U11
 10
0.0
 20
0.0
 30
0.0
  0
INSERT
  5
7F7
  8
0
  6
CONTINUOUS
  2
*U12
 10
0.0
 20
0.0
 30
0.0
  0
INSERT
  5
7F8
  8
0
  6
CONTINUOUS
  2
*U13
 10
0.0
 20
0.0
 30
0.0
  0
INSERT
  5
7F9
  8
0
  6
CONTINUOUS
  2
*U14
 10
0.0
 20
0.0
 30
0.0
  0
INSERT
  5
7FA
  8
0
  6
CONTINUOUS
  2
*U15
 10
0.0
 20
0.0
 30
0.0
  0
INSERT
  5
7FB
  8
0
  6
CONTINUOUS
  2
*U16
 10
0.0
 20
0.0
 30
0.0
  0
INSERT
  5
7FC
  8
0
  6
CONTINUOUS
  2
*U17
 10
0.0
 20
0.0
 30
0.0
  0
INSERT
  5
7FD
  8
0
  6
CONTINUOUS
  2
*U18
 10
0.0
 20
0.0
 30
0.0
  0
INSERT
  5
7FE
  8
0
  6
CONTINUOUS
  2
*U19
 10
0.0
 20
0.0
 30
0.0
  0
INSERT
  5
7FF
  8
0
  6
CONTINUOUS
  2
*U20
 10
0.0
 20
0.0
 30
0.0
  0
INSERT
  5
800
  8
0
  6
CONTINUOUS
  2
*U21
 10
0.0
 20
0.0
 30
0.0
  0
INSERT
  5
801
  8
0
  6
CONTINUOUS
  2
*U22
 10
0.0
 20
0.0
 30
0.0
  0
INSERT
  5
802
  8
0
  6
CONTINUOUS
  2
*U23
 10
0.0
 20
0.0
 30
0.0
  0
INSERT
  5
803
  8
0
  6
CONTINUOUS
  2
*U24
 10
0.0
 20
0.0
 30
0.0
  0
INSERT
  5
804
  8
0
  6
CONTINUOUS
  2
*U25
 10
0.0
 20
0.0
 30
0.0
  0
INSERT
  5
805
  8
0
  6
CONTINUOUS
  2
*U26
 10
0.0
 20
0.0
 30
0.0
  0
INSERT
  5
806
  8
0
  6
CONTINUOUS
  2
*U27
 10
0.0
 20
0.0
 30
0.0
  0
INSERT
  5
807
  8
0
  6
CONTINUOUS
  2
*U28
 10
0.0
 20
0.0
 30
0.0
  0
INSERT
  5
808
  8
0
  6
CONTINUOUS
  2
*U29
 10
0.0
 20
0.0
 30
0.0
  0
INSERT
  5
809
  8
0
  6
CONTINUOUS
  2
*U30
 10
0.0
 20
0.0
 30
0.0
1001
ACAD
1000
DSTYLE
1002
{
1070
    77
1070
     0
1002
}
  0
INSERT
  5
80A
  8
0
  6
CONTINUOUS
  2
*U31
 10
0.0
 20
0.0
 30
0.0
  0
POLYLINE
  5
80B
  8
0
 66
     1
 10
0.0
 20
0.0
 30
0.0
 70
   128
 40
0.5
 41
0.5
  0
VERTEX
  5
CA0
  8
0
 10
16.786525782204979
 20
-121.4217905622133
 30
0.0
  0
VERTEX
  5
CA1
  8
0
 10
53.786525782204961
 20
-121.4217905622133
 30
0.0
 42
0.4142135623730953
  0
VERTEX
  5
CA2
  8
0
 10
56.786525782204947
 20
-118.4217905622133
 30
0.0
  0
VERTEX
  5
CA3
  8
0
 10
56.786525782204947
 20
-81.421790562213346
 30
0.0
 42
0.9999999999999998
  0
VERTEX
  5
CA4
  8
0
 10
54.786525782204947
 20
-81.421790562213346
 30
0.0
  0
VERTEX
  5
CA5
  8
0
 10
54.786525782204947
 20
-85.421790562213346
 30
0.0
  0
SEQEND
  5
CA6
  8
0
  0
INSERT
  5
80C
  8
0
  6
CONTINUOUS
  2
*X32
 10
0.0
 20
0.0
 30
0.0
1001
ACAD
1000
HATCH
1002
{
1070
    19
1000
ANSI37
1040
0.5
1040
0.0
1000
ASC_BOUNDS
1070
     1
1070
     2
1070
     1
1005
80D
1000
ASC_SEEDPOINT
1011
0.0
1021
0.0
1031
0.0
1021
-108.0024351666686
1031
0.0
1000
R14_HATCH_DATA
1000
80C
1011
1.0
1021
0.0
1031
0.0
1021
0.0
1031
0.0
1011
0.0
1021
0.0
1031
0.0
1021
1.0
1031
0.0
1011
0.0
1021
0.0
1031
0.0
1021
0.0
1031
1.0
1040
0.0
1010
0.0
1020
0.0
1030
1.0
1000
ANSI37
1070
     0
1070
     1
1071
        1
1071
        1
1071
        1
1070
     3
1040
-43.759792893232323
1040
-120.6922460085578
1040
4.4085929286902683
1040
0.0
1040
0.6191418889896106
1040
0.0
1040
6.2831853071795862
1070
     1
1071
        1
1005
80D
1070
     0
1070
     1
1040
0.0
1040
0.5
1070
     0
1070
     2
1040
0.7853981633974483
1040
0.0
1040
-108.0024351666686
1040
-1.1225320151336431
1040
1.122532015133644
1070
     0
1040
2.3561944901923439
1040
0.0
1040
-108.0024351666686
1040
-1.122532015133644
1040
-1.1225320151336431
1070
     0
1071
        1
1040
0.0
1040
-108.0024351666686
1040
0.0
1002
}
  0
POLYLINE
  5
80D
  8
0
 10
-39.351199964542054
 20
-120.6922460085578
 30
0.0
 66
     1
 70
     8
  0
VERTEX
  8
0
  5
D6D
 10
-39.3512
 20
-120.692
 30
0.000000
  70
    32
  0
VERTEX
  8
0
  5
D6E
 10
-39.3565
 20
-120.558
 30
0.000000
  70
    32
  0
VERTEX
  8
0
  5
D6F
 10
-39.3724
 20
-120.425
 30
0.000000
  70
    32
  0
VERTEX
  8
0
  5
D70
 10
-39.3989
 20
-120.292
 30
0.000000
  70
    32
  0
VERTEX
  8
0
  5
D71
 10
-39.4359
 20
-120.160
 30
0.000000
  70
    32
  0
VERTEX
  8
0
  5
D72
 10
-39.4833
 20
-120.029
 30
0.000000
  70
    32
  0
VERTEX
  8
0
  5
D73
 10
-39.5410
 20
-119.900
 30
0.000000
  70
    32
  0
VERTEX
  8
0
  5
D74
 10
-39.6089
 20
-119.773
 30
0.000000
  70
    32
  0
VERTEX
  8
0
  5
D75
 10
-39.6868
 20
-119.648
 30
0.000000
  70
    32
  0
VERTEX
  8
0
  5
D76
 10
-39.7745
 20
-119.525
 30
0.000000
  70
    32
  0
VERTEX
  8
0
  5
D77
 10
-39.8718
 20
-119.406
 30
0.000000
  70
    32
  0
VERTEX
  8
0
  5
D78
 10
-39.9784
 20
-119.289
 30
0.000000
  70
    32
  0
VERTEX
  8
0
  5
D79
 10
-40.0942
 20
-119.176
 30
0.000000
  70
    32
  0
VERTEX
  8
0
  5
D7A
 10
-40.2188
 20
-119.066
 30
0.000000
  70
    32
  0
VERTEX
  8
0
  5
D7B
 10
-40.3519
 20
-118.961
 30
0.000000
  70
    32
  0
VERTEX
  8
0
  5
D7C
 10
-40.4932
 20
-118.859
 30
0.000000
  70
    32
  0
VERTEX
  8
0
  5
D7D
 10
-40.6424
 20
-118.762
 30
0.000000
  70
    32
  0
VERTEX
  8
0
  5
D7E
 10
-40.7992
 20
-118.670
 30
0.000000
  70
    32
  0
VERTEX
  8
0
  5
D7F
 10
-40.9630
 20
-118.582
 30
0.000000
  70
    32
  0
VERTEX
  8
0
  5
D80
 10
-41.1336
 20
-118.500
 30
0.000000
  70
    32
  0
VERTEX
  8
0
  5
D81
 10
-41.3105
 20
-118.423
 30
0.000000
  70
    32
  0
VERTEX
  8
0
  5
D82
 10
-41.4933
 20
-118.351
 30
0.000000
  70
    32
  0
VERTEX
  8
0
  5
D83
 10
-41.6816
 20
-118.285
 30
0.000000
  70
    32
  0
VERTEX
  8
0
  5
D84
 10
-41.8749
 20
-118.225
 30
0.000000
  70
    32
  0
VERTEX
  8
0
  5
D85
 10
-42.0727
 20
-118.170
 30
0.000000
  70
    32
  0
VERTEX
  8
0
  5
D86
 10
-42.2746
 20
-118.122
 30
0.000000
  70
    32
  0
VERTEX
  8
0
  5
D87
 10
-42.4800
 20
-118.080
 30
0.000000
  70
    32
  0
VERTEX
  8
0
  5
D88
 10
-42.6886
 20
-118.045
 30
0.000000
  70
    32
  0
VERTEX
  8
0
  5
D89
 10
-42.8997
 20
-118.015
 30
0.000000
  70
    32
  0
VERTEX
  8
0
  5
D8A
 10
-43.1129
 20
-117.992
 30
0.000000
  70
    32
  0
VERTEX
  8
0
  5
D8B
 10
-43.3277
 20
-117.976
 30
0.000000
  70
    32
  0
VERTEX
  8
0
  5
D8C
 10
-43.5435
 20
-117.966
 30
0.000000
  70
    32
  0
VERTEX
  8
0
  5
D8D
 10
-43.7598
 20
-117.963
 30
0.000000
  70
    32
  0
VERTEX
  8
0
  5
D8E
 10
-43.9761
 20
-117.966
 30
0.000000
  70
    32
  0
VERTEX
  8
0
  5
D8F
 10
-44.1919
 20
-117.976
 30
0.000000
  70
    32
  0
VERTEX
  8
0
  5
D90
 10
-44.4067
 20
-117.992
 30
0.000000
  70
    32
  0
VERTEX
  8
0
  5
D91
 10
-44.6199
 20
-118.015
 30
0.000000
  70
    32
  0
VERTEX
  8
0
  5
D92
 10
-44.8310
 20
-118.045
 30
0.000000
  70
    32
  0
VERTEX
  8
0
  5
D93
 10
-45.0395
 20
-118.080
 30
0.000000
  70
    32
  0
VERTEX
  8
0
  5
D94
 10
-45.2450
 20
-118.122
 30
0.000000
  70
    32
  0
VERTEX
  8
0
  5
D95
 10
-45.4469
 20
-118.170
 30
0.000000
  70
    32
  0
VERTEX
  8
0
  5
D96
 10
-45.6447
 20
-118.225
 30
0.000000
  70
    32
  0
VERTEX
  8
0
  5
D97
 10
-45.8380
 20
-118.285
 30
0.000000
  70
    32
  0
VERTEX
  8
0
  5
D98
 10
-46.0263
 20
-118.351
 30
0.000000
  70
    32
  0
VERTEX
  8
0
  5
D99
 10
-46.2091
 20
-118.423
 30
0.000000
  70
    32
  0
VERTEX
  8
0
  5
D9A
 10
-46.3860
 20
-118.500
 30
0.000000
  70
    32
  0
VERTEX
  8
0
  5
D9B
 10
-46.5566
 20
-118.582
 30
0.000000
  70
    32
  0
VERTEX
  8
0
  5
D9C
 10
-46.7204
 20
-118.670
 30
0.000000
  70
    32
  0
VERTEX
  8
0
  5
D9D
 10
-46.8771
 20
-118.762
 30
0.000000
  70
    32
  0
VERTEX
  8
0
  5
D9E
 10
-47.0263
 20
-118.859
 30
0.000000
  70
    32
  0
VERTEX
  8
0
  5
D9F
 10
-47.1677
 20
-118.961
 30
0.000000
  70
    32
  0
VERTEX
  8
0
  5
DA0
 10
-47.3008
 20
-119.066
 30
0.000000
  70
    32
  0
VERTEX
  8
0
  5
DA1
 10
-47.4254
 20
-119.176
 30
0.000000
  70
    32
  0
VERTEX
  8
0
  5
DA2
 10
-47.5412
 20
-119.289
 30
0.000000
  70
    32
  0
VERTEX
  8
0
  5
DA3
 10
-47.6478
 20
-119.406
 30
0.000000
  70
    32
  0
VERTEX
  8
0
  5
DA4
 10
-47.7451
 20
-119.525
 30
0.000000
  70
    32
  0
VERTEX
  8
0
  5
DA5
 10
-47.8328
 20
-119.648
 30
0.000000
  70
    32
  0
VERTEX
  8
0
  5
DA6
 10
-47.9107
 20
-119.773
 30
0.000000
  70
    32
  0
VERTEX
  8
0
  5
DA7
 10
-47.9786
 20
-119.900
 30
0.000000
  70
    32
  0
VERTEX
  8
0
  5
DA8
 10
-48.0363
 20
-120.029
 30
0.000000
  70
    32
  0
VERTEX
  8
0
  5
DA9
 10
-48.0837
 20
-120.160
 30
0.000000
  70
    32
  0
VERTEX
  8
0
  5
DAA
 10
-48.1207
 20
-120.292
 30
0.000000
  70
    32
  0
VERTEX
  8
0
  5
DAB
 10
-48.1472
 20
-120.425
 30
0.000000
  70
    32
  0
VERTEX
  8
0
  5
DAC
 10
-48.1631
 20
-120.558
 30
0.000000
  70
    32
  0
VERTEX
  8
0
  5
DAD
 10
-48.1684
 20
-120.692
 30
0.000000
  70
    32
  0
VERTEX
  8
0
  5
DAE
 10
-48.1631
 20
-120.826
 30
0.000000
  70
    32
  0
VERTEX
  8
0
  5
DAF
 10
-48.1472
 20
-120.960
 30
0.000000
  70
    32
  0
VERTEX
  8
0
  5
DB0
 10
-48.1207
 20
-121.093
 30
0.000000
  70
    32
  0
VERTEX
  8
0
  5
DB1
 10
-48.0837
 20
-121.225
 30
0.000000
  70
    32
  0
VERTEX
  8
0
  5
DB2
 10
-48.0363
 20
-121.355
 30
0.000000
  70
    32
  0
VERTEX
  8
0
  5
DB3
 10
-47.9786
 20
-121.485
 30
0.000000
  70
    32
  0
VERTEX
  8
0
  5
DB4
 10
-47.9107
 20
-121.612
 30
0.000000
  70
    32
  0
VERTEX
  8
0
  5
DB5
 10
-47.8328
 20
-121.737
 30
0.000000
  70
    32
  0
VERTEX
  8
0
  5
DB6
 10
-47.7451
 20
-121.859
 30
0.000000
  70
    32
  0
VERTEX
  8
0
  5
DB7
 10
-47.6478
 20
-121.979
 30
0.000000
  70
    32
  0
VERTEX
  8
0
  5
DB8
 10
-47.5412
 20
-122.096
 30
0.000000
  70
    32
  0
VERTEX
  8
0
  5
DB9
 10
-47.4254
 20
-122.209
 30
0.000000
  70
    32
  0
VERTEX
  8
0
  5
DBA
 10
-47.3008
 20
-122.318
 30
0.000000
  70
    32
  0
VERTEX
  8
0
  5
DBB
 10
-47.1677
 20
-122.424
 30
0.000000
  70
    32
  0
VERTEX
  8
0
  5
DBC
 10
-47.0263
 20
-122.525
 30
0.000000
  70
    32
  0
VERTEX
  8
0
  5
DBD
 10
-46.8771
 20
-122.622
 30
0.000000
  70
    32
  0
VERTEX
  8
0
  5
DBE
 10
-46.7204
 20
-122.715
 30
0.000000
  70
    32
  0
VERTEX
  8
0
  5
DBF
 10
-46.5566
 20
-122.802
 30
0.000000
  70
    32
  0
VERTEX
  8
0
  5
DC0
 10
-46.3860
 20
-122.885
 30
0.000000
  70
    32
  0
VERTEX
  8
0
  5
DC1
 10
-46.2091
 20
-122.962
 30
0.000000
  70
    32
  0
VERTEX
  8
0
  5
DC2
 10
-46.0263
 20
-123.033
 30
0.000000
  70
    32
  0
VERTEX
  8
0
  5
DC3
 10
-45.8380
 20
-123.099
 30
0.000000
  70
    32
  0
VERTEX
  8
0
  5
DC4
 10
-45.6447
 20
-123.160
 30
0.000000
  70
    32
  0
VERTEX
  8
0
  5
DC5
 10
-45.4469
 20
-123.214
 30
0.000000
  70
    32
  0
VERTEX
  8
0
  5
DC6
 10
-45.2450
 20
-123.262
 30
0.000000
  70
    32
  0
VERTEX
  8
0
  5
DC7
 10
-45.0395
 20
-123.304
 30
0.000000
  70
    32
  0
VERTEX
  8
0
  5
DC8
 10
-44.8310
 20
-123.340
 30
0.000000
  70
    32
  0
VERTEX
  8
0
  5
DC9
 10
-44.6199
 20
-123.369
 30
0.000000
  70
    32
  0
VERTEX
  8
0
  5
DCA
 10
-44.4067
 20
-123.392
 30
0.000000
  70
    32
  0
VERTEX
  8
0
  5
DCB
 10
-44.1919
 20
-123.409
 30
0.000000
  70
    32
  0
VERTEX
  8
0
  5
DCC
 10
-43.9761
 20
-123.419
 30
0.000000
  70
    32
  0
VERTEX
  8
0
  5
DCD
 10
-43.7598
 20
-123.422
 30
0.000000
  70
    32
  0
VERTEX
  8
0
  5
DCE
 10
-43.5435
 20
-123.419
 30
0.000000
  70
    32
  0
VERTEX
  8
0
  5
DCF
 10
-43.3277
 20
-123.409
 30
0.000000
  70
    32
  0
VERTEX
  8
0
  5
DD0
 10
-43.1129
 20
-123.392
 30
0.000000
  70
    32
  0
VERTEX
  8
0
  5
DD1
 10
-42.8997
 20
-123.369
 30
0.000000
  70
    32
  0
VERTEX
  8
0
  5
DD2
 10
-42.6886
 20
-123.340
 30
0.000000
  70
    32
  0
VERTEX
  8
0
  5
DD3
 10
-42.4800
 20
-123.304
 30
0.000000
  70
    32
  0
VERTEX
  8
0
  5
DD4
 10
-42.2746
 20
-123.262
 30
0.000000
  70
    32
  0
VERTEX
  8
0
  5
DD5
 10
-42.0727
 20
-123.214
 30
0.000000
  70
    32
  0
VERTEX
  8
0
  5
DD6
 10
-41.8749
 20
-123.160
 30
0.000000
  70
    32
  0
VERTEX
  8
0
  5
DD7
 10
-41.6816
 20
-123.099
 30
0.000000
  70
    32
  0
VERTEX
  8
0
  5
DD8
 10
-41.4933
 20
-123.033
 30
0.000000
  70
    32
  0
VERTEX
  8
0
  5
DD9
 10
-41.3105
 20
-122.962
 30
0.000000
  70
    32
  0
VERTEX
  8
0
  5
DDA
 10
-41.1336
 20
-122.885
 30
0.000000
  70
    32
  0
VERTEX
  8
0
  5
DDB
 10
-40.9630
 20
-122.802
 30
0.000000
  70
    32
  0
VERTEX
  8
0
  5
DDC
 10
-40.7992
 20
-122.715
 30
0.000000
  70
    32
  0
VERTEX
  8
0
  5
DDD
 10
-40.6424
 20
-122.622
 30
0.000000
  70
    32
  0
VERTEX
  8
0
  5
DDE
 10
-40.4932
 20
-122.525
 30
0.000000
  70
    32
  0
VERTEX
  8
0
  5
DDF
 10
-40.3519
 20
-122.424
 30
0.000000
  70
    32
  0
VERTEX
  8
0
  5
DE0
 10
-40.2188
 20
-122.318
 30
0.000000
  70
    32
  0
VERTEX
  8
0
  5
DE1
 10
-40.0942
 20
-122.209
 30
0.000000
  70
    32
  0
VERTEX
  8
0
  5
DE2
 10
-39.9784
 20
-122.096
 30
0.000000
  70
    32
  0
VERTEX
  8
0
  5
DE3
 10
-39.8718
 20
-121.979
 30
0.000000
  70
    32
  0
VERTEX
  8
0
  5
DE4
 10
-39.7745
 20
-121.859
 30
0.000000
  70
    32
  0
VERTEX
  8
0
  5
DE5
 10
-39.6868
 20
-121.737
 30
0.000000
  70
    32
  0
VERTEX
  8
0
  5
DE6
 10
-39.6089
 20
-121.612
 30
0.000000
  70
    32
  0
VERTEX
  8
0
  5
DE7
 10
-39.5410
 20
-121.485
 30
0.000000
  70
    32
  0
VERTEX
  8
0
  5
DE8
 10
-39.4833
 20
-121.355
 30
0.000000
  70
    32
  0
VERTEX
  8
0
  5
DE9
 10
-39.4359
 20
-121.225
 30
0.000000
  70
    32
  0
VERTEX
  8
0
  5
DEA
 10
-39.3989
 20
-121.093
 30
0.000000
  70
    32
  0
VERTEX
  8
0
  5
DEB
 10
-39.3724
 20
-120.960
 30
0.000000
  70
    32
  0
VERTEX
  8
0
  5
DEC
 10
-39.3565
 20
-120.826
 30
0.000000
  70
    32
  0
VERTEX
  8
0
  5
DED
 10
-39.3512
 20
-120.692
 30
0.000000
  70
    32
  0
SEQEND
  8
0
  5
DEE
  0
INSERT
  5
80E
  8
0
  6
CONTINUOUS
  2
*U33
 10
0.0
 20
0.0
 30
0.0
1001
ACAD
1000
DSTYLE
1002
{
1070
    77
1070
     0
1002
}
  0
INSERT
  5
80F
  8
0
  6
CONTINUOUS
  2
*U34
 10
0.0
 20
0.0
 30
0.0
  0
INSERT
  5
810
  8
0
  6
CONTINUOUS
  2
*U35
 10
0.0
 20
0.0
 30
0.0
  0
INSERT
  5
811
  8
0
  6
CONTINUOUS
  2
*U36
 10
0.0
 20
0.0
 30
0.0
  0
LINE
  5
812
  8
0
  6
CONTINUOUS
 10
-101.0
 20
-229.19740669727801
 30
0.0
 11
-109.0
 21
-229.1974066972775
 31
0.0
  0
INSERT
  5
813
  8
0
  6
CONTINUOUS
  2
*U37
 10
0.0
 20
0.0
 30
0.0
  0
INSERT
  5
814
  8
0
  6
CONTINUOUS
  2
*U38
 10
0.0
 20
0.0
 30
0.0
  0
INSERT
  5
815
  8
0
  6
CONTINUOUS
  2
*U39
 10
0.0
 20
0.0
 30
0.0
  0
LINE
  5
941
  8
0
  6
CONTINUOUS
 10
34.72747618738611
 20
-229.29205377204701
 30
0.0
 11
41.822123262157042
 21
-222.19740669727611
 31
0.0
1001
ACAD
1010
0.0
1020
0.0
1030
0.0
  0
LINE
  5
942
  8
0
  6
CONTINUOUS
 10
31.063203820338401
 20
-238.34447981173619
 30
0.0
 11
47.210276934798529
 21
-222.19740669727611
 31
0.0
1001
ACAD
1010
0.0
1020
0.0
1030
0.0
  0
LINE
  5
943
  8
0
  6
CONTINUOUS
 10
32.598430607440022
 20
-242.19740669727619
 30
0.0
 11
52.598430607440029
 21
-222.19740669727611
 31
0.0
1001
ACAD
1010
0.0
1020
0.0
1030
0.0
  0
LINE
  5
944
  8
0
  6
CONTINUOUS
 10
37.986584280081502
 20
-242.19740669727611
 30
0.0
 11
56.786525782204961
 21
-223.39746519515271
 31
0.0
1001
ACAD
1010
0.0
1020
0.0
1030
0.0
  0
LINE
  5
945
  8
0
  6
CONTINUOUS
 10
43.374737952723009
 20
-242.19740669727611
 30
0.0
 11
56.786525782204968
 21
-228.78561886779411
 31
0.0
1001
ACAD
1010
0.0
1020
0.0
1030
0.0
  0
LINE
  5
946
  8
0
  6
CONTINUOUS
 10
48.762891625364489
 20
-242.19740669727611
 30
0.0
 11
56.786525782204961
 21
-234.17377254043569
 31
0.0
1001
ACAD
1010
0.0
1020
0.0
1030
0.0
  0
LINE
  5
947
  8
0
  6
CONTINUOUS
 10
54.151045298005997
 20
-242.19740669727619
 30
0.0
 11
56.78652578220499
 21
-239.5619262130771
 31
0.0
1001
ACAD
1010
0.0
1020
0.0
1030
0.0
  0
LINE
  5
948
  8
0
  6
CONTINUOUS
 10
38.316329484700361
 20
-223.9071492505189
 30
0.0
 11
38.615101320597347
 21
-223.608377414622
 31
0.0
1001
ACAD
1010
0.0
1020
0.0
1030
0.0
  0
LINE
  5
949
  8
0
  6
CONTINUOUS
 10
39.51312693270426
 20
-222.71035180251499
 30
0.0
 11
40.026072037943187
 21
-222.19740669727611
 31
0.0
1001
ACAD
1010
0.0
1020
0.0
1030
0.0
  0
LINE
  5
94A
  8
0
  6
CONTINUOUS
 10
31.528396177103222
 20
-236.08323623075759
 30
0.0
 11
32.328922035848962
 21
-235.28271037201179
 31
0.0
1001
ACAD
1010
0.0
1020
0.0
1030
0.0
  0
LINE
  5
94B
  8
0
  6
CONTINUOUS
 10
33.226947647955868
 20
-234.3846847599049
 30
0.0
 11
34.124973260062781
 21
-233.48665914779801
 31
0.0
1001
ACAD
1010
0.0
1020
0.0
1030
0.0
  0
LINE
  5
94C
  8
0
  6
CONTINUOUS
 10
35.022998872169687
 20
-232.58863353569109
 30
0.0
 11
35.921024484276607
 21
-231.69060792358411
 31
0.0
1001
ACAD
1010
0.0
1020
0.0
1030
0.0
  0
LINE
  5
94D
  8
0
  6
CONTINUOUS
 10
36.819050096383521
 20
-230.79258231147719
 30
0.0
 11
37.717075708490441
 21
-229.8945566993703
 31
0.0
1001
ACAD
1010
0.0
1020
0.0
1030
0.0
  0
LINE
  5
94E
  8
0
  6
CONTINUOUS
 10
38.615101320597347
 20
-228.99653108726341
 30
0.0
 11
39.51312693270426
 21
-228.0985054751564
 31
0.0
1001
ACAD
1010
0.0
1020
0.0
1030
0.0
  0
LINE
  5
94F
  8
0
  6
CONTINUOUS
 10
40.411152544811173
 20
-227.20047986304951
 30
0.0
 11
41.30917815691808
 21
-226.30245425094259
 31
0.0
1001
ACAD
1010
0.0
1020
0.0
1030
0.0
  0
LINE
  5
950
  8
0
  6
CONTINUOUS
 10
42.207203769025
 20
-225.4044286388357
 30
0.0
 11
43.105229381131913
 21
-224.5064030267288
 31
0.0
1001
ACAD
1010
0.0
1020
0.0
1030
0.0
  0
LINE
  5
951
  8
0
  6
CONTINUOUS
 10
44.003254993238833
 20
-223.6083774146218
 30
0.0
 11
44.90128060534574
 21
-222.71035180251491
 31
0.0
1001
ACAD
1010
0.0
1020
0.0
1030
0.0
  0
LINE
  5
952
  8
0
  6
CONTINUOUS
 10
30.856504679020009
 20
-242.14328140148231
 30
0.0
 11
31.430896423742059
 21
-241.56888965676029
 31
0.0
1001
ACAD
1010
0.0
1020
0.0
1030
0.0
  0
LINE
  5
953
  8
0
  6
CONTINUOUS
 10
32.328922035848983
 20
-240.6708640446534
 30
0.0
 11
33.226947647955889
 21
-239.77283843254639
 31
0.0
1001
ACAD
1010
0.0
1020
0.0
1030
0.0
  0
LINE
  5
954
  8
0
  6
CONTINUOUS
 10
34.124973260062802
 20
-238.8748128204395
 30
0.0
 11
35.022998872169723
 21
-237.97678720833261
 31
0.0
1001
ACAD
1010
0.0
1020
0.0
1030
0.0
  0
LINE
  5
955
  8
0
  6
CONTINUOUS
 10
35.921024484276629
 20
-237.07876159622569
 30
0.0
 11
36.819050096383542
 21
-236.18073598411871
 31
0.0
1001
ACAD
1010
0.0
1020
0.0
1030
0.0
  0
LINE
  5
956
  8
0
  6
CONTINUOUS
 10
37.717075708490448
 20
-235.28271037201179
 30
0.0
 11
38.615101320597368
 21
-234.3846847599049
 31
0.0
1001
ACAD
1010
0.0
1020
0.0
1030
0.0
  0
LINE
  5
957
  8
0
  6
CONTINUOUS
 10
39.513126932704282
 20
-233.48665914779801
 30
0.0
 11
40.411152544811188
 21
-232.58863353569109
 31
0.0
1001
ACAD
1010
0.0
1020
0.0
1030
0.0
  0
LINE
  5
958
  8
0
  6
CONTINUOUS
 10
41.309178156918108
 20
-231.69060792358411
 30
0.0
 11
42.207203769025021
 21
-230.79258231147719
 31
0.0
1001
ACAD
1010
0.0
1020
0.0
1030
0.0
  0
LINE
  5
959
  8
0
  6
CONTINUOUS
 10
43.105229381131927
 20
-229.8945566993703
 30
0.0
 11
44.003254993238841
 21
-228.99653108726341
 31
0.0
1001
ACAD
1010
0.0
1020
0.0
1030
0.0
  0
LINE
  5
95A
  8
0
  6
CONTINUOUS
 10
44.901280605345747
 20
-228.0985054751564
 30
0.0
 11
45.799306217452667
 21
-227.20047986304951
 31
0.0
1001
ACAD
1010
0.0
1020
0.0
1030
0.0
  0
LINE
  5
95B
  8
0
  6
CONTINUOUS
 10
46.69733182955958
 20
-226.30245425094259
 30
0.0
 11
47.595357441666501
 21
-225.4044286388357
 31
0.0
1001
ACAD
1010
0.0
1020
0.0
1030
0.0
  0
LINE
  5
95C
  8
0
  6
CONTINUOUS
 10
48.493383053773407
 20
-224.5064030267288
 30
0.0
 11
49.391408665880327
 21
-223.6083774146218
 31
0.0
1001
ACAD
1010
0.0
1020
0.0
1030
0.0
  0
LINE
  5
95D
  8
0
  6
CONTINUOUS
 10
50.28943427798724
 20
-222.71035180251491
 30
0.0
 11
50.802379383226182
 21
-222.19740669727599
 31
0.0
1001
ACAD
1010
0.0
1020
0.0
1030
0.0
  0
LINE
  5
95E
  8
0
  6
CONTINUOUS
 10
36.819050096383542
 20
-241.56888965676021
 30
0.0
 11
37.717075708490448
 21
-240.67086404465331
 31
0.0
1001
ACAD
1010
0.0
1020
0.0
1030
0.0
  0
LINE
  5
95F
  8
0
  6
CONTINUOUS
 10
38.615101320597361
 20
-239.77283843254639
 30
0.0
 11
39.513126932704267
 21
-238.8748128204395
 31
0.0
1001
ACAD
1010
0.0
1020
0.0
1030
0.0
  0
LINE
  5
960
  8
0
  6
CONTINUOUS
 10
40.411152544811188
 20
-237.97678720833261
 30
0.0
 11
41.309178156918101
 21
-237.0787615962256
 31
0.0
1001
ACAD
1010
0.0
1020
0.0
1030
0.0
  0
LINE
  5
961
  8
0
  6
CONTINUOUS
 10
42.207203769025007
 20
-236.18073598411871
 30
0.0
 11
43.105229381131927
 21
-235.28271037201179
 31
0.0
1001
ACAD
1010
0.0
1020
0.0
1030
0.0
  0
LINE
  5
962
  8
0
  6
CONTINUOUS
 10
44.003254993238841
 20
-234.3846847599049
 30
0.0
 11
44.901280605345747
 21
-233.48665914779789
 31
0.0
1001
ACAD
1010
0.0
1020
0.0
1030
0.0
  0
LINE
  5
963
  8
0
  6
CONTINUOUS
 10
45.79930621745266
 20
-232.588633535691
 30
0.0
 11
46.697331829559573
 21
-231.69060792358411
 31
0.0
1001
ACAD
1010
0.0
1020
0.0
1030
0.0
  0
LINE
  5
964
  8
0
  6
CONTINUOUS
 10
47.595357441666494
 20
-230.79258231147719
 30
0.0
 11
48.4933830537734
 21
-229.8945566993703
 31
0.0
1001
ACAD
1010
0.0
1020
0.0
1030
0.0
  0
LINE
  5
965
  8
0
  6
CONTINUOUS
 10
49.39140866588032
 20
-228.99653108726329
 30
0.0
 11
50.289434277987233
 21
-228.0985054751564
 31
0.0
1001
ACAD
1010
0.0
1020
0.0
1030
0.0
  0
LINE
  5
966
  8
0
  6
CONTINUOUS
 10
51.187459890094154
 20
-227.20047986304951
 30
0.0
 11
52.08548550220106
 21
-226.30245425094259
 31
0.0
1001
ACAD
1010
0.0
1020
0.0
1030
0.0
  0
LINE
  5
967
  8
0
  6
CONTINUOUS
 10
52.983511114307973
 20
-225.40442863883561
 30
0.0
 11
53.881536726414893
 21
-224.50640302672869
 31
0.0
1001
ACAD
1010
0.0
1020
0.0
1030
0.0
  0
LINE
  5
968
  8
0
  6
CONTINUOUS
 10
54.779562338521799
 20
-223.6083774146218
 30
0.0
 11
55.677587950628713
 21
-222.71035180251491
 31
0.0
1001
ACAD
1010
0.0
1020
0.0
1030
0.0
  0
LINE
  5
969
  8
0
  6
CONTINUOUS
 10
41.578686728509162
 20
-242.19740669727611
 30
0.0
 11
42.207203769025028
 21
-241.56888965676021
 31
0.0
1001
ACAD
1010
0.0
1020
0.0
1030
0.0
  0
LINE
  5
96A
  8
0
  6
CONTINUOUS
 10
43.105229381131927
 20
-240.67086404465331
 30
0.0
 11
44.003254993238848
 21
-239.77283843254639
 31
0.0
1001
ACAD
1010
0.0
1020
0.0
1030
0.0
  0
LINE
  5
96B
  8
0
  6
CONTINUOUS
 10
44.901280605345761
 20
-238.8748128204395
 30
0.0
 11
45.799306217452681
 21
-237.97678720833261
 31
0.0
1001
ACAD
1010
0.0
1020
0.0
1030
0.0
  0
LINE
  5
96C
  8
0
  6
CONTINUOUS
 10
46.697331829559587
 20
-237.0787615962256
 30
0.0
 11
47.595357441666501
 21
-236.18073598411871
 31
0.0
1001
ACAD
1010
0.0
1020
0.0
1030
0.0
  0
LINE
  5
96D
  8
0
  6
CONTINUOUS
 10
48.493383053773421
 20
-235.28271037201179
 30
0.0
 11
49.391408665880327
 21
-234.3846847599049
 31
0.0
1001
ACAD
1010
0.0
1020
0.0
1030
0.0
  0
LINE
  5
96E
  8
0
  6
CONTINUOUS
 10
50.289434277987247
 20
-233.48665914779789
 30
0.0
 11
51.187459890094161
 21
-232.588633535691
 31
0.0
1001
ACAD
1010
0.0
1020
0.0
1030
0.0
  0
LINE
  5
96F
  8
0
  6
CONTINUOUS
 10
52.085485502201081
 20
-231.69060792358411
 30
0.0
 11
52.983511114307987
 21
-230.79258231147719
 31
0.0
1001
ACAD
1010
0.0
1020
0.0
1030
0.0
  0
LINE
  5
970
  8
0
  6
CONTINUOUS
 10
53.8815367264149
 20
-229.8945566993703
 30
0.0
 11
54.779562338521806
 21
-228.99653108726329
 31
0.0
1001
ACAD
1010
0.0
1020
0.0
1030
0.0
  0
LINE
  5
971
  8
0
  6
CONTINUOUS
 10
55.67758795062872
 20
-228.0985054751564
 30
0.0
 11
56.57561356273564
 21
-227.20047986304951
 31
0.0
1001
ACAD
1010
0.0
1020
0.0
1030
0.0
  0
LINE
  5
972
  8
0
  6
CONTINUOUS
 10
47.595357441666522
 20
-241.56888965676021
 30
0.0
 11
48.493383053773442
 21
-240.67086404465331
 31
0.0
1001
ACAD
1010
0.0
1020
0.0
1030
0.0
  0
LINE
  5
973
  8
0
  6
CONTINUOUS
 10
49.391408665880348
 20
-239.77283843254639
 30
0.0
 11
50.289434277987262
 21
-238.8748128204395
 31
0.0
1001
ACAD
1010
0.0
1020
0.0
1030
0.0
  0
LINE
  5
974
  8
0
  6
CONTINUOUS
 10
51.187459890094182
 20
-237.97678720833261
 30
0.0
 11
52.085485502201081
 21
-237.0787615962256
 31
0.0
1001
ACAD
1010
0.0
1020
0.0
1030
0.0
  0
LINE
  5
975
  8
0
  6
CONTINUOUS
 10
52.983511114308001
 20
-236.18073598411871
 30
0.0
 11
53.881536726414907
 21
-235.28271037201179
 31
0.0
1001
ACAD
1010
0.0
1020
0.0
1030
0.0
  0
LINE
  5
976
  8
0
  6
CONTINUOUS
 10
54.779562338521821
 20
-234.3846847599049
 30
0.0
 11
55.677587950628741
 21
-233.48665914779789
 31
0.0
1001
ACAD
1010
0.0
1020
0.0
1030
0.0
  0
LINE
  5
977
  8
0
  6
CONTINUOUS
 10
56.575613562735647
 20
-232.588633535691
 30
0.0
 11
56.78652578220494
 21
-232.37772131622171
 31
0.0
1001
ACAD
1010
0.0
1020
0.0
1030
0.0
  0
LINE
  5
978
  8
0
  6
CONTINUOUS
 10
52.354994073792149
 20
-242.19740669727619
 30
0.0
 11
52.983511114307987
 21
-241.56888965676029
 31
0.0
1001
ACAD
1010
0.0
1020
0.0
1030
0.0
  0
LINE
  5
979
  8
0
  6
CONTINUOUS
 10
53.8815367264149
 20
-240.6708640446534
 30
0.0
 11
54.779562338521821
 21
-239.77283843254651
 31
0.0
1001
ACAD
1010
0.0
1020
0.0
1030
0.0
  0
LINE
  5
97A
  8
0
  6
CONTINUOUS
 10
55.677587950628727
 20
-238.8748128204395
 30
0.0
 11
56.57561356273564
 21
-237.97678720833261
 31
0.0
1001
ACAD
1010
0.0
1020
0.0
1030
0.0
  0
LINE
  5
97B
  8
0
  6
CONTINUOUS
 10
32.459221088176818
 20
-233.35636009547011
 30
0.0
 11
33.226947647955861
 21
-232.58863353569109
 31
0.0
1001
ACAD
1010
0.0
1020
0.0
1030
0.0
  0
LINE
  5
97C
  8
0
  6
CONTINUOUS
 10
34.124973260062781
 20
-231.6906079235842
 30
0.0
 11
35.022998872169687
 21
-230.79258231147719
 31
0.0
1001
ACAD
1010
0.0
1020
0.0
1030
0.0
  0
LINE
  5
97D
  8
0
  6
CONTINUOUS
 10
35.9210244842766
 20
-229.8945566993703
 30
0.0
 11
36.819050096383513
 21
-228.99653108726341
 31
0.0
1001
ACAD
1010
0.0
1020
0.0
1030
0.0
  0
LINE
  5
97E
  8
0
  6
CONTINUOUS
 10
37.717075708490427
 20
-228.09850547515649
 30
0.0
 11
38.61510132059734
 21
-227.20047986304959
 31
0.0
1001
ACAD
1010
0.0
1020
0.0
1030
0.0
  0
LINE
  5
97F
  8
0
  6
CONTINUOUS
 10
39.51312693270426
 20
-226.30245425094259
 30
0.0
 11
40.411152544811159
 21
-225.4044286388357
 31
0.0
1001
ACAD
1010
0.0
1020
0.0
1030
0.0
  0
LINE
  5
980
  8
0
  6
CONTINUOUS
 10
41.30917815691808
 20
-224.5064030267288
 30
0.0
 11
42.207203769024993
 21
-223.60837741462191
 31
0.0
1001
ACAD
1010
0.0
1020
0.0
1030
0.0
  0
LINE
  5
981
  8
0
  6
CONTINUOUS
 10
43.105229381131899
 20
-222.71035180251491
 30
0.0
 11
43.618174486370833
 21
-222.19740669727599
 31
0.0
1001
ACAD
1010
0.0
1020
0.0
1030
0.0
  0
LINE
  5
982
  8
0
  6
CONTINUOUS
 10
31.430896423742031
 20
-239.77283843254651
 30
0.0
 11
32.328922035848947
 21
-238.8748128204395
 31
0.0
1001
ACAD
1010
0.0
1020
0.0
1030
0.0
  0
LINE
  5
983
  8
0
  6
CONTINUOUS
 10
33.226947647955861
 20
-237.97678720833261
 30
0.0
 11
34.124973260062781
 21
-237.07876159622569
 31
0.0
1001
ACAD
1010
0.0
1020
0.0
1030
0.0
  0
LINE
  5
984
  8
0
  6
CONTINUOUS
 10
35.022998872169687
 20
-236.1807359841188
 30
0.0
 11
35.9210244842766
 21
-235.28271037201191
 31
0.0
1001
ACAD
1010
0.0
1020
0.0
1030
0.0
  0
LINE
  5
985
  8
0
  6
CONTINUOUS
 10
36.819050096383513
 20
-234.3846847599049
 30
0.0
 11
37.717075708490427
 21
-233.48665914779801
 31
0.0
1001
ACAD
1010
0.0
1020
0.0
1030
0.0
  0
LINE
  5
986
  8
0
  6
CONTINUOUS
 10
38.61510132059734
 20
-232.58863353569109
 30
0.0
 11
39.51312693270426
 21
-231.6906079235842
 31
0.0
1001
ACAD
1010
0.0
1020
0.0
1030
0.0
  0
LINE
  5
987
  8
0
  6
CONTINUOUS
 10
40.411152544811159
 20
-230.79258231147719
 30
0.0
 11
41.30917815691808
 21
-229.8945566993703
 31
0.0
1001
ACAD
1010
0.0
1020
0.0
1030
0.0
  0
LINE
  5
988
  8
0
  6
CONTINUOUS
 10
42.207203769024993
 20
-228.99653108726341
 30
0.0
 11
43.105229381131899
 21
-228.09850547515649
 31
0.0
1001
ACAD
1010
0.0
1020
0.0
1030
0.0
  0
LINE
  5
989
  8
0
  6
CONTINUOUS
 10
44.003254993238819
 20
-227.20047986304959
 30
0.0
 11
44.901280605345733
 21
-226.30245425094259
 31
0.0
1001
ACAD
1010
0.0
1020
0.0
1030
0.0
  0
LINE
  5
98A
  8
0
  6
CONTINUOUS
 10
45.799306217452653
 20
-225.4044286388357
 30
0.0
 11
46.697331829559559
 21
-224.5064030267288
 31
0.0
1001
ACAD
1010
0.0
1020
0.0
1030
0.0
  0
LINE
  5
98B
  8
0
  6
CONTINUOUS
 10
47.595357441666472
 20
-223.60837741462191
 30
0.0
 11
48.493383053773378
 21
-222.71035180251491
 31
0.0
1001
ACAD
1010
0.0
1020
0.0
1030
0.0
  0
LINE
  5
98C
  8
0
  6
CONTINUOUS
 10
34.394481831653842
 20
-242.19740669727611
 30
0.0
 11
35.022998872169687
 21
-241.56888965676021
 31
0.0
1001
ACAD
1010
0.0
1020
0.0
1030
0.0
  0
LINE
  5
98D
  8
0
  6
CONTINUOUS
 10
35.921024484276607
 20
-240.67086404465331
 30
0.0
 11
36.819050096383521
 21
-239.77283843254639
 31
0.0
1001
ACAD
1010
0.0
1020
0.0
1030
0.0
  0
LINE
  5
98E
  8
0
  6
CONTINUOUS
 10
37.717075708490441
 20
-238.8748128204395
 30
0.0
 11
38.615101320597347
 21
-237.97678720833261
 31
0.0
1001
ACAD
1010
0.0
1020
0.0
1030
0.0
  0
LINE
  5
98F
  8
0
  6
CONTINUOUS
 10
39.51312693270426
 20
-237.0787615962256
 30
0.0
 11
40.411152544811173
 21
-236.18073598411871
 31
0.0
1001
ACAD
1010
0.0
1020
0.0
1030
0.0
  0
LINE
  5
990
  8
0
  6
CONTINUOUS
 10
41.30917815691808
 20
-235.28271037201179
 30
0.0
 11
42.207203769025
 21
-234.3846847599049
 31
0.0
1001
ACAD
1010
0.0
1020
0.0
1030
0.0
  0
LINE
  5
991
  8
0
  6
CONTINUOUS
 10
43.105229381131913
 20
-233.48665914779789
 30
0.0
 11
44.003254993238833
 21
-232.588633535691
 31
0.0
1001
ACAD
1010
0.0
1020
0.0
1030
0.0
  0
LINE
  5
992
  8
0
  6
CONTINUOUS
 10
44.90128060534574
 20
-231.69060792358411
 30
0.0
 11
45.799306217452653
 21
-230.79258231147719
 31
0.0
1001
ACAD
1010
0.0
1020
0.0
1030
0.0
  0
LINE
  5
993
  8
0
  6
CONTINUOUS
 10
46.697331829559559
 20
-229.8945566993703
 30
0.0
 11
47.595357441666472
 21
-228.99653108726329
 31
0.0
1001
ACAD
1010
0.0
1020
0.0
1030
0.0
  0
LINE
  5
994
  8
0
  6
CONTINUOUS
 10
48.493383053773393
 20
-228.0985054751564
 30
0.0
 11
49.391408665880299
 21
-227.20047986304951
 31
0.0
1001
ACAD
1010
0.0
1020
0.0
1030
0.0
  0
LINE
  5
995
  8
0
  6
CONTINUOUS
 10
50.289434277987219
 20
-226.30245425094259
 30
0.0
 11
51.187459890094132
 21
-225.40442863883561
 31
0.0
1001
ACAD
1010
0.0
1020
0.0
1030
0.0
  0
LINE
  5
996
  8
0
  6
CONTINUOUS
 10
52.085485502201038
 20
-224.50640302672869
 30
0.0
 11
52.983511114307959
 21
-223.6083774146218
 31
0.0
1001
ACAD
1010
0.0
1020
0.0
1030
0.0
  0
LINE
  5
997
  8
0
  6
CONTINUOUS
 10
53.881536726414872
 20
-222.71035180251491
 30
0.0
 11
54.394481831653792
 21
-222.19740669727599
 31
0.0
1001
ACAD
1010
0.0
1020
0.0
1030
0.0
  0
LINE
  5
998
  8
0
  6
CONTINUOUS
 10
40.411152544811209
 20
-241.56888965676021
 30
0.0
 11
41.309178156918122
 21
-240.67086404465331
 31
0.0
1001
ACAD
1010
0.0
1020
0.0
1030
0.0
  0
LINE
  5
999
  8
0
  6
CONTINUOUS
 10
42.207203769025043
 20
-239.77283843254639
 30
0.0
 11
43.105229381131949
 21
-238.8748128204395
 31
0.0
1001
ACAD
1010
0.0
1020
0.0
1030
0.0
  0
LINE
  5
99A
  8
0
  6
CONTINUOUS
 10
44.003254993238862
 20
-237.97678720833261
 30
0.0
 11
44.901280605345782
 21
-237.0787615962256
 31
0.0
1001
ACAD
1010
0.0
1020
0.0
1030
0.0
  0
LINE
  5
99B
  8
0
  6
CONTINUOUS
 10
45.799306217452688
 20
-236.18073598411871
 30
0.0
 11
46.697331829559609
 21
-235.28271037201179
 31
0.0
1001
ACAD
1010
0.0
1020
0.0
1030
0.0
  0
LINE
  5
99C
  8
0
  6
CONTINUOUS
 10
47.595357441666522
 20
-234.3846847599049
 30
0.0
 11
48.493383053773442
 21
-233.48665914779789
 31
0.0
1001
ACAD
1010
0.0
1020
0.0
1030
0.0
  0
LINE
  5
99D
  8
0
  6
CONTINUOUS
 10
49.391408665880348
 20
-232.588633535691
 30
0.0
 11
50.289434277987262
 21
-231.69060792358411
 31
0.0
1001
ACAD
1010
0.0
1020
0.0
1030
0.0
  0
LINE
  5
99E
  8
0
  6
CONTINUOUS
 10
51.187459890094182
 20
-230.79258231147719
 30
0.0
 11
52.085485502201081
 21
-229.8945566993703
 31
0.0
1001
ACAD
1010
0.0
1020
0.0
1030
0.0
  0
LINE
  5
99F
  8
0
  6
CONTINUOUS
 10
52.983511114308001
 20
-228.99653108726329
 30
0.0
 11
53.881536726414907
 21
-228.0985054751564
 31
0.0
1001
ACAD
1010
0.0
1020
0.0
1030
0.0
  0
LINE
  5
9A0
  8
0
  6
CONTINUOUS
 10
54.779562338521821
 20
-227.20047986304951
 30
0.0
 11
55.677587950628741
 21
-226.30245425094259
 31
0.0
1001
ACAD
1010
0.0
1020
0.0
1030
0.0
  0
LINE
  5
9A1
  8
0
  6
CONTINUOUS
 10
56.575613562735647
 20
-225.40442863883561
 30
0.0
 11
56.786525782204933
 21
-225.1935164193664
 31
0.0
1001
ACAD
1010
0.0
1020
0.0
1030
0.0
  0
LINE
  5
9A2
  8
0
  6
CONTINUOUS
 10
45.1707891769368
 20
-242.19740669727611
 30
0.0
 11
45.799306217452681
 21
-241.56888965676021
 31
0.0
1001
ACAD
1010
0.0
1020
0.0
1030
0.0
  0
LINE
  5
9A3
  8
0
  6
CONTINUOUS
 10
46.697331829559602
 20
-240.67086404465331
 30
0.0
 11
47.595357441666508
 21
-239.77283843254639
 31
0.0
1001
ACAD
1010
0.0
1020
0.0
1030
0.0
  0
LINE
  5
9A4
  8
0
  6
CONTINUOUS
 10
48.493383053773428
 20
-238.8748128204395
 30
0.0
 11
49.391408665880341
 21
-237.97678720833261
 31
0.0
1001
ACAD
1010
0.0
1020
0.0
1030
0.0
  0
LINE
  5
9A5
  8
0
  6
CONTINUOUS
 10
50.289434277987262
 20
-237.0787615962256
 30
0.0
 11
51.187459890094168
 21
-236.18073598411871
 31
0.0
1001
ACAD
1010
0.0
1020
0.0
1030
0.0
  0
LINE
  5
9A6
  8
0
  6
CONTINUOUS
 10
52.085485502201081
 20
-235.28271037201179
 30
0.0
 11
52.983511114307987
 21
-234.3846847599049
 31
0.0
1001
ACAD
1010
0.0
1020
0.0
1030
0.0
  0
LINE
  5
9A7
  8
0
  6
CONTINUOUS
 10
53.8815367264149
 20
-233.48665914779789
 30
0.0
 11
54.779562338521821
 21
-232.588633535691
 31
0.0
1001
ACAD
1010
0.0
1020
0.0
1030
0.0
  0
LINE
  5
9A8
  8
0
  6
CONTINUOUS
 10
55.677587950628727
 20
-231.69060792358411
 30
0.0
 11
56.57561356273564
 21
-230.79258231147719
 31
0.0
1001
ACAD
1010
0.0
1020
0.0
1030
0.0
  0
LINE
  5
9A9
  8
0
  6
CONTINUOUS
 10
51.187459890094182
 20
-241.56888965676029
 30
0.0
 11
52.085485502201102
 21
-240.6708640446534
 31
0.0
1001
ACAD
1010
0.0
1020
0.0
1030
0.0
  0
LINE
  5
9AA
  8
0
  6
CONTINUOUS
 10
52.983511114308008
 20
-239.77283843254639
 30
0.0
 11
53.881536726414929
 21
-238.8748128204395
 31
0.0
1001
ACAD
1010
0.0
1020
0.0
1030
0.0
  0
LINE
  5
9AB
  8
0
  6
CONTINUOUS
 10
54.779562338521842
 20
-237.97678720833261
 30
0.0
 11
55.677587950628748
 21
-237.07876159622569
 31
0.0
1001
ACAD
1010
0.0
1020
0.0
1030
0.0
  0
LINE
  5
9AC
  8
0
  6
CONTINUOUS
 10
56.575613562735668
 20
-236.18073598411871
 30
0.0
 11
56.786525782204919
 21
-235.9698237646495
 31
0.0
1001
ACAD
1010
0.0
1020
0.0
1030
0.0
  0
LINE
  5
9AD
  8
0
  6
CONTINUOUS
 10
55.947096522219788
 20
-242.19740669727611
 30
0.0
 11
56.575613562735647
 21
-241.56888965676021
 31
0.0
1001
ACAD
1010
0.0
1020
0.0
1030
0.0
  0
ENDSEC
  0
EOF
