  0
SECTION
  2
HEADER
  9
$ACADVER
  1
AC1009
  9
$INSBASE
 10
0.0
 20
0.0
 30
0.0
  9
$EXTMIN
 10
-141.17754486327371
 20
-307.60190381969647
 30
-0.0015258207003583
  9
$EXTMAX
 10
156.17154793003661
 20
9.0792205377808841
 30
0.0000000349246037
  9
$LIMMIN
 10
0.0
 20
0.0
  9
$LIMMAX
 10
12.0
 20
9.0
  9
$ORTHOMODE
 70
     0
  9
$REGENMODE
 70
     1
  9
$FILLMODE
 70
     1
  9
$QTEXTMODE
 70
     0
  9
$MIRRTEXT
 70
     0
  9
$DRAGMODE
 70
     2
  9
$LTSCALE
 40
1.0
  9
$OSMODE
 70
     0
  9
$ATTMODE
 70
     1
  9
$TEXTSIZE
 40
1.5
  9
$TRACEWID
 40
0.05
  9
$TEXTSTYLE
  7
ARIAL
  9
$CLAYER
  8
0
  9
$CELTYPE
  6
CONTINUOUS
  9
$CECOLOR
 62
   256
  9
$DIMSCALE
 40
2.0
  9
$DIMASZ
 40
2.5
  9
$DIMEXO
 40
2.0
  9
$DIMDLI
 40
6.0
  9
$DIMRND
 40
0.0
  9
$DIMDLE
 40
2.0
  9
$DIMEXE
 40
2.0
  9
$DIMTP
 40
0.0
  9
$DIMTM
 40
0.0
  9
$DIMTXT
 40
2.5
  9
$DIMCEN
 40
2.0
  9
$DIMTSZ
 40
0.0
  9
$DIMTOL
 70
     0
  9
$DIMLIM
 70
     0
  9
$DIMTIH
 70
     0
  9
$DIMTOH
 70
     0
  9
$DIMSE1
 70
     0
  9
$DIMSE2
 70
     0
  9
$DIMTAD
 70
     1
  9
$DIMZIN
 70
     0
  9
$DIMBLK
  1
ARCHTICK
  9
$DIMASO
 70
     1
  9
$DIMSHO
 70
     1
  9
$DIMPOST
  1
mm
  9
$DIMAPOST
  1

  9
$DIMALT
 70
     0
  9
$DIMALTD
 70
     2
  9
$DIMALTF
 40
0.0394
  9
$DIMLFAC
 40
1.0
  9
$DIMTOFL
 70
     0
  9
$DIMTVP
 40
0.0
  9
$DIMTIX
 70
     0
  9
$DIMSOXD
 70
     0
  9
$DIMSAH
 70
     0
  9
$DIMBLK1
  1

  9
$DIMBLK2
  1

  9
$DIMSTYLE
  2
1_TO_2
  9
$DIMCLRD
 70
   256
  9
$DIMCLRE
 70
   256
  9
$DIMCLRT
 70
   256
  9
$DIMTFAC
 40
1.0
  9
$DIMGAP
 40
1.0
  9
$LUNITS
 70
     2
  9
$LUPREC
 70
     1
  9
$SKETCHINC
 40
0.1
  9
$FILLETRAD
 40
0.0
  9
$AUNITS
 70
     1
  9
$AUPREC
 70
     4
  9
$MENU
  1
.
  9
$ELEVATION
 40
0.0
  9
$PELEVATION
 40
0.0
  9
$THICKNESS
 40
0.0
  9
$LIMCHECK
 70
     0
  9
$BLIPMODE
 70
     0
  9
$CHAMFERA
 40
0.0
  9
$CHAMFERB
 40
0.0
  9
$SKPOLY
 70
     0
  9
$TDCREATE
 40
2452152.65359294
  9
$TDUPDATE
 40
2455936.5396917942
  9
$TDINDWG
 40
13.7901415972
  9
$TDUSRTIMER
 40
13.7901415972
  9
$USRTIMER
 70
     1
  9
$ANGBASE
 50
0.0
  9
$ANGDIR
 70
     0
  9
$PDMODE
 70
     3
  9
$PDSIZE
 40
0.0
  9
$PLINEWID
 40
0.0
  9
$COORDS
 70
     1
  9
$SPLFRAME
 70
     0
  9
$SPLINETYPE
 70
     6
  9
$SPLINESEGS
 70
     8
  9
$ATTDIA
 70
     0
  9
$ATTREQ
 70
     1
  9
$HANDLING
 70
     1
  9
$HANDSEED
  5
DEB
  9
$SURFTAB1
 70
     6
  9
$SURFTAB2
 70
     6
  9
$SURFTYPE
 70
     6
  9
$SURFU
 70
     6
  9
$SURFV
 70
     6
  9
$UCSNAME
  2

  9
$UCSORG
 10
0.0
 20
0.0
 30
0.0
  9
$UCSXDIR
 10
1.0
 20
0.0
 30
0.0
  9
$UCSYDIR
 10
0.0
 20
1.0
 30
0.0
  9
$PUCSNAME
  2

  9
$PUCSORG
 10
0.0
 20
0.0
 30
0.0
  9
$PUCSXDIR
 10
1.0
 20
0.0
 30
0.0
  9
$PUCSYDIR
 10
0.0
 20
1.0
 30
0.0
  9
$USERI1
 70
     0
  9
$USERI2
 70
     0
  9
$USERI3
 70
     0
  9
$USERI4
 70
     0
  9
$USERI5
 70
     0
  9
$USERR1
 40
0.0
  9
$USERR2
 40
0.0
  9
$USERR3
 40
0.0
  9
$USERR4
 40
0.0
  9
$USERR5
 40
0.0
  9
$WORLDVIEW
 70
     1
  9
$SHADEDGE
 70
     3
  9
$SHADEDIF
 70
    70
  9
$TILEMODE
 70
     1
  9
$MAXACTVP
 70
    48
  9
$PLIMCHECK
 70
     0
  9
$PEXTMIN
 10
0.0
 20
0.0
 30
0.0
  9
$PEXTMAX
 10
0.0
 20
0.0
 30
0.0
  9
$PLIMMIN
 10
0.0
 20
0.0
  9
$PLIMMAX
 10
12.0
 20
9.0
  9
$UNITMODE
 70
     0
  9
$VISRETAIN
 70
     1
  9
$PLINEGEN
 70
     1
  9
$PSLTSCALE
 70
     1
  0
ENDSEC
  0
SECTION
  2
TABLES
  0
TABLE
  2
VPORT
 70
     1
  0
VPORT
  2
*ACTIVE
 70
     0
 10
0.0
 20
0.0
 11
1.0
 21
1.0
 12
7.4970015333814208
 22
-149.2613416409578
 13
0.0
 23
0.0
 14
1.0
 24
1.0
 15
0.5
 25
0.5
 16
0.0
 26
0.0
 36
1.0
 17
0.0
 27
0.0
 37
0.0
 40
318.58501889269269
 41
1.908726178535606
 42
50.0
 43
0.0
 44
0.0
 50
0.0
 51
0.0
 71
     0
 72
 20000
 73
     1
 74
     3
 75
     0
 76
     0
 77
     0
 78
     0
  0
ENDTAB
  0
TABLE
  2
LTYPE
 70
     2
  0
LTYPE
  2
CONTINUOUS
 70
     0
  3
Solid line
 72
    65
 73
     0
 40
0.0
  0
LTYPE
  2
HCAV-20_METR_JAMB_FLSH$0$D
 70
     0
  3
Dashed __ __ __ __ __ __ __ __ __ __ __ __ __ _
 72
    65
 73
     2
 40
19.050000000000001
 49
12.699999999999999
 49
-6.3499999999999988
  0
ENDTAB
  0
TABLE
  2
LAYER
 70
    13
  0
LAYER
  2
0
 70
     0
 62
     7
  6
CONTINUOUS
  0
ENDTAB
  0
TABLE
  2
STYLE
 70
     6
  0
STYLE
  2
STANDARD
 70
     0
 40
0.0
 41
1.0
 50
0.0
 71
     0
 42
1.5
  3
romans.shx
  4

  0
STYLE
  2
ARIAL
 70
     0
 40
0.0
 41
1.0
 50
0.0
 71
     0
 42
1.5
  3
txt
  4

  0
STYLE
  2
HCAV-20_METR_JAMB_FLSH$0$T
 70
     0
 40
0.0
 41
1.0
 50
0.0
 71
     0
 42
2.5
  3
txt
  4

  0
STYLE
  2
HCAV-20_METR_JAMB_FLSH$0$A
 70
     0
 40
0.0
 41
1.0
 50
0.0
 71
     0
 42
1.5
  3
txt
  4

  0
ENDTAB
  0
TABLE
  2
VIEW
 70
     2
  0
VIEW
  2
COMM-04
 70
     1
 40
477.26027331217421
 10
194.21746115522001
 20
180.60494410563541
 41
755.81685306636155
 11
0.0
 21
0.0
 31
1.0
 12
0.0
 22
0.0
 32
0.0
 42
50.0
 43
0.0
 44
0.0
 50
0.0
 71
     0
  0
ENDTAB
  0
TABLE
  2
UCS
 70
     0
  0
ENDTAB
  0
TABLE
  2
APPID
 70
    26
  0
APPID
  2
ACAD
 70
     0
  0
APPID
  2
RAK
 70
     0
  0
APPID
  2
GENIUS_GENOREF_13
 70
     0
  0
APPID
  2
ACAD_PSEXT
 70
     0
  0
APPID
  2
ACAD_EXEMPT_FROM_CAD_STANDARDS
 70
     0
  0
APPID
  2
ACAD_MLEADERVER
 70
     0
  0
APPID
  2
ACAD_DSTYLE_DIMEXT_ENABLED
 70
     0
  0
APPID
  2
ACAD_DSTYLE_DIMEXT_LENGTH
 70
     0
  0
APPID
  2
ACADANNOTATIVE
 70
     0
  0
APPID
  2
ACDBBLOCKREPETAG
 70
     0
  0
APPID
  2
ACDBDYNAMICBLOCKGUID
 70
     0
  0
APPID
  2
GENIUS_GENODEF_13
 70
     0
  0
APPID
  2
GENIUS_GENSCREG_15
 70
     0
  0
APPID
  2
GENIUS_GENOBJ-N-SDF_13
 70
     0
  0
APPID
  2
GENIUS_GENCFG_13
 70
     0
  0
APPID
  2
GENIUS_GENCFG0_13
 70
     0
  0
APPID
  2
ACAECLAYERSTANDARD
 70
     0
  0
APPID
  2
ACCMTRANSPARENCY
 70
     0
  0
APPID
  2
ACADANNOPO
 70
     0
  0
APPID
  2
ADESKUNDERLAYLAYEROVERRIDEDATA
 70
     0
  0
APPID
  2
URBANX
 70
     0
  0
APPID
  2
GRADIENTCOLOR1ACI
 70
     0
  0
APPID
  2
GRADIENTCOLOR2ACI
 70
     0
  0
APPID
  2
ACAD_NAV_VCDISPLAY
 70
     0
  0
APPID
  2
ACAD_DSTYLE_DIMJOGGED_JOGA
 70
     0
  0
APPID
  2
PE_URL
 70
     0
  0
ENDTAB
  0
TABLE
  2
DIMSTYLE
 70
     5
  0
DIMSTYLE
  2
1_TO_2
 70
     0
  3
mm
  4

  5
ARCHTICK
  6

  7

 40
2.0
 41
2.5
 42
2.0
 43
6.0
 44
2.0
 45
0.0
 46
2.0
 47
0.0
 48
0.0
140
2.5
141
2.0
142
0.0
143
0.0394
144
1.0
145
0.0
146
1.0
147
1.0
 71
     0
 72
     0
 73
     0
 74
     0
 75
     0
 76
     0
 77
     1
 78
     0
170
     0
171
     2
172
     0
173
     0
174
     0
175
     0
176
   256
177
   256
178
   256
  0
DIMSTYLE
  2
HCAV-20_METR_JAMB_FLSH$0$1
 70
     0
  3

  4

  5
HCAV-20_METR_JAMB_FLSH$0$_
  6

  7

 40
2.0
 41
2.0
 42
2.0
 43
6.0
 44
1.5
 45
0.0
 46
1.5
 47
0.0
 48
0.0
140
2.0
141
2.0
142
0.0
143
0.0394
144
1.0
145
0.0
146
1.0
147
1.0
 71
     0
 72
     0
 73
     0
 74
     0
 75
     0
 76
     0
 77
     0
 78
     0
170
     0
171
     2
172
     1
173
     0
174
     1
175
     0
176
     0
177
     0
178
     0
  0
ENDTAB
  0
ENDSEC
  0
SECTION
  2
BLOCKS
  0
BLOCK
  8
0
  2
$MODEL_SPACE
 70
     2
 10
0.0
 20
0.0
 30
0.0
  3
$MODEL_SPACE
  1

  0
ENDBLK
  5
C
  8
0
  0
BLOCK
 67
     1
  8
0
  2
$PAPER_SPACE
 70
     0
 10
0.0
 20
0.0
 30
0.0
  3
$PAPER_SPACE
  1

  0
ENDBLK
  5
A05
 67
     1
  8
0
  0
BLOCK
  8
0
  2
_ARCHTICK
 70
     0
 10
0.0
 20
0.0
 30
0.0
  3
_ARCHTICK
  1

  0
POLYLINE
  5
154
  8
0
  6
BYBLOCK
 62
     0
 66
     1
 10
0.0
 20
0.0
 30
0.0
 40
0.15
 41
0.15
  0
VERTEX
  5
D1B
  8
0
  6
BYBLOCK
 62
     0
 10
-0.5
 20
-0.5
 30
0.0
  0
VERTEX
  5
D1C
  8
0
  6
BYBLOCK
 62
     0
 10
0.5
 20
0.5
 30
0.0
  0
SEQEND
  5
D1D
  8
0
  6
BYBLOCK
 62
     0
  0
ENDBLK
  5
156
  8
0
  0
BLOCK
  8
0
  2
HCAV-20_METR_JAMB_FLSH$0$_
 70
     0
 10
0.0
 20
0.0
 30
0.0
  3
HCAV-20_METR_JAMB_FLSH$0$_
  1

  0
POLYLINE
  5
984
  8
0
  6
BYBLOCK
 62
     0
 66
     1
 10
0.0
 20
0.0
 30
0.0
 40
0.15
 41
0.15
  0
VERTEX
  5
D3F
  8
0
  6
BYBLOCK
 62
     0
 10
-0.5
 20
-0.5
 30
0.0
  0
VERTEX
  5
D40
  8
0
  6
BYBLOCK
 62
     0
 10
0.5
 20
0.5
 30
0.0
  0
SEQEND
  5
D41
  8
0
  6
BYBLOCK
 62
     0
  0
ENDBLK
  5
985
  8
0
  0
BLOCK
  8
0
  2
*U8
 70
     1
 10
0.0
 20
0.0
 30
0.0
  3
*U8
  1

  0
SOLID
  5
D99
  8
0
 10
-107.5936986987069
 20
-132.03476934867419
 30
0.0
 11
-107.9999999999998
 21
-127.99999999999859
 31
0.0
 12
-106.30708708839551
 22
-131.68490031319141
 32
0.0
 13
-106.30708708839551
 23
-131.68490031319141
 33
0.0
  0
POLYLINE
  5
D9A
  8
0
 66
     1
 10
0.0
 20
0.0
 30
0.0
  0
VERTEX
  5
D9B
  8
0
 10
-106.9503928935512
 20
-131.85983483093281
 30
0.0
  0
VERTEX
  5
D9C
  8
0
 10
-90.299999999999983
 20
-193.09014286183259
 30
0.0
  0
VERTEX
  5
D9D
  8
0
 10
-86.299999999999997
 20
-193.09014286183259
 30
0.0
  0
SEQEND
  5
D9E
  8
0
  0
ENDBLK
  5
DA0
  8
0
  0
BLOCK
  8
0
  2
*U9
 70
     1
 10
0.0
 20
0.0
 30
0.0
  3
*U9
  1

  0
TEXT
  5
DA2
  8
0
  6
CONTINUOUS
 10
-84.578308321964528
 20
-194.38004736387899
 30
0.0
 40
4.0
  1
Cavity batten
  7
HCAV-20_METR_JAMB_FLSH$0$A
  0
ENDBLK
  5
DA4
  8
0
  0
BLOCK
  8
0
  2
*U10
 70
     1
 10
0.0
 20
0.0
 30
0.0
  3
*U10
  1

  0
SOLID
  5
DA6
  8
0
 10
-12.93987339138253
 20
-162.92282215696861
 30
0.0
 11
-10.128902903602579
 21
-159.99999999999861
 31
0.0
 12
-11.83998671951227
 22
-163.6764978742502
 32
0.0
 13
-11.83998671951227
 23
-163.6764978742502
 33
0.0
  0
POLYLINE
  5
DA7
  8
0
 66
     1
 10
0.0
 20
0.0
 30
0.0
  0
VERTEX
  5
DA8
  8
0
 10
-12.389930055447399
 20
-163.29966001560939
 30
0.0
  0
VERTEX
  5
DA9
  8
0
 10
-51.620673254967983
 20
-220.55156635053891
 30
0.0
  0
VERTEX
  5
DAA
  8
0
 10
-55.620673254967983
 20
-220.55156635053891
 30
0.0
  0
SEQEND
  5
DAB
  8
0
  0
ENDBLK
  5
DAD
  8
0
  0
BLOCK
  8
0
  2
*U11
 70
     1
 10
0.0
 20
0.0
 30
0.0
  3
*U11
  1

  0
TEXT
  5
DAF
  8
0
  6
CONTINUOUS
 10
-116.4037564746132
 20
-208.4713025942861
 30
0.0
 40
4.0
  1
Horizontal Steel & Tube
  7
HCAV-20_METR_JAMB_FLSH$0$A
  0
TEXT
  5
DB0
  8
0
  6
CONTINUOUS
 10
-98.526539557832919
 20
-215.2089105979241
 30
0.0
 40
4.0
  1
Custom Orb wall
  7
HCAV-20_METR_JAMB_FLSH$0$A
  0
TEXT
  5
DB1
  8
0
  6
CONTINUOUS
 10
-78.062692354558706
 20
-221.8755772645907
 30
0.0
 40
4.0
  1
cladding
  7
HCAV-20_METR_JAMB_FLSH$0$A
  0
ENDBLK
  5
DB3
  8
0
  0
BLOCK
  8
0
  2
*U12
 70
     1
 10
0.0
 20
0.0
 30
0.0
  3
*U12
  1

  0
SOLID
  5
DB5
  8
0
 10
24.003599564385141
 20
-163.19568917598241
 30
0.0
 11
26.50000000000135
 21
-159.99999999999861
 31
0.0
 12
25.174979861223989
 22
-163.83259260504801
 32
0.0
 13
25.174979861223989
 23
-163.83259260504801
 33
0.0
  0
POLYLINE
  5
DB6
  8
0
 66
     1
 10
0.0
 20
0.0
 30
0.0
  0
VERTEX
  5
DB7
  8
0
 10
24.589289712804572
 20
-163.51414089051511
 30
0.0
  0
VERTEX
  5
DB8
  8
0
 10
-29.887150875365251
 20
-263.70614211825858
 30
0.0
  0
VERTEX
  5
DB9
  8
0
 10
-33.887150875365251
 20
-263.70614211825858
 30
0.0
  0
SEQEND
  5
DBA
  8
0
  0
ENDBLK
  5
DBC
  8
0
  0
BLOCK
  8
0
  2
*U13
 70
     1
 10
0.0
 20
0.0
 30
0.0
  3
*U13
  1

  0
TEXT
  5
DBE
  8
0
  6
CONTINUOUS
 10
-85.657955786688575
 20
-266.1065513952027
 30
0.0
 40
4.0
  1
Profiled foam sealer
  7
HCAV-20_METR_JAMB_FLSH$0$A
  0
ENDBLK
  5
DC0
  8
0
  0
BLOCK
  8
0
  2
*U14
 70
     1
 10
0.0
 20
0.0
 30
0.0
  3
*U14
  1

  0
SOLID
  5
DC2
  8
0
 10
106.185268475721
 20
-161.60827672971371
 30
0.0
 11
102.9105006606198
 21
-163.99999999999861
 31
0.0
 12
105.2325599656231
 22
-160.6754722096963
 32
0.0
 13
105.2325599656231
 23
-160.6754722096963
 33
0.0
  0
POLYLINE
  5
DC3
  8
0
 66
     1
 10
0.0
 20
0.0
 30
0.0
  0
VERTEX
  5
DC4
  8
0
 10
105.7089142206721
 20
-161.14187446970499
 30
0.0
  0
VERTEX
  5
DC5
  8
0
 10
127.23750752381279
 20
-139.15390849163029
 30
0.0
  0
VERTEX
  5
DC6
  8
0
 10
131.23750752381281
 20
-139.15390849163029
 30
0.0
  0
SEQEND
  5
DC7
  8
0
  0
ENDBLK
  5
DC9
  8
0
  0
BLOCK
  8
0
  2
*U15
 70
     1
 10
0.0
 20
0.0
 30
0.0
  3
*U15
  1

  0
TEXT
  5
DCB
  8
0
  6
CONTINUOUS
 10
132.82277355382649
 20
-140.65390849163029
 30
0.0
 40
4.0
  1
Metal
  7
HCAV-20_METR_JAMB_FLSH$0$A
  0
TEXT
  5
DCC
  8
0
  6
CONTINUOUS
 10
132.8691582741539
 20
-147.32057515829689
 30
0.0
 40
4.0
  1
meterbox
  7
HCAV-20_METR_JAMB_FLSH$0$A
  0
ENDBLK
  5
DCE
  8
0
  0
BLOCK
  8
0
  2
*U16
 70
     1
 10
0.0
 20
0.0
 30
0.0
  3
*U16
  1

  0
SOLID
  5
DD0
  8
0
 10
43.306171458055161
 20
-167.68447951750611
 30
0.0
 11
45.000000000001357
 21
-163.99999999999861
 31
0.0
 12
44.592696087622272
 22
-168.03466825989369
 32
0.0
 13
44.592696087622272
 23
-168.03466825989369
 33
0.0
  0
POLYLINE
  5
DD1
  8
0
 66
     1
 10
0.0
 20
0.0
 30
0.0
  0
VERTEX
  5
DD2
  8
0
 10
43.949433772838717
 20
-167.85957388869991
 30
0.0
  0
VERTEX
  5
DD3
  8
0
 10
19.274112181902861
 20
-258.5118568627081
 30
0.0
  0
VERTEX
  5
DD4
  8
0
 10
23.274112181902861
 20
-258.5118568627081
 30
0.0
  0
SEQEND
  5
DD5
  8
0
  0
ENDBLK
  5
DD7
  8
0
  0
BLOCK
  8
0
  2
*U17
 70
     1
 10
0.0
 20
0.0
 30
0.0
  3
*U17
  1

  0
TEXT
  5
DD9
  8
0
  6
CONTINUOUS
 10
25.0230889895427
 20
-260.08006968671901
 30
0.0
 40
4.0
  1
Seal and rivet 40x40
  7
HCAV-20_METR_JAMB_FLSH$0$A
  0
TEXT
  5
DDA
  8
0
  6
CONTINUOUS
 10
24.995803859938341
 20
-266.81494917739661
 30
0.0
 40
4.0
  1
Colorsteel angle to all
  7
HCAV-20_METR_JAMB_FLSH$0$A
  0
TEXT
  5
DDB
  8
0
  6
CONTINUOUS
 10
25.102215865395362
 20
-273.54982866807421
 30
0.0
 40
4.0
  1
sides of box
  7
HCAV-20_METR_JAMB_FLSH$0$A
  0
ENDBLK
  5
DDD
  8
0
  0
BLOCK
  8
0
  2
*U18
 70
     1
 10
0.0
 20
0.0
 30
0.0
  3
*U18
  1

  0
TEXT
  5
DDF
  8
0
  6
CONTINUOUS
 10
-140.97474731500199
 20
-292.97234992817448
 30
0.0
 40
4.0
  1
%%UNOTES:
  7
HCAV-20_METR_JAMB_FLSH$0$T
  0
TEXT
  5
DE0
  8
0
  6
CONTINUOUS
 10
-141.16847173519301
 20
-299.67312300684671
 30
0.0
 40
4.0
  1
1.     Cavity battens containing copper must be separated from steel cladding by building paper, building
  7
HCAV-20_METR_JAMB_FLSH$0$T
  0
TEXT
  5
DE1
  8
0
  6
CONTINUOUS
 10
-128.57638442277829
 20
-306.40800249752431
 30
0.0
 40
4.0
  1
wrap, DPC/PVC strips or by painting, otherwise use uPVC Cavibat 
  7
HCAV-20_METR_JAMB_FLSH$0$T
  0
TEXT
  5
DE2
  8
0
  6
CONTINUOUS
 10
37.179140815966569
 20
-303.94133583085761
 30
0.0
 40
2.7999999999999989
  1
TM
  7
HCAV-20_METR_JAMB_FLSH$0$T
  0
TEXT
  5
DE3
  8
0
  6
CONTINUOUS
 10
37.270818851437241
 20
-304.87466916419089
 30
0.0
 40
2.7999999999999989
  1

  7
HCAV-20_METR_JAMB_FLSH$0$T
  0
TEXT
  5
DE4
  8
0
  6
CONTINUOUS
 10
42.718022125652787
 20
-306.40804249752432
 30
0.0
 40
4.0000799999999987
  1
.
  7
HCAV-20_METR_JAMB_FLSH$0$T
  0
ENDBLK
  5
DE6
  8
0
  0
ENDSEC
  0
SECTION
  2
ENTITIES
  0
POLYLINE
  5
9AE
  8
0
 66
     1
 10
0.0
 20
0.0
 30
0.0
 70
     1
  0
VERTEX
  5
D42
  8
0
 10
-108.9999999999995
 20
-13.99999999999863
 30
0.0
  0
VERTEX
  5
D43
  8
0
 10
-108.9999999999995
 20
-113.99999999999859
 30
0.0
  0
VERTEX
  5
D44
  8
0
 10
-58.999999999999559
 20
-113.99999999999859
 30
0.0
  0
VERTEX
  5
D45
  8
0
 10
-58.999999999999552
 20
-13.999999999998639
 30
0.0
  0
SEQEND
  5
D46
  8
0
  0
POLYLINE
  5
9AF
  8
0
 66
     1
 10
0.0
 20
0.0
 30
0.0
 70
     1
 40
0.5
 41
0.5
  0
VERTEX
  5
D47
  8
0
 10
-108.7499999999995
 20
-14.24999999999863
 30
0.0
  0
VERTEX
  5
D48
  8
0
 10
-108.7499999999995
 20
-113.74999999999859
 30
0.0
  0
VERTEX
  5
D49
  8
0
 10
-59.249999999999559
 20
-113.74999999999859
 30
0.0
  0
VERTEX
  5
D4A
  8
0
 10
-59.249999999999538
 20
-14.24999999999865
 30
0.0
  0
SEQEND
  5
D4B
  8
0
  0
LINE
  5
9B0
  8
0
 10
-108.9999999999995
 20
-13.99999999999863
 30
0.0
 11
-58.999999999999559
 21
-113.99999999999859
 31
0.0
  0
LINE
  5
9B1
  8
0
 10
-58.999999999999552
 20
-13.999999999998639
 30
0.0
 11
-108.9999999999995
 21
-113.99999999999859
 31
0.0
  0
POLYLINE
  5
9B2
  8
0
 66
     1
 10
0.0
 20
0.0
 30
0.0
 70
     1
  0
VERTEX
  5
D4C
  8
0
 10
-8.9999999999995453
 20
-13.99999999999863
 30
0.0
  0
VERTEX
  5
D4D
  8
0
 10
-8.999999999999563
 20
-113.99999999999859
 30
0.0
  0
VERTEX
  5
D4E
  8
0
 10
41.000000000000433
 20
-113.99999999999859
 30
0.0
  0
VERTEX
  5
D4F
  8
0
 10
41.000000000000448
 20
-13.999999999998639
 30
0.0
  0
SEQEND
  5
D50
  8
0
  0
POLYLINE
  5
9B3
  8
0
 66
     1
 10
0.0
 20
0.0
 30
0.0
 70
     1
 40
0.5
 41
0.5
  0
VERTEX
  5
D51
  8
0
 10
-8.7499999999995453
 20
-14.24999999999863
 30
0.0
  0
VERTEX
  5
D52
  8
0
 10
-8.749999999999563
 20
-113.74999999999859
 30
0.0
  0
VERTEX
  5
D53
  8
0
 10
40.750000000000441
 20
-113.74999999999859
 30
0.0
  0
VERTEX
  5
D54
  8
0
 10
40.750000000000448
 20
-14.24999999999865
 30
0.0
  0
SEQEND
  5
D55
  8
0
  0
LINE
  5
9B4
  8
0
 10
-8.9999999999995453
 20
-13.99999999999863
 30
0.0
 11
41.000000000000433
 21
-113.99999999999859
 31
0.0
  0
LINE
  5
9B5
  8
0
 10
41.000000000000448
 20
-13.999999999998639
 30
0.0
 11
-8.999999999999563
 21
-113.99999999999859
 31
0.0
  0
POLYLINE
  5
9B6
  8
0
 66
     1
 10
0.0
 20
0.0
 30
0.0
 70
     1
  0
VERTEX
  5
D56
  8
0
 10
-108.9999999999998
 20
-137.99999999999861
 30
0.0
  0
VERTEX
  5
D57
  8
0
 10
-58.999999999999801
 20
-137.99999999999861
 30
0.0
  0
VERTEX
  5
D58
  8
0
 10
-58.999999999999801
 20
-117.99999999999859
 30
0.0
  0
VERTEX
  5
D59
  8
0
 10
-108.9999999999998
 20
-117.99999999999859
 30
0.0
  0
SEQEND
  5
D5A
  8
0
  0
POLYLINE
  5
9B7
  8
0
 66
     1
 10
0.0
 20
0.0
 30
0.0
 70
     1
 40
0.5
 41
0.5
  0
VERTEX
  5
D5B
  8
0
 10
-108.7499999999998
 20
-137.74999999999861
 30
0.0
  0
VERTEX
  5
D5C
  8
0
 10
-59.249999999999801
 20
-137.74999999999849
 30
0.0
  0
VERTEX
  5
D5D
  8
0
 10
-59.249999999999801
 20
-118.24999999999859
 30
0.0
  0
VERTEX
  5
D5E
  8
0
 10
-108.7499999999998
 20
-118.24999999999859
 30
0.0
  0
SEQEND
  5
D5F
  8
0
  0
LINE
  5
9B8
  8
0
 10
-108.9999999999998
 20
-117.99999999999859
 30
0.0
 11
-58.999999999999801
 21
-137.99999999999861
 31
0.0
  0
LINE
  5
9B9
  8
0
 10
-58.999999999999801
 20
-117.99999999999859
 30
0.0
 11
-108.9999999999998
 21
-137.99999999999861
 31
0.0
  0
POLYLINE
  5
9BA
  8
0
 66
     1
 10
0.0
 20
0.0
 30
0.0
 70
   128
  0
VERTEX
  5
D60
  8
0
 10
43.000000000000462
 20
-9.9999999999950262
 30
0.0
  0
VERTEX
  5
D61
  8
0
 10
43.000000000000419
 20
-115.99999999999859
 30
0.0
  0
VERTEX
  5
D62
  8
0
 10
-132.8249690755276
 20
-115.99999999999859
 30
0.0
  0
SEQEND
  5
D63
  8
0
  0
POLYLINE
  5
9BB
  8
0
 66
     1
 10
0.0
 20
0.0
 30
0.0
  0
VERTEX
  5
D64
  8
0
 10
124.9543428522754
 20
-1.9999999999986591
 30
0.0
  0
VERTEX
  5
D65
  8
0
 10
-132.8249690755276
 20
-1.999999999998632
 30
0.0
  0
SEQEND
  5
D66
  8
0
  0
POLYLINE
  5
9BC
  8
0
 66
     1
 10
0.0
 20
0.0
 30
0.0
  0
VERTEX
  5
D67
  8
0
 10
-132.8249690755276
 20
-9.9999999999985505
 30
0.0
  0
VERTEX
  5
D68
  8
0
 10
124.9543428522754
 20
-9.9999999999951452
 30
0.0
  0
SEQEND
  5
D69
  8
0
  0
POLYLINE
  5
9BD
  8
0
 66
     1
 10
0.0
 20
0.0
 30
0.0
 70
   128
  0
VERTEX
  5
D6A
  8
0
 10
124.9543428522754
 20
-245.49999999999869
 30
0.0
  0
VERTEX
  5
D6B
  8
0
 10
50.000000000000227
 20
-245.49999999999861
 30
0.0
  0
VERTEX
  5
D6C
  8
0
 10
50.000000000000227
 20
-45.499999999998558
 30
0.0
  0
VERTEX
  5
D6D
  8
0
 10
124.9543428522754
 20
-45.499999999998622
 30
0.0
  0
SEQEND
  5
D6E
  8
0
  0
LINE
  5
9BE
  8
0
  6
HCAV-20_METR_JAMB_FLSH$0$D
 10
49.999999999999091
 20
-163.99999999999861
 30
0.0
 11
124.9543428522754
 21
-163.99999999999861
 31
0.0
  0
LINE
  5
9BF
  8
0
  6
HCAV-20_METR_JAMB_FLSH$0$D
 10
49.999999999999091
 20
-123.99999999999859
 30
0.0
 11
124.9543428522754
 21
-123.99999999999859
 31
0.0
  0
POLYLINE
  5
9C0
  8
0
 66
     1
 10
0.0
 20
0.0
 30
0.0
 70
   128
 40
0.5
 41
0.5
  0
VERTEX
  5
D6F
  8
0
 10
48.000000000001307
 20
-123.99999999999859
 30
0.0
  0
VERTEX
  5
D70
  8
0
 10
48.000000000001329
 20
-160.99999999999861
 30
0.0
 42
-0.4142135623730953
  0
VERTEX
  5
D71
  8
0
 10
45.000000000001343
 20
-163.99999999999861
 30
0.0
  0
VERTEX
  5
D72
  8
0
 10
8.0000000000013642
 20
-163.99999999999861
 30
0.0
 42
-0.9999999999999998
  0
VERTEX
  5
D73
  8
0
 10
8.0000000000013642
 20
-161.99999999999861
 30
0.0
  0
VERTEX
  5
D74
  8
0
 10
12.000000000001361
 20
-161.99999999999861
 30
0.0
  0
SEQEND
  5
D75
  8
0
  0
POLYLINE
  5
9C1
  8
0
 66
     1
 10
0.0
 20
0.0
 30
0.0
 70
   128
  0
VERTEX
  5
D76
  8
0
 10
-132.8249690755276
 20
-139.99999999999861
 30
0.0
  0
VERTEX
  5
D77
  8
0
 10
46.00000000000022
 20
-139.99999999999861
 30
0.0
  0
VERTEX
  5
D78
  8
0
 10
46.000000000000227
 20
-159.99999999999861
 30
0.0
  0
VERTEX
  5
D79
  8
0
 10
-132.8249690755276
 20
-159.99999999999861
 30
0.0
  0
SEQEND
  5
D7A
  8
0
  0
LINE
  5
9C2
  8
0
 10
-108.9999999999998
 20
-138.99999999999861
 30
0.0
 11
-58.999999999999567
 21
-138.99999999999861
 31
0.0
  0
LINE
  5
9C3
  8
0
 10
-8.9999999999998153
 20
-138.99999999999861
 30
0.0
 11
41.000000000000192
 21
-138.99999999999861
 31
0.0
  0
POLYLINE
  5
9C5
  8
0
  6
CONTINUOUS
 66
     1
 10
0.0
 20
0.0
 30
0.0
 70
   129
  0
VERTEX
  5
D7B
  8
0
  6
CONTINUOUS
 10
17.000000000001361
 20
-139.99999999999861
 30
0.0
  0
VERTEX
  5
D7C
  8
0
  6
CONTINUOUS
 10
42.000000000001357
 20
-139.99999999999861
 30
0.0
  0
VERTEX
  5
D7D
  8
0
  6
CONTINUOUS
 10
42.000000000001357
 20
-163.99999999999861
 30
0.0
  0
VERTEX
  5
D7E
  8
0
  6
CONTINUOUS
 10
17.000000000001361
 20
-163.99999999999861
 30
0.0
  0
SEQEND
  5
D7F
  8
0
  6
CONTINUOUS
  0
POLYLINE
  5
9C7
  8
0
  6
CONTINUOUS
 66
     1
 10
0.0
 20
0.0
 30
0.0
 70
   128
  0
VERTEX
  5
D80
  8
0
  6
CONTINUOUS
 10
-132.8249690755276
 20
7.7345822476752337
 30
0.0
  0
VERTEX
  5
D81
  8
0
  6
CONTINUOUS
 10
-132.8249690755276
 20
-82.042378574056102
 30
0.0
  0
VERTEX
  5
D82
  8
0
  6
CONTINUOUS
 10
-135.57244649498179
 20
-83.042378574055988
 30
0.0
  0
VERTEX
  5
D83
  8
0
  6
CONTINUOUS
 10
-130.07749165607271
 20
-85.042378574055974
 30
0.0
  0
VERTEX
  5
D84
  8
0
  6
CONTINUOUS
 10
-132.8249690755276
 20
-86.042378574056102
 30
0.0
  0
VERTEX
  5
D85
  8
0
  6
CONTINUOUS
 10
-132.8249690755276
 20
-175.81933939578701
 30
0.0
  0
SEQEND
  5
D86
  8
0
  6
CONTINUOUS
  0
POLYLINE
  5
9C8
  8
0
  6
CONTINUOUS
 66
     1
 10
0.0
 20
0.0
 30
0.0
 70
   128
  0
VERTEX
  5
D87
  8
0
  6
CONTINUOUS
 10
124.9543428522754
 20
9.0695560493592211
 30
0.0
  0
VERTEX
  5
D88
  8
0
  6
CONTINUOUS
 10
124.9543428522754
 20
-120.82398869058579
 30
0.0
  0
VERTEX
  5
D89
  8
0
  6
CONTINUOUS
 10
122.2068654328212
 20
-121.82398869058569
 30
0.0
  0
VERTEX
  5
D8A
  8
0
  6
CONTINUOUS
 10
127.7018202717302
 20
-123.82398869058569
 30
0.0
  0
VERTEX
  5
D8B
  8
0
  6
CONTINUOUS
 10
124.9543428522754
 20
-124.82398869058579
 30
0.0
  0
VERTEX
  5
D8C
  8
0
  6
CONTINUOUS
 10
124.9543428522754
 20
-264.59507077160328
 30
0.0
  0
SEQEND
  5
D8D
  8
0
  6
CONTINUOUS
  0
POLYLINE
  5
9C9
  8
0
 66
     1
 10
0.0
 20
0.0
 30
0.0
 70
     1
  0
VERTEX
  5
D8E
  8
0
 10
-8.999999999999801
 20
-137.99999999999861
 30
0.0
  0
VERTEX
  5
D8F
  8
0
 10
41.000000000000199
 20
-137.99999999999861
 30
0.0
  0
VERTEX
  5
D90
  8
0
 10
41.000000000000199
 20
-117.99999999999859
 30
0.0
  0
VERTEX
  5
D91
  8
0
 10
-8.999999999999801
 20
-117.99999999999859
 30
0.0
  0
SEQEND
  5
D92
  8
0
  0
POLYLINE
  5
9CA
  8
0
 66
     1
 10
0.0
 20
0.0
 30
0.0
 70
     1
 40
0.5
 41
0.5
  0
VERTEX
  5
D93
  8
0
 10
-8.749999999999801
 20
-137.74999999999861
 30
0.0
  0
VERTEX
  5
D94
  8
0
 10
40.750000000000192
 20
-137.74999999999849
 30
0.0
  0
VERTEX
  5
D95
  8
0
 10
40.750000000000192
 20
-118.24999999999859
 30
0.0
  0
VERTEX
  5
D96
  8
0
 10
-8.749999999999801
 20
-118.24999999999859
 30
0.0
  0
SEQEND
  5
D97
  8
0
  0
LINE
  5
9CB
  8
0
 10
41.000000000000199
 20
-117.99999999999859
 30
0.0
 11
-8.999999999999801
 21
-137.99999999999861
 31
0.0
  0
LINE
  5
9CC
  8
0
 10
-8.999999999999801
 20
-117.99999999999871
 30
0.0
 11
41.000000000000199
 21
-137.99999999999861
 31
0.0
  0
INSERT
  5
9CD
  8
0
  6
CONTINUOUS
  2
*U8
 10
0.0
 20
0.0
 30
0.0
1001
ACAD
1000
DSTYLE
1002
{
1070
   147
1040
1.0
1070
    77
1070
     0
1002
}
  0
INSERT
  5
9CE
  8
0
  6
CONTINUOUS
  2
*U9
 10
0.0
 20
0.0
 30
0.0
  0
INSERT
  5
9CF
  8
0
  6
CONTINUOUS
  2
*U10
 10
0.0
 20
0.0
 30
0.0
1001
ACAD
1000
DSTYLE
1002
{
1070
   147
1040
1.0
1070
    77
1070
     0
1002
}
  0
INSERT
  5
9D0
  8
0
  6
CONTINUOUS
  2
*U11
 10
0.0
 20
0.0
 30
0.0
  0
INSERT
  5
9D1
  8
0
  6
CONTINUOUS
  2
*U12
 10
0.0
 20
0.0
 30
0.0
1001
ACAD
1000
DSTYLE
1002
{
1070
   147
1040
1.0
1070
    77
1070
     0
1002
}
  0
INSERT
  5
9D2
  8
0
  6
CONTINUOUS
  2
*U13
 10
0.0
 20
0.0
 30
0.0
  0
INSERT
  5
9D3
  8
0
  6
CONTINUOUS
  2
*U14
 10
0.0
 20
0.0
 30
0.0
1001
ACAD
1000
DSTYLE
1002
{
1070
   147
1040
1.0
1070
    77
1070
     0
1002
}
  0
INSERT
  5
9D4
  8
0
  6
CONTINUOUS
  2
*U15
 10
0.0
 20
0.0
 30
0.0
  0
INSERT
  5
9D5
  8
0
  6
CONTINUOUS
  2
*U16
 10
0.0
 20
0.0
 30
0.0
1001
ACAD
1000
DSTYLE
1002
{
1070
   147
1040
1.0
1070
    77
1070
     0
1002
}
  0
INSERT
  5
9D6
  8
0
  6
CONTINUOUS
  2
*U17
 10
0.0
 20
0.0
 30
0.0
  0
INSERT
  5
9D7
  8
0
  6
CONTINUOUS
  2
*U18
 10
0.0
 20
0.0
 30
0.0
  0
LINE
  5
9D8
  8
0
 10
41.000000000000448
 20
-13.999999999998639
 30
0.0
 11
-132.8249690755276
 21
-13.99999999999862
 31
0.0
  0
LINE
  5
9D9
  8
0
 10
41.000000000000433
 20
-113.99999999999859
 30
0.0
 11
-132.8249690755276
 21
-113.99999999999859
 31
0.0
  0
LINE
  5
9DA
  8
0
 10
-83.157194263846122
 20
-148.22779445791861
 30
0.0
 11
-83.157194263846122
 21
-146.67779445791851
 31
0.0
  0
LINE
  5
9DB
  8
0
 10
-84.657194263846122
 20
-148.22779445791861
 30
0.0
 11
-84.657194263846122
 21
-146.67779445791851
 31
0.0
  0
LINE
  5
9DC
  8
0
 10
-89.376819263844027
 20
-143.08779445791919
 30
0.0
 11
-89.376819263847665
 21
-144.11279445791979
 31
0.0
  0
LINE
  5
9DD
  8
0
 10
-78.437569263848218
 20
-143.08779445791919
 30
0.0
 11
-78.437569263848218
 21
-144.11279445791891
 31
0.0
  0
LINE
  5
9DE
  8
0
 10
-89.376819263847665
 20
-144.11279445791979
 30
0.0
 11
-88.151819263845482
 21
-144.46279445791919
 31
0.0
  0
LINE
  5
9DF
  8
0
 10
-83.157194263846122
 20
-148.22779445791861
 30
0.0
 11
-80.723725513844784
 21
-148.2277944579196
 31
0.0
  0
ARC
  5
9E0
  8
0
 10
-83.907194263846108
 20
-140.64810695791991
 30
0.0
 40
7.5796874999999977
 50
275.67863346827329
 51
286.26020470824
  0
ARC
  5
9E1
  8
0
 10
-87.090663013847461
 20
-146.2191772704204
 30
0.0
 40
2.0086171874996772
 50
238.10920819816641
 51
301.89079180183359
  0
ARC
  5
9E2
  8
0
 10
-80.723725513844784
 20
-146.21917727041949
 30
0.0
 40
2.0086171874996772
 50
238.10920819816641
 51
301.89079180183359
  0
ARC
  5
9E3
  8
0
 10
-83.907194263846108
 20
-140.64810695791991
 30
0.0
 40
7.5796874999999977
 50
253.73979529176
 51
264.3213665317266
  0
LINE
  5
9E4
  8
0
 10
-87.090663013847461
 20
-148.2277944579196
 30
0.0
 11
-84.657194263846122
 21
-148.22779445791861
 31
0.0
  0
LINE
  5
9E5
  8
0
 10
-89.376819263844027
 20
-143.08779445791919
 30
0.0
 11
-78.437569263848218
 21
-143.08779445791919
 31
0.0
  0
LINE
  5
9E6
  8
0
 10
-79.662569263850401
 20
-144.46279445791919
 30
0.0
 11
-79.662569263846763
 21
-147.924606957919
 31
0.0
  0
LINE
  5
9E7
  8
0
 10
-88.151819263845482
 20
-144.46279445791919
 30
0.0
 11
-88.151819263845482
 21
-147.924606957919
 31
0.0
  0
LINE
  5
9E8
  8
0
 10
-86.029506763845802
 20
-144.46279445791919
 30
0.0
 11
-86.029506763845802
 21
-147.924606957919
 31
0.0
  0
LINE
  5
9E9
  8
0
 10
-81.784881763850066
 20
-144.46279445791919
 30
0.0
 11
-81.784881763850066
 21
-147.924606957919
 31
0.0
  0
LINE
  5
9EA
  8
0
 10
-82.407194263846137
 20
-98.037133661174281
 30
0.0
 11
-85.407194263846122
 21
-98.840981238466156
 31
0.0
  0
LINE
  5
9EB
  8
0
 10
-83.907194263842484
 20
-89.323832535683323
 30
0.0
 11
-85.407194263846122
 21
-92.323832535684232
 31
0.0
  0
LINE
  5
9EC
  8
0
 10
-83.907194263842484
 20
-89.323832535683323
 30
0.0
 11
-82.407194263846137
 21
-92.323832535684232
 31
0.0
  0
LINE
  5
9ED
  8
0
 10
-82.407194263846137
 20
-143.08779445791919
 30
0.0
 11
-82.407194263846137
 21
-92.323832535695601
 31
0.0
  0
LINE
  5
9EE
  8
0
 10
-85.407194263846122
 20
-143.08779445791919
 30
0.0
 11
-85.407194263846122
 21
-92.323832535684232
 31
0.0
  0
LINE
  5
9EF
  8
0
 10
-84.657194263846122
 20
-146.67779445791851
 30
0.0
 11
-83.157194263846122
 21
-146.67779445791851
 31
0.0
  0
LINE
  5
9F0
  8
0
 10
-82.407194263846137
 20
-101.25252397034591
 30
0.0
 11
-85.407194263842484
 21
-102.0563715476387
 31
0.0
  0
LINE
  5
9F1
  8
0
 10
-82.407194263846137
 20
-110.8986948978649
 30
0.0
 11
-85.407194263846122
 21
-111.7025424751577
 31
0.0
  0
LINE
  5
9F2
  8
0
 10
-82.407194263846137
 20
-114.114085207038
 30
0.0
 11
-85.407194263846122
 21
-114.9179327843308
 31
0.0
  0
LINE
  5
9F3
  8
0
 10
-82.407194263846137
 20
-117.32947551621101
 30
0.0
 11
-85.407194263846122
 21
-118.1333230935038
 31
0.0
  0
LINE
  5
9F4
  8
0
 10
-82.407194263846137
 20
-120.54486582538399
 30
0.0
 11
-85.407194263846122
 21
-121.34871340267679
 31
0.0
  0
LINE
  5
9F5
  8
0
 10
-82.407194263842484
 20
-123.7602561345561
 30
0.0
 11
-85.407194263846122
 21
-124.5641037118498
 31
0.0
  0
LINE
  5
9F6
  8
0
 10
-82.407194263846137
 20
-126.97564644373
 30
0.0
 11
-85.407194263846122
 21
-127.7794940210228
 31
0.0
  0
LINE
  5
9F7
  8
0
 10
-82.407194263846137
 20
-130.19103675290211
 30
0.0
 11
-85.407194263846122
 21
-130.9948843301959
 31
0.0
  0
LINE
  5
9F8
  8
0
 10
-82.407194263846137
 20
-133.40642706207609
 30
0.0
 11
-85.407194263846122
 21
-134.21027463936889
 31
0.0
  0
LINE
  5
9F9
  8
0
 10
-82.407194263846137
 20
-136.6218173712482
 30
0.0
 11
-85.407194263846122
 21
-137.42566494854191
 31
0.0
  0
LINE
  5
9FA
  8
0
 10
-82.407194263846137
 20
-139.83720768042119
 30
0.0
 11
-85.407194263846122
 21
-140.6410552577149
 31
0.0
  0
LINE
  5
9FB
  8
0
 10
-82.407194263842484
 20
-104.46791427951889
 30
0.0
 11
-85.407194263846122
 21
-105.27176185681169
 31
0.0
  0
LINE
  5
9FC
  8
0
 10
-82.407194263846137
 20
-107.6833045886919
 30
0.0
 11
-85.407194263846122
 21
-108.4871521659847
 31
0.0
  0
LINE
  5
9FD
  8
0
 10
-88.151819263845482
 20
-144.46279445791919
 30
0.0
 11
-79.662569263850401
 21
-144.46279445791919
 31
0.0
  0
LINE
  5
9FE
  8
0
 10
-79.662569263846763
 20
-144.4627944579174
 30
0.0
 11
-78.437569263848218
 21
-144.11279445791891
 31
0.0
  0
SOLID
  5
9FF
  8
0
 10
-78.437569263848218
 20
-142.58779445791919
 30
0.0
 11
-78.437569263848218
 21
-140.08779445791919
 31
0.0
 12
-89.376819263844027
 22
-142.58779445791919
 32
0.0
 13
-89.376819263844027
 23
-140.08779445791919
 33
0.0
  0
LINE
  5
A00
  8
0
 10
-82.723550333574607
 20
-91.691120396233146
 30
0.0
 11
-85.407194263842484
 21
-92.410200620120577
 31
0.0
  0
LINE
  5
A01
  8
0
 10
-82.407194263842484
 20
-94.821743352000794
 30
0.0
 11
-85.407194263846122
 21
-95.625590929293594
 31
0.0
  0
LINE
  5
C08
  8
0
  6
CONTINUOUS
 10
17.000000000001371
 20
-144.64461017924339
 30
0.0
 11
21.64461017924615
 21
-139.99999999999861
 31
0.0
1001
ACAD
1010
0.0
1020
0.0
1030
0.0
  0
LINE
  5
C09
  8
0
  6
CONTINUOUS
 10
17.000000000001361
 20
-150.03276385188491
 30
0.0
 11
27.032763851887651
 21
-139.99999999999861
 31
0.0
1001
ACAD
1010
0.0
1020
0.0
1030
0.0
  0
LINE
  5
C0A
  8
0
  6
CONTINUOUS
 10
17.000000000001378
 20
-155.42091752452629
 30
0.0
 11
32.420917524529138
 21
-139.99999999999861
 31
0.0
1001
ACAD
1010
0.0
1020
0.0
1030
0.0
  0
LINE
  5
C0B
  8
0
  6
CONTINUOUS
 10
17.000000000001378
 20
-160.8090711971679
 30
0.0
 11
37.809071197170631
 21
-139.99999999999861
 31
0.0
1001
ACAD
1010
0.0
1020
0.0
1030
0.0
  0
LINE
  5
C0C
  8
0
  6
CONTINUOUS
 10
19.19722486981216
 20
-163.99999999999861
 30
0.0
 11
42.000000000001357
 21
-141.19722486980939
 31
0.0
1001
ACAD
1010
0.0
1020
0.0
1030
0.0
  0
LINE
  5
C0D
  8
0
  6
CONTINUOUS
 10
24.585378542453661
 20
-163.99999999999861
 30
0.0
 11
42.000000000001357
 21
-146.58537854245091
 31
0.0
1001
ACAD
1010
0.0
1020
0.0
1030
0.0
  0
LINE
  5
C0E
  8
0
  6
CONTINUOUS
 10
29.973532215095151
 20
-163.99999999999861
 30
0.0
 11
42.000000000001357
 21
-151.97353221509229
 31
0.0
1001
ACAD
1010
0.0
1020
0.0
1030
0.0
  0
LINE
  5
C0F
  8
0
  6
CONTINUOUS
 10
35.361685887736641
 20
-163.99999999999861
 30
0.0
 11
42.000000000001357
 21
-157.36168588773381
 31
0.0
1001
ACAD
1010
0.0
1020
0.0
1030
0.0
  0
LINE
  5
C10
  8
0
  6
CONTINUOUS
 10
40.749839560378142
 20
-163.99999999999861
 30
0.0
 11
42.000000000001357
 21
-162.74983956037531
 31
0.0
1001
ACAD
1010
0.0
1020
0.0
1030
0.0
  0
LINE
  5
C11
  8
0
  6
CONTINUOUS
 10
17.06248663003138
 20
-142.78607232499951
 30
0.0
 11
17.9605122421383
 21
-141.88804671289259
 31
0.0
1001
ACAD
1010
0.0
1020
0.0
1030
0.0
  0
LINE
  5
C12
  8
0
  6
CONTINUOUS
 10
18.85853785424522
 20
-140.9900211007857
 30
0.0
 11
19.75656346635213
 21
-140.0919954886788
 31
0.0
1001
ACAD
1010
0.0
1020
0.0
1030
0.0
  0
LINE
  5
C13
  8
0
  6
CONTINUOUS
 10
17.000000000001361
 20
-148.23671262767101
 30
0.0
 11
17.06248663003138
 21
-148.174225997641
 31
0.0
1001
ACAD
1010
0.0
1020
0.0
1030
0.0
  0
LINE
  5
C14
  8
0
  6
CONTINUOUS
 10
17.9605122421383
 20
-147.27620038553411
 30
0.0
 11
18.85853785424522
 21
-146.37817477342719
 31
0.0
1001
ACAD
1010
0.0
1020
0.0
1030
0.0
  0
LINE
  5
C15
  8
0
  6
CONTINUOUS
 10
19.75656346635213
 20
-145.4801491613203
 30
0.0
 11
20.65458907845905
 21
-144.58212354921329
 31
0.0
1001
ACAD
1010
0.0
1020
0.0
1030
0.0
  0
LINE
  5
C16
  8
0
  6
CONTINUOUS
 10
21.552614690565971
 20
-143.6840979371064
 30
0.0
 11
22.45064030267288
 21
-142.78607232499951
 31
0.0
1001
ACAD
1010
0.0
1020
0.0
1030
0.0
  0
LINE
  5
C17
  8
0
  6
CONTINUOUS
 10
23.348665914779801
 20
-141.88804671289259
 30
0.0
 11
24.246691526886721
 21
-140.9900211007857
 31
0.0
1001
ACAD
1010
0.0
1020
0.0
1030
0.0
  0
LINE
  5
C18
  8
0
  6
CONTINUOUS
 10
25.144717138993631
 20
-140.0919954886788
 30
0.0
 11
25.236712627673821
 21
-139.99999999999861
 31
0.0
1001
ACAD
1010
0.0
1020
0.0
1030
0.0
  0
LINE
  5
C19
  8
0
  6
CONTINUOUS
 10
17.06248663003139
 20
-153.5623796702825
 30
0.0
 11
17.9605122421383
 21
-152.6643540581756
 31
0.0
1001
ACAD
1010
0.0
1020
0.0
1030
0.0
  0
LINE
  5
C1A
  8
0
  6
CONTINUOUS
 10
18.85853785424522
 20
-151.76632844606871
 30
0.0
 11
19.75656346635213
 21
-150.86830283396179
 31
0.0
1001
ACAD
1010
0.0
1020
0.0
1030
0.0
  0
LINE
  5
C1B
  8
0
  6
CONTINUOUS
 10
20.654589078459061
 20
-149.97027722185479
 30
0.0
 11
21.552614690565971
 21
-149.07225160974789
 31
0.0
1001
ACAD
1010
0.0
1020
0.0
1030
0.0
  0
LINE
  5
C1C
  8
0
  6
CONTINUOUS
 10
22.450640302672891
 20
-148.174225997641
 30
0.0
 11
23.348665914779811
 21
-147.27620038553411
 31
0.0
1001
ACAD
1010
0.0
1020
0.0
1030
0.0
  0
LINE
  5
C1D
  8
0
  6
CONTINUOUS
 10
24.246691526886721
 20
-146.37817477342719
 30
0.0
 11
25.144717138993641
 21
-145.4801491613203
 31
0.0
1001
ACAD
1010
0.0
1020
0.0
1030
0.0
  0
LINE
  5
C1E
  8
0
  6
CONTINUOUS
 10
26.042742751100558
 20
-144.58212354921329
 30
0.0
 11
26.940768363207471
 21
-143.6840979371064
 31
0.0
1001
ACAD
1010
0.0
1020
0.0
1030
0.0
  0
LINE
  5
C1F
  8
0
  6
CONTINUOUS
 10
27.838793975314388
 20
-142.78607232499951
 30
0.0
 11
28.736819587421301
 21
-141.88804671289259
 31
0.0
1001
ACAD
1010
0.0
1020
0.0
1030
0.0
  0
LINE
  5
C20
  8
0
  6
CONTINUOUS
 10
29.634845199528218
 20
-140.99002110078561
 30
0.0
 11
30.532870811635139
 21
-140.09199548867869
 31
0.0
1001
ACAD
1010
0.0
1020
0.0
1030
0.0
  0
LINE
  5
C21
  8
0
  6
CONTINUOUS
 10
17.000000000001378
 20
-159.013019972954
 30
0.0
 11
17.062486630031401
 21
-158.95053334292399
 31
0.0
1001
ACAD
1010
0.0
1020
0.0
1030
0.0
  0
LINE
  5
C22
  8
0
  6
CONTINUOUS
 10
17.960512242138311
 20
-158.0525077308171
 30
0.0
 11
18.858537854245231
 21
-157.15448211871021
 31
0.0
1001
ACAD
1010
0.0
1020
0.0
1030
0.0
  0
LINE
  5
C23
  8
0
  6
CONTINUOUS
 10
19.756563466352151
 20
-156.25645650660331
 30
0.0
 11
20.654589078459061
 21
-155.35843089449631
 31
0.0
1001
ACAD
1010
0.0
1020
0.0
1030
0.0
  0
LINE
  5
C24
  8
0
  6
CONTINUOUS
 10
21.552614690565981
 20
-154.46040528238939
 30
0.0
 11
22.450640302672898
 21
-153.5623796702825
 31
0.0
1001
ACAD
1010
0.0
1020
0.0
1030
0.0
  0
LINE
  5
C25
  8
0
  6
CONTINUOUS
 10
23.348665914779819
 20
-152.6643540581756
 30
0.0
 11
24.246691526886728
 21
-151.7663284460686
 31
0.0
1001
ACAD
1010
0.0
1020
0.0
1030
0.0
  0
LINE
  5
C26
  8
0
  6
CONTINUOUS
 10
25.144717138993649
 20
-150.86830283396179
 30
0.0
 11
26.042742751100569
 21
-149.97027722185479
 31
0.0
1001
ACAD
1010
0.0
1020
0.0
1030
0.0
  0
LINE
  5
C27
  8
0
  6
CONTINUOUS
 10
26.940768363207489
 20
-149.07225160974789
 30
0.0
 11
27.838793975314399
 21
-148.174225997641
 31
0.0
1001
ACAD
1010
0.0
1020
0.0
1030
0.0
  0
LINE
  5
C28
  8
0
  6
CONTINUOUS
 10
28.736819587421319
 20
-147.27620038553411
 30
0.0
 11
29.634845199528229
 21
-146.37817477342711
 31
0.0
1001
ACAD
1010
0.0
1020
0.0
1030
0.0
  0
LINE
  5
C29
  8
0
  6
CONTINUOUS
 10
30.532870811635149
 20
-145.48014916132021
 30
0.0
 11
31.43089642374207
 21
-144.58212354921329
 31
0.0
1001
ACAD
1010
0.0
1020
0.0
1030
0.0
  0
LINE
  5
C2A
  8
0
  6
CONTINUOUS
 10
32.328922035848983
 20
-143.6840979371064
 30
0.0
 11
33.226947647955903
 21
-142.78607232499951
 31
0.0
1001
ACAD
1010
0.0
1020
0.0
1030
0.0
  0
LINE
  5
C2B
  8
0
  6
CONTINUOUS
 10
34.124973260062809
 20
-141.8880467128925
 30
0.0
 11
35.02299887216973
 21
-140.99002110078561
 31
0.0
1001
ACAD
1010
0.0
1020
0.0
1030
0.0
  0
LINE
  5
C2C
  8
0
  6
CONTINUOUS
 10
35.921024484276643
 20
-140.09199548867869
 30
0.0
 11
36.013019972956819
 21
-139.99999999999849
 31
0.0
1001
ACAD
1010
0.0
1020
0.0
1030
0.0
  0
LINE
  5
C2D
  8
0
  6
CONTINUOUS
 10
17.40117364559832
 20
-163.99999999999861
 30
0.0
 11
17.9605122421383
 21
-163.44066140345859
 31
0.0
1001
ACAD
1010
0.0
1020
0.0
1030
0.0
  0
LINE
  5
C2E
  8
0
  6
CONTINUOUS
 10
18.85853785424522
 20
-162.54263579135159
 30
0.0
 11
19.75656346635213
 21
-161.64461017924469
 31
0.0
1001
ACAD
1010
0.0
1020
0.0
1030
0.0
  0
LINE
  5
C2F
  8
0
  6
CONTINUOUS
 10
20.65458907845905
 20
-160.7465845671378
 30
0.0
 11
21.552614690565971
 21
-159.84855895503091
 31
0.0
1001
ACAD
1010
0.0
1020
0.0
1030
0.0
  0
LINE
  5
C30
  8
0
  6
CONTINUOUS
 10
22.45064030267288
 20
-158.95053334292399
 30
0.0
 11
23.348665914779801
 21
-158.05250773081701
 31
0.0
1001
ACAD
1010
0.0
1020
0.0
1030
0.0
  0
LINE
  5
C31
  8
0
  6
CONTINUOUS
 10
24.246691526886721
 20
-157.15448211871009
 30
0.0
 11
25.144717138993631
 21
-156.2564565066032
 31
0.0
1001
ACAD
1010
0.0
1020
0.0
1030
0.0
  0
LINE
  5
C32
  8
0
  6
CONTINUOUS
 10
26.042742751100551
 20
-155.35843089449631
 30
0.0
 11
26.940768363207471
 21
-154.46040528238939
 31
0.0
1001
ACAD
1010
0.0
1020
0.0
1030
0.0
  0
LINE
  5
C33
  8
0
  6
CONTINUOUS
 10
27.838793975314388
 20
-153.56237967028241
 30
0.0
 11
28.736819587421301
 21
-152.66435405817549
 31
0.0
1001
ACAD
1010
0.0
1020
0.0
1030
0.0
  0
LINE
  5
C34
  8
0
  6
CONTINUOUS
 10
29.634845199528218
 20
-151.7663284460686
 30
0.0
 11
30.532870811635139
 21
-150.86830283396171
 31
0.0
1001
ACAD
1010
0.0
1020
0.0
1030
0.0
  0
LINE
  5
C35
  8
0
  6
CONTINUOUS
 10
31.430896423742048
 20
-149.97027722185479
 30
0.0
 11
32.328922035848969
 21
-149.07225160974781
 31
0.0
1001
ACAD
1010
0.0
1020
0.0
1030
0.0
  0
LINE
  5
C36
  8
0
  6
CONTINUOUS
 10
33.226947647955882
 20
-148.17422599764089
 30
0.0
 11
34.124973260062802
 21
-147.276200385534
 31
0.0
1001
ACAD
1010
0.0
1020
0.0
1030
0.0
  0
LINE
  5
C37
  8
0
  6
CONTINUOUS
 10
35.022998872169708
 20
-146.37817477342711
 30
0.0
 11
35.921024484276622
 21
-145.48014916132021
 31
0.0
1001
ACAD
1010
0.0
1020
0.0
1030
0.0
  0
LINE
  5
C38
  8
0
  6
CONTINUOUS
 10
36.819050096383542
 20
-144.58212354921321
 30
0.0
 11
37.717075708490448
 21
-143.68409793710629
 31
0.0
1001
ACAD
1010
0.0
1020
0.0
1030
0.0
  0
LINE
  5
C39
  8
0
  6
CONTINUOUS
 10
38.615101320597361
 20
-142.7860723249994
 30
0.0
 11
39.513126932704267
 21
-141.8880467128925
 31
0.0
1001
ACAD
1010
0.0
1020
0.0
1030
0.0
  0
LINE
  5
C3A
  8
0
  6
CONTINUOUS
 10
40.411152544811188
 20
-140.99002110078561
 30
0.0
 11
41.309178156918101
 21
-140.09199548867861
 31
0.0
1001
ACAD
1010
0.0
1020
0.0
1030
0.0
  0
LINE
  5
C3B
  8
0
  6
CONTINUOUS
 10
23.34866591477979
 20
-163.44066140345859
 30
0.0
 11
24.24669152688671
 21
-162.54263579135159
 31
0.0
1001
ACAD
1010
0.0
1020
0.0
1030
0.0
  0
LINE
  5
C3C
  8
0
  6
CONTINUOUS
 10
25.144717138993631
 20
-161.64461017924469
 30
0.0
 11
26.04274275110054
 21
-160.7465845671378
 31
0.0
1001
ACAD
1010
0.0
1020
0.0
1030
0.0
  0
LINE
  5
C3D
  8
0
  6
CONTINUOUS
 10
26.940768363207461
 20
-159.84855895503091
 30
0.0
 11
27.838793975314381
 21
-158.95053334292399
 31
0.0
1001
ACAD
1010
0.0
1020
0.0
1030
0.0
  0
LINE
  5
C3E
  8
0
  6
CONTINUOUS
 10
28.736819587421301
 20
-158.05250773081701
 30
0.0
 11
29.634845199528211
 21
-157.15448211871009
 31
0.0
1001
ACAD
1010
0.0
1020
0.0
1030
0.0
  0
LINE
  5
C3F
  8
0
  6
CONTINUOUS
 10
30.532870811635132
 20
-156.2564565066032
 30
0.0
 11
31.430896423742048
 21
-155.35843089449631
 31
0.0
1001
ACAD
1010
0.0
1020
0.0
1030
0.0
  0
LINE
  5
C40
  8
0
  6
CONTINUOUS
 10
32.328922035848962
 20
-154.46040528238939
 30
0.0
 11
33.226947647955882
 21
-153.56237967028241
 31
0.0
1001
ACAD
1010
0.0
1020
0.0
1030
0.0
  0
LINE
  5
C41
  8
0
  6
CONTINUOUS
 10
34.124973260062788
 20
-152.66435405817549
 30
0.0
 11
35.022998872169701
 21
-151.7663284460686
 31
0.0
1001
ACAD
1010
0.0
1020
0.0
1030
0.0
  0
LINE
  5
C42
  8
0
  6
CONTINUOUS
 10
35.921024484276622
 20
-150.86830283396171
 30
0.0
 11
36.819050096383528
 21
-149.97027722185479
 31
0.0
1001
ACAD
1010
0.0
1020
0.0
1030
0.0
  0
LINE
  5
C43
  8
0
  6
CONTINUOUS
 10
37.717075708490441
 20
-149.07225160974781
 30
0.0
 11
38.615101320597361
 21
-148.17422599764089
 31
0.0
1001
ACAD
1010
0.0
1020
0.0
1030
0.0
  0
LINE
  5
C44
  8
0
  6
CONTINUOUS
 10
39.513126932704267
 20
-147.276200385534
 30
0.0
 11
40.411152544811181
 21
-146.37817477342711
 31
0.0
1001
ACAD
1010
0.0
1020
0.0
1030
0.0
  0
LINE
  5
C45
  8
0
  6
CONTINUOUS
 10
41.309178156918087
 20
-145.48014916132021
 30
0.0
 11
42.000000000001357
 21
-144.7893273182369
 31
0.0
1001
ACAD
1010
0.0
1020
0.0
1030
0.0
  0
LINE
  5
C46
  8
0
  6
CONTINUOUS
 10
28.17748099088131
 20
-163.99999999999861
 30
0.0
 11
28.736819587421291
 21
-163.44066140345859
 31
0.0
1001
ACAD
1010
0.0
1020
0.0
1030
0.0
  0
LINE
  5
C47
  8
0
  6
CONTINUOUS
 10
29.634845199528211
 20
-162.54263579135159
 30
0.0
 11
30.532870811635121
 21
-161.64461017924469
 31
0.0
1001
ACAD
1010
0.0
1020
0.0
1030
0.0
  0
LINE
  5
C48
  8
0
  6
CONTINUOUS
 10
31.430896423742041
 20
-160.7465845671378
 30
0.0
 11
32.328922035848962
 21
-159.84855895503091
 31
0.0
1001
ACAD
1010
0.0
1020
0.0
1030
0.0
  0
LINE
  5
C49
  8
0
  6
CONTINUOUS
 10
33.226947647955868
 20
-158.95053334292399
 30
0.0
 11
34.124973260062781
 21
-158.05250773081701
 31
0.0
1001
ACAD
1010
0.0
1020
0.0
1030
0.0
  0
LINE
  5
C4A
  8
0
  6
CONTINUOUS
 10
35.022998872169687
 20
-157.15448211871009
 30
0.0
 11
35.921024484276607
 21
-156.2564565066032
 31
0.0
1001
ACAD
1010
0.0
1020
0.0
1030
0.0
  0
LINE
  5
C4B
  8
0
  6
CONTINUOUS
 10
36.819050096383521
 20
-155.35843089449631
 30
0.0
 11
37.717075708490441
 21
-154.46040528238939
 31
0.0
1001
ACAD
1010
0.0
1020
0.0
1030
0.0
  0
LINE
  5
C4C
  8
0
  6
CONTINUOUS
 10
38.615101320597347
 20
-153.56237967028241
 30
0.0
 11
39.51312693270426
 21
-152.66435405817549
 31
0.0
1001
ACAD
1010
0.0
1020
0.0
1030
0.0
  0
LINE
  5
C4D
  8
0
  6
CONTINUOUS
 10
40.411152544811173
 20
-151.7663284460686
 30
0.0
 11
41.30917815691808
 21
-150.86830283396171
 31
0.0
1001
ACAD
1010
0.0
1020
0.0
1030
0.0
  0
LINE
  5
C4E
  8
0
  6
CONTINUOUS
 10
34.124973260062781
 20
-163.44066140345859
 30
0.0
 11
35.022998872169687
 21
-162.54263579135159
 31
0.0
1001
ACAD
1010
0.0
1020
0.0
1030
0.0
  0
LINE
  5
C4F
  8
0
  6
CONTINUOUS
 10
35.921024484276607
 20
-161.64461017924469
 30
0.0
 11
36.819050096383521
 21
-160.7465845671378
 31
0.0
1001
ACAD
1010
0.0
1020
0.0
1030
0.0
  0
LINE
  5
C50
  8
0
  6
CONTINUOUS
 10
37.717075708490441
 20
-159.84855895503091
 30
0.0
 11
38.615101320597347
 21
-158.95053334292399
 31
0.0
1001
ACAD
1010
0.0
1020
0.0
1030
0.0
  0
LINE
  5
C51
  8
0
  6
CONTINUOUS
 10
39.51312693270426
 20
-158.05250773081701
 30
0.0
 11
40.411152544811173
 21
-157.15448211871009
 31
0.0
1001
ACAD
1010
0.0
1020
0.0
1030
0.0
  0
LINE
  5
C52
  8
0
  6
CONTINUOUS
 10
41.30917815691808
 20
-156.2564565066032
 30
0.0
 11
42.00000000000135
 21
-155.56563466352
 31
0.0
1001
ACAD
1010
0.0
1020
0.0
1030
0.0
  0
LINE
  5
C53
  8
0
  6
CONTINUOUS
 10
38.953788336164301
 20
-163.99999999999861
 30
0.0
 11
39.513126932704267
 21
-163.44066140345859
 31
0.0
1001
ACAD
1010
0.0
1020
0.0
1030
0.0
  0
LINE
  5
C54
  8
0
  6
CONTINUOUS
 10
40.411152544811188
 20
-162.54263579135159
 30
0.0
 11
41.309178156918101
 21
-161.64461017924469
 31
0.0
1001
ACAD
1010
0.0
1020
0.0
1030
0.0
  0
LINE
  5
C55
  8
0
  6
CONTINUOUS
 10
17.000000000001361
 20
-141.05250773081571
 30
0.0
 11
17.062486630031369
 21
-140.9900211007857
 31
0.0
1001
ACAD
1010
0.0
1020
0.0
1030
0.0
  0
LINE
  5
C56
  8
0
  6
CONTINUOUS
 10
17.960512242138289
 20
-140.0919954886788
 30
0.0
 11
18.05250773081849
 21
-139.99999999999861
 31
0.0
1001
ACAD
1010
0.0
1020
0.0
1030
0.0
  0
LINE
  5
C57
  8
0
  6
CONTINUOUS
 10
17.06248663003139
 20
-146.37817477342719
 30
0.0
 11
17.960512242138311
 21
-145.4801491613203
 31
0.0
1001
ACAD
1010
0.0
1020
0.0
1030
0.0
  0
LINE
  5
C58
  8
0
  6
CONTINUOUS
 10
18.85853785424522
 20
-144.58212354921329
 30
0.0
 11
19.756563466352141
 21
-143.6840979371064
 31
0.0
1001
ACAD
1010
0.0
1020
0.0
1030
0.0
  0
LINE
  5
C59
  8
0
  6
CONTINUOUS
 10
20.654589078459061
 20
-142.78607232499951
 30
0.0
 11
21.552614690565971
 21
-141.88804671289259
 31
0.0
1001
ACAD
1010
0.0
1020
0.0
1030
0.0
  0
LINE
  5
C5A
  8
0
  6
CONTINUOUS
 10
22.450640302672891
 20
-140.9900211007857
 30
0.0
 11
23.348665914779811
 21
-140.0919954886788
 31
0.0
1001
ACAD
1010
0.0
1020
0.0
1030
0.0
  0
LINE
  5
C5B
  8
0
  6
CONTINUOUS
 10
17.000000000001378
 20
-151.82881507609869
 30
0.0
 11
17.062486630031401
 21
-151.76632844606871
 31
0.0
1001
ACAD
1010
0.0
1020
0.0
1030
0.0
  0
LINE
  5
C5C
  8
0
  6
CONTINUOUS
 10
17.960512242138321
 20
-150.86830283396179
 30
0.0
 11
18.858537854245242
 21
-149.97027722185479
 31
0.0
1001
ACAD
1010
0.0
1020
0.0
1030
0.0
  0
LINE
  5
C5D
  8
0
  6
CONTINUOUS
 10
19.756563466352159
 20
-149.07225160974789
 30
0.0
 11
20.654589078459079
 21
-148.174225997641
 31
0.0
1001
ACAD
1010
0.0
1020
0.0
1030
0.0
  0
LINE
  5
C5E
  8
0
  6
CONTINUOUS
 10
21.552614690565989
 20
-147.27620038553411
 30
0.0
 11
22.450640302672909
 21
-146.37817477342719
 31
0.0
1001
ACAD
1010
0.0
1020
0.0
1030
0.0
  0
LINE
  5
C5F
  8
0
  6
CONTINUOUS
 10
23.348665914779819
 20
-145.4801491613203
 30
0.0
 11
24.246691526886739
 21
-144.58212354921329
 31
0.0
1001
ACAD
1010
0.0
1020
0.0
1030
0.0
  0
LINE
  5
C60
  8
0
  6
CONTINUOUS
 10
25.144717138993659
 20
-143.6840979371064
 30
0.0
 11
26.04274275110058
 21
-142.78607232499951
 31
0.0
1001
ACAD
1010
0.0
1020
0.0
1030
0.0
  0
LINE
  5
C61
  8
0
  6
CONTINUOUS
 10
26.940768363207489
 20
-141.88804671289259
 30
0.0
 11
27.83879397531441
 21
-140.99002110078561
 31
0.0
1001
ACAD
1010
0.0
1020
0.0
1030
0.0
  0
LINE
  5
C62
  8
0
  6
CONTINUOUS
 10
28.73681958742133
 20
-140.09199548867869
 30
0.0
 11
28.82881507610151
 21
-139.99999999999849
 31
0.0
1001
ACAD
1010
0.0
1020
0.0
1030
0.0
  0
LINE
  5
C63
  8
0
  6
CONTINUOUS
 10
17.062486630031401
 20
-157.15448211871021
 30
0.0
 11
17.960512242138321
 21
-156.25645650660331
 31
0.0
1001
ACAD
1010
0.0
1020
0.0
1030
0.0
  0
LINE
  5
C64
  8
0
  6
CONTINUOUS
 10
18.858537854245242
 20
-155.35843089449631
 30
0.0
 11
19.756563466352159
 21
-154.46040528238939
 31
0.0
1001
ACAD
1010
0.0
1020
0.0
1030
0.0
  0
LINE
  5
C65
  8
0
  6
CONTINUOUS
 10
20.654589078459079
 20
-153.5623796702825
 30
0.0
 11
21.552614690565989
 21
-152.6643540581756
 31
0.0
1001
ACAD
1010
0.0
1020
0.0
1030
0.0
  0
LINE
  5
C66
  8
0
  6
CONTINUOUS
 10
22.450640302672909
 20
-151.7663284460686
 30
0.0
 11
23.348665914779819
 21
-150.86830283396179
 31
0.0
1001
ACAD
1010
0.0
1020
0.0
1030
0.0
  0
LINE
  5
C67
  8
0
  6
CONTINUOUS
 10
24.246691526886739
 20
-149.97027722185479
 30
0.0
 11
25.144717138993659
 21
-149.07225160974789
 31
0.0
1001
ACAD
1010
0.0
1020
0.0
1030
0.0
  0
LINE
  5
C68
  8
0
  6
CONTINUOUS
 10
26.04274275110058
 20
-148.174225997641
 30
0.0
 11
26.940768363207489
 21
-147.27620038553411
 31
0.0
1001
ACAD
1010
0.0
1020
0.0
1030
0.0
  0
LINE
  5
C69
  8
0
  6
CONTINUOUS
 10
27.83879397531441
 20
-146.37817477342711
 30
0.0
 11
28.73681958742133
 21
-145.48014916132021
 31
0.0
1001
ACAD
1010
0.0
1020
0.0
1030
0.0
  0
LINE
  5
C6A
  8
0
  6
CONTINUOUS
 10
29.63484519952825
 20
-144.58212354921329
 30
0.0
 11
30.53287081163516
 21
-143.6840979371064
 31
0.0
1001
ACAD
1010
0.0
1020
0.0
1030
0.0
  0
LINE
  5
C6B
  8
0
  6
CONTINUOUS
 10
31.43089642374208
 20
-142.78607232499951
 30
0.0
 11
32.32892203584899
 21
-141.8880467128925
 31
0.0
1001
ACAD
1010
0.0
1020
0.0
1030
0.0
  0
LINE
  5
C6C
  8
0
  6
CONTINUOUS
 10
33.22694764795591
 20
-140.99002110078561
 30
0.0
 11
34.124973260062823
 21
-140.09199548867869
 31
0.0
1001
ACAD
1010
0.0
1020
0.0
1030
0.0
  0
LINE
  5
C6D
  8
0
  6
CONTINUOUS
 10
17.000000000001378
 20
-162.60512242138171
 30
0.0
 11
17.062486630031401
 21
-162.5426357913517
 31
0.0
1001
ACAD
1010
0.0
1020
0.0
1030
0.0
  0
LINE
  5
C6E
  8
0
  6
CONTINUOUS
 10
17.960512242138321
 20
-161.64461017924481
 30
0.0
 11
18.858537854245242
 21
-160.7465845671378
 31
0.0
1001
ACAD
1010
0.0
1020
0.0
1030
0.0
  0
LINE
  5
C6F
  8
0
  6
CONTINUOUS
 10
19.756563466352159
 20
-159.84855895503091
 30
0.0
 11
20.654589078459079
 21
-158.95053334292399
 31
0.0
1001
ACAD
1010
0.0
1020
0.0
1030
0.0
  0
LINE
  5
C70
  8
0
  6
CONTINUOUS
 10
21.552614690565989
 20
-158.0525077308171
 30
0.0
 11
22.450640302672909
 21
-157.15448211871009
 31
0.0
1001
ACAD
1010
0.0
1020
0.0
1030
0.0
  0
LINE
  5
C71
  8
0
  6
CONTINUOUS
 10
23.348665914779819
 20
-156.2564565066032
 30
0.0
 11
24.246691526886739
 21
-155.35843089449631
 31
0.0
1001
ACAD
1010
0.0
1020
0.0
1030
0.0
  0
LINE
  5
C72
  8
0
  6
CONTINUOUS
 10
25.144717138993659
 20
-154.46040528238939
 30
0.0
 11
26.04274275110058
 21
-153.5623796702825
 31
0.0
1001
ACAD
1010
0.0
1020
0.0
1030
0.0
  0
LINE
  5
C73
  8
0
  6
CONTINUOUS
 10
26.940768363207489
 20
-152.6643540581756
 30
0.0
 11
27.83879397531441
 21
-151.7663284460686
 31
0.0
1001
ACAD
1010
0.0
1020
0.0
1030
0.0
  0
LINE
  5
C74
  8
0
  6
CONTINUOUS
 10
28.73681958742133
 20
-150.86830283396171
 30
0.0
 11
29.63484519952825
 21
-149.97027722185479
 31
0.0
1001
ACAD
1010
0.0
1020
0.0
1030
0.0
  0
LINE
  5
C75
  8
0
  6
CONTINUOUS
 10
30.53287081163516
 20
-149.07225160974789
 30
0.0
 11
31.43089642374208
 21
-148.174225997641
 31
0.0
1001
ACAD
1010
0.0
1020
0.0
1030
0.0
  0
LINE
  5
C76
  8
0
  6
CONTINUOUS
 10
32.32892203584899
 20
-147.276200385534
 30
0.0
 11
33.22694764795591
 21
-146.37817477342711
 31
0.0
1001
ACAD
1010
0.0
1020
0.0
1030
0.0
  0
LINE
  5
C77
  8
0
  6
CONTINUOUS
 10
34.124973260062823
 20
-145.48014916132021
 30
0.0
 11
35.02299887216973
 21
-144.58212354921329
 31
0.0
1001
ACAD
1010
0.0
1020
0.0
1030
0.0
  0
LINE
  5
C78
  8
0
  6
CONTINUOUS
 10
35.921024484276643
 20
-143.68409793710629
 30
0.0
 11
36.819050096383563
 21
-142.7860723249994
 31
0.0
1001
ACAD
1010
0.0
1020
0.0
1030
0.0
  0
LINE
  5
C79
  8
0
  6
CONTINUOUS
 10
37.717075708490469
 20
-141.8880467128925
 30
0.0
 11
38.615101320597383
 21
-140.99002110078561
 31
0.0
1001
ACAD
1010
0.0
1020
0.0
1030
0.0
  0
LINE
  5
C7A
  8
0
  6
CONTINUOUS
 10
39.513126932704303
 20
-140.09199548867869
 30
0.0
 11
39.605122421384493
 21
-139.99999999999849
 31
0.0
1001
ACAD
1010
0.0
1020
0.0
1030
0.0
  0
LINE
  5
C7B
  8
0
  6
CONTINUOUS
 10
20.993276094026001
 20
-163.99999999999861
 30
0.0
 11
21.552614690565981
 21
-163.44066140345859
 31
0.0
1001
ACAD
1010
0.0
1020
0.0
1030
0.0
  0
LINE
  5
C7C
  8
0
  6
CONTINUOUS
 10
22.450640302672898
 20
-162.54263579135159
 30
0.0
 11
23.348665914779819
 21
-161.64461017924469
 31
0.0
1001
ACAD
1010
0.0
1020
0.0
1030
0.0
  0
LINE
  5
C7D
  8
0
  6
CONTINUOUS
 10
24.246691526886728
 20
-160.7465845671378
 30
0.0
 11
25.144717138993649
 21
-159.84855895503091
 31
0.0
1001
ACAD
1010
0.0
1020
0.0
1030
0.0
  0
LINE
  5
C7E
  8
0
  6
CONTINUOUS
 10
26.042742751100569
 20
-158.95053334292399
 30
0.0
 11
26.940768363207489
 21
-158.05250773081701
 31
0.0
1001
ACAD
1010
0.0
1020
0.0
1030
0.0
  0
LINE
  5
C7F
  8
0
  6
CONTINUOUS
 10
27.838793975314399
 20
-157.15448211871009
 30
0.0
 11
28.736819587421319
 21
-156.2564565066032
 31
0.0
1001
ACAD
1010
0.0
1020
0.0
1030
0.0
  0
LINE
  5
C80
  8
0
  6
CONTINUOUS
 10
29.634845199528229
 20
-155.35843089449631
 30
0.0
 11
30.532870811635149
 21
-154.46040528238939
 31
0.0
1001
ACAD
1010
0.0
1020
0.0
1030
0.0
  0
LINE
  5
C81
  8
0
  6
CONTINUOUS
 10
31.43089642374207
 20
-153.56237967028241
 30
0.0
 11
32.328922035848983
 21
-152.66435405817549
 31
0.0
1001
ACAD
1010
0.0
1020
0.0
1030
0.0
  0
LINE
  5
C82
  8
0
  6
CONTINUOUS
 10
33.226947647955903
 20
-151.7663284460686
 30
0.0
 11
34.124973260062809
 21
-150.86830283396171
 31
0.0
1001
ACAD
1010
0.0
1020
0.0
1030
0.0
  0
LINE
  5
C83
  8
0
  6
CONTINUOUS
 10
35.02299887216973
 20
-149.97027722185479
 30
0.0
 11
35.921024484276643
 21
-149.07225160974781
 31
0.0
1001
ACAD
1010
0.0
1020
0.0
1030
0.0
  0
LINE
  5
C84
  8
0
  6
CONTINUOUS
 10
36.819050096383549
 20
-148.17422599764089
 30
0.0
 11
37.717075708490462
 21
-147.276200385534
 31
0.0
1001
ACAD
1010
0.0
1020
0.0
1030
0.0
  0
LINE
  5
C85
  8
0
  6
CONTINUOUS
 10
38.615101320597383
 20
-146.37817477342711
 30
0.0
 11
39.513126932704289
 21
-145.48014916132021
 31
0.0
1001
ACAD
1010
0.0
1020
0.0
1030
0.0
  0
LINE
  5
C86
  8
0
  6
CONTINUOUS
 10
40.411152544811202
 20
-144.58212354921321
 30
0.0
 11
41.309178156918122
 21
-143.68409793710629
 31
0.0
1001
ACAD
1010
0.0
1020
0.0
1030
0.0
  0
LINE
  5
C87
  8
0
  6
CONTINUOUS
 10
26.940768363207471
 20
-163.44066140345859
 30
0.0
 11
27.838793975314388
 21
-162.5426357913517
 31
0.0
1001
ACAD
1010
0.0
1020
0.0
1030
0.0
  0
LINE
  5
C88
  8
0
  6
CONTINUOUS
 10
28.736819587421301
 20
-161.64461017924481
 30
0.0
 11
29.634845199528218
 21
-160.7465845671378
 31
0.0
1001
ACAD
1010
0.0
1020
0.0
1030
0.0
  0
LINE
  5
C89
  8
0
  6
CONTINUOUS
 10
30.532870811635139
 20
-159.84855895503091
 30
0.0
 11
31.430896423742048
 21
-158.95053334292399
 31
0.0
1001
ACAD
1010
0.0
1020
0.0
1030
0.0
  0
LINE
  5
C8A
  8
0
  6
CONTINUOUS
 10
32.328922035848969
 20
-158.0525077308171
 30
0.0
 11
33.226947647955882
 21
-157.15448211871009
 31
0.0
1001
ACAD
1010
0.0
1020
0.0
1030
0.0
  0
LINE
  5
C8B
  8
0
  6
CONTINUOUS
 10
34.124973260062802
 20
-156.2564565066032
 30
0.0
 11
35.022998872169708
 21
-155.35843089449631
 31
0.0
1001
ACAD
1010
0.0
1020
0.0
1030
0.0
  0
LINE
  5
C8C
  8
0
  6
CONTINUOUS
 10
35.921024484276622
 20
-154.46040528238939
 30
0.0
 11
36.819050096383542
 21
-153.5623796702825
 31
0.0
1001
ACAD
1010
0.0
1020
0.0
1030
0.0
  0
LINE
  5
C8D
  8
0
  6
CONTINUOUS
 10
37.717075708490448
 20
-152.6643540581756
 30
0.0
 11
38.615101320597361
 21
-151.7663284460686
 31
0.0
1001
ACAD
1010
0.0
1020
0.0
1030
0.0
  0
LINE
  5
C8E
  8
0
  6
CONTINUOUS
 10
39.513126932704267
 20
-150.86830283396171
 30
0.0
 11
40.411152544811188
 21
-149.97027722185479
 31
0.0
1001
ACAD
1010
0.0
1020
0.0
1030
0.0
  0
LINE
  5
C8F
  8
0
  6
CONTINUOUS
 10
41.309178156918101
 20
-149.07225160974789
 30
0.0
 11
42.000000000001357
 21
-148.38142976666461
 31
0.0
1001
ACAD
1010
0.0
1020
0.0
1030
0.0
  0
LINE
  5
C90
  8
0
  6
CONTINUOUS
 10
31.769583439308992
 20
-163.99999999999861
 30
0.0
 11
32.328922035848962
 21
-163.44066140345859
 31
0.0
1001
ACAD
1010
0.0
1020
0.0
1030
0.0
  0
LINE
  5
C91
  8
0
  6
CONTINUOUS
 10
33.226947647955868
 20
-162.5426357913517
 30
0.0
 11
34.124973260062781
 21
-161.64461017924481
 31
0.0
1001
ACAD
1010
0.0
1020
0.0
1030
0.0
  0
LINE
  5
C92
  8
0
  6
CONTINUOUS
 10
35.022998872169687
 20
-160.7465845671378
 30
0.0
 11
35.921024484276607
 21
-159.84855895503091
 31
0.0
1001
ACAD
1010
0.0
1020
0.0
1030
0.0
  0
LINE
  5
C93
  8
0
  6
CONTINUOUS
 10
36.819050096383521
 20
-158.95053334292399
 30
0.0
 11
37.717075708490441
 21
-158.0525077308171
 31
0.0
1001
ACAD
1010
0.0
1020
0.0
1030
0.0
  0
LINE
  5
C94
  8
0
  6
CONTINUOUS
 10
38.615101320597347
 20
-157.15448211871009
 30
0.0
 11
39.51312693270426
 21
-156.2564565066032
 31
0.0
1001
ACAD
1010
0.0
1020
0.0
1030
0.0
  0
LINE
  5
C95
  8
0
  6
CONTINUOUS
 10
40.411152544811173
 20
-155.35843089449631
 30
0.0
 11
41.30917815691808
 21
-154.46040528238939
 31
0.0
1001
ACAD
1010
0.0
1020
0.0
1030
0.0
  0
LINE
  5
C96
  8
0
  6
CONTINUOUS
 10
37.717075708490462
 20
-163.44066140345859
 30
0.0
 11
38.615101320597383
 21
-162.5426357913517
 31
0.0
1001
ACAD
1010
0.0
1020
0.0
1030
0.0
  0
LINE
  5
C97
  8
0
  6
CONTINUOUS
 10
39.513126932704289
 20
-161.64461017924481
 30
0.0
 11
40.411152544811202
 21
-160.7465845671378
 31
0.0
1001
ACAD
1010
0.0
1020
0.0
1030
0.0
  0
LINE
  5
C98
  8
0
  6
CONTINUOUS
 10
41.309178156918122
 20
-159.84855895503091
 30
0.0
 11
42.000000000001357
 21
-159.15773711194771
 31
0.0
1001
ACAD
1010
0.0
1020
0.0
1030
0.0
  0
ENDSEC
  0
EOF
