  0
SECTION
  2
HEADER
  9
$ACADVER
  1
AC1009
  9
$INSBASE
 10
0.0
 20
0.0
 30
0.0
  9
$EXTMIN
 10
-505.63874386959151
 20
-912.45927760000575
 30
-0.0015258207003583
  9
$EXTMAX
 10
1124.582070045115
 20
954.08867786022438
 30
0.0000000349246037
  9
$LIMMIN
 10
0.0
 20
0.0
  9
$LIMMAX
 10
12.0
 20
9.0
  9
$ORTHOMODE
 70
     0
  9
$REGENMODE
 70
     1
  9
$FILLMODE
 70
     1
  9
$QTEXTMODE
 70
     0
  9
$MIRRTEXT
 70
     0
  9
$DRAGMODE
 70
     2
  9
$LTSCALE
 40
1.0
  9
$OSMODE
 70
     0
  9
$ATTMODE
 70
     1
  9
$TEXTSIZE
 40
35.0
  9
$TRACEWID
 40
0.05
  9
$TEXTSTYLE
  7
ARIAL
  9
$CLAYER
  8
0
  9
$CELTYPE
  6
BYLAYER
  9
$CECOLOR
 62
   256
  9
$DIMSCALE
 40
10.0
  9
$DIMASZ
 40
2.0
  9
$DIMEXO
 40
2.0
  9
$DIMDLI
 40
6.0
  9
$DIMRND
 40
0.0
  9
$DIMDLE
 40
2.0
  9
$DIMEXE
 40
2.0
  9
$DIMTP
 40
0.0
  9
$DIMTM
 40
0.0
  9
$DIMTXT
 40
2.0
  9
$DIMCEN
 40
2.0
  9
$DIMTSZ
 40
0.0
  9
$DIMTOL
 70
     0
  9
$DIMLIM
 70
     0
  9
$DIMTIH
 70
     0
  9
$DIMTOH
 70
     0
  9
$DIMSE1
 70
     0
  9
$DIMSE2
 70
     0
  9
$DIMTAD
 70
     1
  9
$DIMZIN
 70
     0
  9
$DIMBLK
  1
ARCHTICK
  9
$DIMASO
 70
     1
  9
$DIMSHO
 70
     1
  9
$DIMPOST
  1
mm
  9
$DIMAPOST
  1

  9
$DIMALT
 70
     0
  9
$DIMALTD
 70
     2
  9
$DIMALTF
 40
0.0394
  9
$DIMLFAC
 40
1.0
  9
$DIMTOFL
 70
     0
  9
$DIMTVP
 40
0.0
  9
$DIMTIX
 70
     0
  9
$DIMSOXD
 70
     0
  9
$DIMSAH
 70
     0
  9
$DIMBLK1
  1

  9
$DIMBLK2
  1

  9
$DIMSTYLE
  2
1_TO_5
  9
$DIMCLRD
 70
   256
  9
$DIMCLRE
 70
   256
  9
$DIMCLRT
 70
   256
  9
$DIMTFAC
 40
1.0
  9
$DIMGAP
 40
1.0
  9
$LUNITS
 70
     2
  9
$LUPREC
 70
     1
  9
$SKETCHINC
 40
0.1
  9
$FILLETRAD
 40
0.0
  9
$AUNITS
 70
     1
  9
$AUPREC
 70
     4
  9
$MENU
  1
.
  9
$ELEVATION
 40
0.0
  9
$PELEVATION
 40
0.0
  9
$THICKNESS
 40
0.0
  9
$LIMCHECK
 70
     0
  9
$BLIPMODE
 70
     0
  9
$CHAMFERA
 40
0.0
  9
$CHAMFERB
 40
0.0
  9
$SKPOLY
 70
     0
  9
$TDCREATE
 40
2452152.65359294
  9
$TDUPDATE
 40
2455936.5465908558
  9
$TDINDWG
 40
10.1508821991
  9
$TDUSRTIMER
 40
10.1508821991
  9
$USRTIMER
 70
     1
  9
$ANGBASE
 50
0.0
  9
$ANGDIR
 70
     0
  9
$PDMODE
 70
     3
  9
$PDSIZE
 40
0.0
  9
$PLINEWID
 40
0.0
  9
$COORDS
 70
     1
  9
$SPLFRAME
 70
     0
  9
$SPLINETYPE
 70
     6
  9
$SPLINESEGS
 70
     8
  9
$ATTDIA
 70
     0
  9
$ATTREQ
 70
     1
  9
$HANDLING
 70
     1
  9
$HANDSEED
  5
2033
  9
$SURFTAB1
 70
     6
  9
$SURFTAB2
 70
     6
  9
$SURFTYPE
 70
     6
  9
$SURFU
 70
     6
  9
$SURFV
 70
     6
  9
$UCSNAME
  2

  9
$UCSORG
 10
0.0
 20
0.0
 30
0.0
  9
$UCSXDIR
 10
1.0
 20
0.0
 30
0.0
  9
$UCSYDIR
 10
0.0
 20
1.0
 30
0.0
  9
$PUCSNAME
  2

  9
$PUCSORG
 10
0.0
 20
0.0
 30
0.0
  9
$PUCSXDIR
 10
1.0
 20
0.0
 30
0.0
  9
$PUCSYDIR
 10
0.0
 20
1.0
 30
0.0
  9
$USERI1
 70
     0
  9
$USERI2
 70
     0
  9
$USERI3
 70
     0
  9
$USERI4
 70
     0
  9
$USERI5
 70
     0
  9
$USERR1
 40
0.0
  9
$USERR2
 40
0.0
  9
$USERR3
 40
0.0
  9
$USERR4
 40
0.0
  9
$USERR5
 40
0.0
  9
$WORLDVIEW
 70
     1
  9
$SHADEDGE
 70
     3
  9
$SHADEDIF
 70
    70
  9
$TILEMODE
 70
     1
  9
$MAXACTVP
 70
    48
  9
$PLIMCHECK
 70
     0
  9
$PEXTMIN
 10
0.0
 20
0.0
 30
0.0
  9
$PEXTMAX
 10
0.0
 20
0.0
 30
0.0
  9
$PLIMMIN
 10
0.0
 20
0.0
  9
$PLIMMAX
 10
12.0
 20
9.0
  9
$UNITMODE
 70
     0
  9
$VISRETAIN
 70
     0
  9
$PLINEGEN
 70
     1
  9
$PSLTSCALE
 70
     1
  0
ENDSEC
  0
SECTION
  2
TABLES
  0
TABLE
  2
VPORT
 70
     1
  0
VPORT
  2
*ACTIVE
 70
     0
 10
0.0
 20
0.0
 11
1.0
 21
1.0
 12
309.4716630877619
 22
20.814700130109259
 13
0.0
 23
0.0
 14
1.0
 24
1.0
 15
0.5
 25
0.5
 16
0.0
 26
0.0
 36
1.0
 17
0.0
 27
0.0
 37
0.0
 40
1877.769686655382
 41
1.61283851554664
 42
50.0
 43
0.0
 44
0.0
 50
0.0
 51
0.0
 71
     0
 72
 20000
 73
     1
 74
     3
 75
     0
 76
     0
 77
     0
 78
     0
  0
ENDTAB
  0
TABLE
  2
LTYPE
 70
     3
  0
LTYPE
  2
CONTINUOUS
 70
     0
  3
Solid line
 72
    65
 73
     0
 40
0.0
  0
ENDTAB
  0
TABLE
  2
LAYER
 70
    18
  0
LAYER
  2
0
 70
     0
 62
     7
  6
CONTINUOUS
  0
ENDTAB
  0
TABLE
  2
STYLE
 70
     6
  0
STYLE
  2
STANDARD
 70
     0
 40
0.0
 41
1.0
 50
0.0
 71
     0
 42
1.5
  3
romans.shx
  4

  0
STYLE
  2
$0$ARIAL
 70
     0
 40
0.0
 41
1.0
 50
0.0
 71
     0
 42
1.5
  3
txt
  4

  0
STYLE
  2
ARIAL
 70
     0
 40
0.0
 41
1.0
 50
0.0
 71
     0
 42
35.0
  3
txt
  4

  0
STYLE
  2
RIBB-36_TBARGE_RIB$0$ARIAL
 70
     0
 40
0.0
 41
1.0
 50
0.0
 71
     0
 42
1.5
  3
txt
  4

  0
STYLE
  2
RIBB-36_TBARGE_RIB$0$TEXT_
 70
     0
 40
0.0
 41
1.0
 50
0.0
 71
     0
 42
2.5
  3
txt
  4

  0
ENDTAB
  0
TABLE
  2
VIEW
 70
     2
  0
VIEW
  2
COMM-04
 70
     1
 40
477.26027331217421
 10
194.21746115522001
 20
180.60494410563541
 41
755.81685306636155
 11
0.0
 21
0.0
 31
1.0
 12
0.0
 22
0.0
 32
0.0
 42
50.0
 43
0.0
 44
0.0
 50
0.0
 71
     0
  0
ENDTAB
  0
TABLE
  2
UCS
 70
     0
  0
ENDTAB
  0
TABLE
  2
APPID
 70
    31
  0
APPID
  2
ACAD
 70
     0
  0
APPID
  2
RAK
 70
     0
  0
APPID
  2
ACAD_EXEMPT_FROM_CAD_STANDARDS
 70
     0
  0
APPID
  2
ACAD_MLEADERVER
 70
     0
  0
APPID
  2
ACAECLAYERSTANDARD
 70
     0
  0
APPID
  2
ACAD_DSTYLE_DIMEXT_ENABLED
 70
     0
  0
APPID
  2
ACAD_DSTYLE_DIMEXT_LENGTH
 70
     0
  0
APPID
  2
GENIUS_GENOREF_13
 70
     0
  0
APPID
  2
ACDBBLOCKREPETAG
 70
     0
  0
APPID
  2
ACDBDYNAMICBLOCKGUID
 70
     0
  0
APPID
  2
ACADANNOTATIVE
 70
     0
  0
APPID
  2
GRADIENTCOLOR1ACI
 70
     0
  0
APPID
  2
GRADIENTCOLOR2ACI
 70
     0
  0
APPID
  2
ACADANNOPO
 70
     0
  0
APPID
  2
GENIUS_GENREC_14
 70
     0
  0
APPID
  2
GENIUS_GENOBJ-N-REC_13
 70
     0
  0
APPID
  2
GENIUS_GENODEF_13
 70
     0
  0
APPID
  2
ACAUTHENVIRON
 70
     0
  0
APPID
  2
ACDBDYNAMICBLOCKTRUENAME
 70
     0
  0
APPID
  2
GENIUS_GENSCREG_15
 70
     0
  0
APPID
  2
GENIUS_GENOBJ-N-SDF_13
 70
     0
  0
APPID
  2
PE_URL
 70
     0
  0
APPID
  2
GENIUS_GENCFG_13
 70
     0
  0
APPID
  2
GENIUS_GENCFG0_13
 70
     0
  0
APPID
  2
ACAD_PSEXT
 70
     0
  0
APPID
  2
ACCMTRANSPARENCY
 70
     0
  0
APPID
  2
ADESKUNDERLAYLAYEROVERRIDEDATA
 70
     0
  0
APPID
  2
URBANX
 70
     0
  0
APPID
  2
ACAD_NAV_VCDISPLAY
 70
     0
  0
APPID
  2
ACAD_DSTYLE_DIMJOGGED_JOGA
 70
     0
  0
APPID
  2
CONTENTBLOCKICON
 70
     0
  0
ENDTAB
  0
TABLE
  2
DIMSTYLE
 70
     5
  0
DIMSTYLE
  2
1_TO_10_LEADER
 70
     0
  3

  4

  5
ARCHTICK
  6

  7

 40
10.0
 41
2.0
 42
2.0
 43
6.0
 44
1.5
 45
0.0
 46
1.5
 47
0.0
 48
0.0
140
2.0
141
2.0
142
0.0
143
0.0394
144
1.0
145
0.0
146
1.0
147
1.0
 71
     0
 72
     0
 73
     0
 74
     0
 75
     0
 76
     0
 77
     0
 78
     0
170
     0
171
     2
172
     1
173
     0
174
     1
175
     0
176
     0
177
     0
178
     0
  0
DIMSTYLE
  2
1_TO_5
 70
     0
  3
mm
  4

  5
ARCHTICK
  6

  7

 40
5.0
 41
2.0
 42
2.0
 43
6.0
 44
2.0
 45
0.0
 46
2.0
 47
0.0
 48
0.0
140
2.0
141
2.0
142
0.0
143
0.0394
144
1.0
145
0.0
146
1.0
147
1.0
 71
     0
 72
     0
 73
     0
 74
     0
 75
     0
 76
     0
 77
     1
 78
     0
170
     0
171
     2
172
     0
173
     0
174
     0
175
     0
176
   256
177
   256
178
   256
  0
DIMSTYLE
  2
RIBB-36_TBARGE_RIB$0$1_TO_
 70
     0
  3

  4

  5
RIBB-36_TBARGE_RIB$0$_ARCH
  6

  7

 40
10.0
 41
2.0
 42
2.0
 43
6.0
 44
1.5
 45
0.0
 46
1.5
 47
0.0
 48
0.0
140
2.0
141
2.0
142
0.0
143
0.0394
144
1.0
145
0.0
146
1.0
147
1.0
 71
     0
 72
     0
 73
     0
 74
     0
 75
     0
 76
     0
 77
     0
 78
     0
170
     0
171
     2
172
     1
173
     0
174
     1
175
     0
176
     0
177
     0
178
     0
  0
DIMSTYLE
  2
RIBB-36_TBARGE_RIB$0$1_TO0
 70
     0
  3

  4

  5
RIBB-36_TBARGE_RIB$0$_ARCH
  6

  7

 40
5.0
 41
2.0
 42
2.0
 43
6.0
 44
1.5
 45
0.0
 46
1.5
 47
0.0
 48
0.0
140
2.0
141
2.0
142
0.0
143
0.0394
144
1.0
145
0.0
146
1.0
147
1.0
 71
     0
 72
     0
 73
     0
 74
     0
 75
     0
 76
     0
 77
     0
 78
     0
170
     0
171
     2
172
     1
173
     0
174
     1
175
     0
176
     0
177
     0
178
     0
  0
ENDTAB
  0
ENDSEC
  0
SECTION
  2
BLOCKS
  0
BLOCK
  8
0
  2
$MODEL_SPACE
 70
     0
 10
0.0
 20
0.0
 30
0.0
  3
$MODEL_SPACE
  1

  0
ENDBLK
  5
C
  8
0
  0
BLOCK
 67
     1
  8
0
  2
$PAPER_SPACE
 70
     0
 10
0.0
 20
0.0
 30
0.0
  3
$PAPER_SPACE
  1

  0
ENDBLK
  5
1E24
 67
     1
  8
0
  0
BLOCK
  8
0
  2
EW_25
 70
     0
 10
0.0
 20
0.0
 30
0.0
  3
EW_25
  1

  0
LINE
  5
94A
  8
0
 10
-4.2446249999976544
 20
9.874999999998181
 30
0.0
 11
-5.4696249999990414
 21
9.5250000000003183
 31
0.0
1001
ACDBBLOCKREPETAG
1070
     1
1071
        0
1005
94A
  0
LINE
  5
94B
  8
0
 10
4.2446250000001546
 20
9.8750000000002274
 30
0.0
 11
-4.244624999996403
 21
9.875
 31
0.0
1001
ACDBBLOCKREPETAG
1070
     1
1071
        1
1005
94B
  0
LINE
  5
94C
  8
0
 10
0.7500000000007958
 20
12.089999999999691
 30
0.0
 11
-0.7499999999995453
 21
12.089999999999691
 31
0.0
1001
ACDBBLOCKREPETAG
1070
     1
1071
        2
1005
94C
  0
LINE
  5
94D
  8
0
 10
-2.1223124999970651
 20
9.8750000000002274
 30
0.0
 11
-2.1223124999971779
 21
13.336812499999491
 31
0.0
1001
ACDBBLOCKREPETAG
1070
     1
1071
        3
1005
94D
  0
LINE
  5
94E
  8
0
 10
2.1223124999985421
 20
9.8750000000004547
 30
0.0
 11
2.1223125000003611
 21
13.336812499999491
 31
0.0
1001
ACDBBLOCKREPETAG
1070
     1
1071
        4
1005
94E
  0
LINE
  5
94F
  8
0
 10
4.2446250000001546
 20
9.8750000000002274
 30
0.0
 11
4.2446250000002692
 21
13.336812499999951
 31
0.0
1001
ACDBBLOCKREPETAG
1070
     1
1071
        5
1005
94F
  0
LINE
  5
950
  8
0
 10
-4.244624999996403
 20
9.875
 30
0.0
 11
-4.2446249999986767
 21
13.33681249999972
 31
0.0
1001
ACDBBLOCKREPETAG
1070
     1
1071
        6
1005
950
  0
LINE
  5
951
  8
0
 10
5.4696250000004047
 20
8.4999999999997726
 30
0.0
 11
-5.4696249999992679
 21
8.5000000000002274
 31
0.0
1001
ACDBBLOCKREPETAG
1070
     1
1071
        7
1005
951
  0
LINE
  5
952
  8
0
 10
3.183468750001111
 20
13.6400000000001
 30
0.0
 11
0.7500000000010232
 21
13.63999999999964
 31
0.0
1001
ACDBBLOCKREPETAG
1070
     1
1071
        8
1005
952
  0
ARC
  5
953
  8
0
 10
-0.0000000000013642
 20
6.0603125000011451
 30
0.0
 40
7.579687499999995
 50
73.739795291610918
 51
84.321366531677086
1001
ACDBBLOCKREPETAG
1070
     1
1071
        9
1005
953
  0
ARC
  5
954
  8
0
 10
-3.18346874999986
 20
11.6313828125003
 30
0.0
 40
2.008617187499675
 50
58.109208198170201
 51
121.89079180182981
1001
ACDBBLOCKREPETAG
1070
     1
1071
       10
1005
954
  0
ARC
  5
955
  8
0
 10
3.183468750000884
 20
11.63138281250121
 30
0.0
 40
2.008617187499675
 50
58.109208198170201
 51
121.89079180182981
1001
ACDBBLOCKREPETAG
1070
     1
1071
       11
1005
955
  0
ARC
  5
956
  8
0
 10
-0.0000000000013642
 20
6.0603125000011451
 30
0.0
 40
7.579687499999995
 50
95.678633468293754
 51
106.2602047083479
1001
ACDBBLOCKREPETAG
1070
     1
1071
       12
1005
956
  0
LINE
  5
957
  8
0
 10
-0.7499999999989769
 20
13.6400000000001
 30
0.0
 11
-3.1834687499997472
 21
13.63999999999942
 31
0.0
1001
ACDBBLOCKREPETAG
1070
     1
1071
       13
1005
957
  0
LINE
  5
958
  8
0
 10
5.4696250000001783
 20
9.5249999999991815
 30
0.0
 11
4.2446250000006103
 21
9.8750000000002274
 31
0.0
1001
ACDBBLOCKREPETAG
1070
     1
1071
       14
1005
958
  0
LINE
  5
959
  8
0
 10
-5.4696249999992679
 20
8.5000000000002274
 30
0.0
 11
-5.4696249999990414
 21
9.5250000000003183
 31
0.0
1001
ACDBBLOCKREPETAG
1070
     1
1071
       15
1005
959
  0
LINE
  5
95A
  8
0
 10
5.4696250000004047
 20
8.4999999999997726
 30
0.0
 11
5.4696250000001783
 21
9.5249999999991815
 31
0.0
1001
ACDBBLOCKREPETAG
1070
     1
1071
       16
1005
95A
  0
LINE
  5
95B
  8
0
 10
0.7500000000010232
 20
13.63999999999964
 30
0.0
 11
0.7500000000007958
 21
12.089999999999691
 31
0.0
1001
ACDBBLOCKREPETAG
1070
     1
1071
       17
1005
95B
  0
LINE
  5
95C
  8
0
 10
-0.7499999999989769
 20
13.6400000000001
 30
0.0
 11
-0.7499999999995453
 21
12.089999999999691
 31
0.0
1001
ACDBBLOCKREPETAG
1070
     1
1071
       18
1005
95C
  0
LINE
  5
95D
  8
0
 10
-1.499999999998181
 20
-31.14032554232983
 30
0.0
 11
1.5000000000022731
 21
-30.336477965037041
 31
0.0
1001
ACDBBLOCKREPETAG
1070
     1
1071
       19
1005
95D
  0
LINE
  5
95E
  8
0
 10
-1.4999999999985221
 20
-34.35571585150285
 30
0.0
 11
1.500000000001932
 21
-33.551868274209831
 31
0.0
1001
ACDBBLOCKREPETAG
1070
     1
1071
       20
1005
95E
  0
LINE
  5
95F
  8
0
 10
-1.4999999999986351
 20
-37.571106160676102
 30
0.0
 11
1.5000000000018181
 21
-36.76725858338262
 31
0.0
1001
ACDBBLOCKREPETAG
1070
     1
1071
       21
1005
95F
  0
LINE
  5
960
  8
0
 10
-1.499999999998749
 20
-40.786496469849112
 30
0.0
 11
1.5000000000012499
 21
-39.98264889255654
 31
0.0
1001
ACDBBLOCKREPETAG
1070
     1
1071
       22
1005
960
  0
LINE
  5
961
  8
0
 10
-1.4999999999988629
 20
-44.00188677902235
 30
0.0
 11
1.500000000001136
 21
-43.198039201729323
 31
0.0
1001
ACDBBLOCKREPETAG
1070
     1
1071
       23
1005
961
  0
LINE
  5
962
  8
0
 10
-1.4999999999990901
 20
-47.217277088194457
 30
0.0
 11
1.500000000001023
 21
-46.413429510902567
 31
0.0
1001
ACDBBLOCKREPETAG
1070
     1
1071
       24
1005
962
  0
LINE
  5
963
  8
0
 10
-1.4999999999989759
 20
-50.432667397368391
 30
0.0
 11
1.5000000000007949
 21
-49.628819820074447
 31
0.0
1001
ACDBBLOCKREPETAG
1070
     1
1071
       25
1005
963
  0
LINE
  5
964
  8
0
 10
-1.5000000000009091
 20
-53.648057706541401
 30
0.0
 11
1.5000000000007949
 21
-52.844210129247237
 31
0.0
1001
ACDBBLOCKREPETAG
1070
     1
1071
       26
1005
964
  0
LINE
  5
965
  8
0
 10
-1.4999999999994309
 20
-56.863448015714432
 30
0.0
 11
1.5000000000006819
 21
-56.059600438420937
 31
0.0
1001
ACDBBLOCKREPETAG
1070
     1
1071
       27
1005
965
  0
LINE
  5
966
  8
0
 10
-1.499999999999204
 20
-60.07883832488676
 30
0.0
 11
1.5000000000007949
 21
-59.274990747593733
 31
0.0
1001
ACDBBLOCKREPETAG
1070
     1
1071
       28
1005
966
  0
LINE
  5
967
  8
0
 10
-1.499999999999772
 20
-63.29422863405955
 30
0.0
 11
1.5000000000003411
 21
-62.490381056767433
 31
0.0
1001
ACDBBLOCKREPETAG
1070
     1
1071
       29
1005
967
  0
LINE
  5
968
  8
0
 10
-1.5000000000015909
 20
-66.509618943233477
 30
0.0
 11
1.500000000000113
 21
-65.705771365940222
 31
0.0
1001
ACDBBLOCKREPETAG
1070
     1
1071
       30
1005
968
  0
LINE
  5
969
  8
0
 10
1.500000000001023
 20
3.5
 30
0.0
 11
1.5000000000004541
 21
-71.499999999999204
 31
0.0
1001
ACDBBLOCKREPETAG
1070
     1
1071
       31
1005
969
  0
LINE
  5
96A
  8
0
 10
-1.499999999998181
 20
3.499999999999317
 30
0.0
 11
-1.5000000000009091
 21
-71.499999999998295
 31
0.0
1001
ACDBBLOCKREPETAG
1070
     1
1071
       32
1005
96A
  0
LINE
  5
96B
  8
0
 10
0.0
 20
-74.499999999999886
 30
0.0
 11
-1.5000000000009091
 21
-71.499999999998295
 31
0.0
1001
ACDBBLOCKREPETAG
1070
     1
1071
       33
1005
96B
  0
LINE
  5
96C
  8
0
 10
0.0
 20
-74.499999999999886
 30
0.0
 11
1.5000000000004541
 21
-71.499999999999204
 31
0.0
1001
ACDBBLOCKREPETAG
1070
     1
1071
       34
1005
96C
  0
LINE
  5
96D
  8
0
 10
-1.4999999999998861
 20
-69.725009252405357
 30
0.0
 11
1.5000000000002269
 21
-68.921161675112785
 31
0.0
1001
ACDBBLOCKREPETAG
1070
     1
1071
       35
1005
96D
  0
LINE
  5
96E
  8
0
 10
-0.8648889638334367
 20
-72.770222072334377
 30
0.0
 11
1.1324865405186979
 21
-72.23502691896158
 31
0.0
1001
ACDBBLOCKREPETAG
1070
     1
1071
       36
1005
96E
  0
LINE
  5
96F
  8
0
 10
-12.5
 20
0.5000000000002274
 30
0.0
 11
12.5
 21
0.5
 31
0.0
1001
ACDBBLOCKREPETAG
1070
     1
1071
       37
1005
96F
  0
LINE
  5
970
  8
0
 10
12.5
 20
0.5
 30
0.0
 11
12.500000000000449
 21
3.4999999999995448
 31
0.0
1001
ACDBBLOCKREPETAG
1070
     1
1071
       38
1005
970
  0
LINE
  5
971
  8
0
 10
-12.499999999999771
 20
3.5000000000004539
 30
0.0
 11
12.500000000000449
 21
3.4999999999995448
 31
0.0
1001
ACDBBLOCKREPETAG
1070
     1
1071
       39
1005
971
  0
LINE
  5
972
  8
0
 10
4.5000000000003411
 20
6.4999999999997717
 30
0.0
 11
12.500000000000449
 21
3.4999999999995448
 31
0.0
1001
ACDBBLOCKREPETAG
1070
     1
1071
       40
1005
972
  0
LINE
  5
973
  8
0
 10
-2.9999999999995448
 20
8.5000000000002274
 30
0.0
 11
3.0000000000004539
 21
8.4999999999997726
 31
0.0
1001
ACDBBLOCKREPETAG
1070
     1
1071
       41
1005
973
  0
LINE
  5
974
  8
0
 10
-12.5
 20
0.5000000000002274
 30
0.0
 11
-12.499999999999771
 21
3.5000000000004539
 31
0.0
1001
ACDBBLOCKREPETAG
1070
     1
1071
       42
1005
974
  0
LINE
  5
975
  8
0
 10
-4.4999999999994307
 20
6.5000000000002274
 30
0.0
 11
-4.499999999999317
 21
8.5
 31
0.0
1001
ACDBBLOCKREPETAG
1070
     1
1071
       43
1005
975
  0
LINE
  5
976
  8
0
 10
4.5000000000003411
 20
6.4999999999997717
 30
0.0
 11
4.5000000000004539
 21
8.4999999999993179
 31
0.0
1001
ACDBBLOCKREPETAG
1070
     1
1071
       44
1005
976
  0
LINE
  5
977
  8
0
 10
-12.499999999999771
 20
3.5000000000004539
 30
0.0
 11
-4.4999999999994307
 21
6.5000000000002274
 31
0.0
1001
ACDBBLOCKREPETAG
1070
     1
1071
       45
1005
977
  0
SOLID
  5
978
  8
0
 10
-12.499999999999771
 20
3.5000000000004539
 30
0.0
 11
-12.5
 21
0.5000000000002274
 31
0.0
 12
12.500000000000449
 22
3.4999999999995448
 32
0.0
 13
12.5
 23
0.5
 33
0.0
1001
ACDBBLOCKREPETAG
1070
     1
1071
       46
1005
978
  0
LINE
  5
979
  8
0
 10
-4.4999999999994307
 20
6.5000000000002274
 30
0.0
 11
4.5000000000003411
 21
6.4999999999997717
 31
0.0
1001
ACDBBLOCKREPETAG
1070
     1
1071
       47
1005
979
  0
ENDBLK
  5
97A
  8
0
  0
BLOCK
  8
0
  2
_ARCHTICK
 70
     0
 10
0.0
 20
0.0
 30
0.0
  3
_ARCHTICK
  1

  0
POLYLINE
  5
B6A
  8
0
  6
BYBLOCK
 62
     0
 66
     1
 10
0.0
 20
0.0
 30
0.0
 40
0.15
 41
0.15
  0
VERTEX
  5
1ECB
  8
0
  6
BYBLOCK
 62
     0
 10
-0.5
 20
-0.5
 30
0.0
  0
VERTEX
  5
1ECC
  8
0
  6
BYBLOCK
 62
     0
 10
0.5
 20
0.5
 30
0.0
  0
SEQEND
  5
1ECD
  8
0
  6
BYBLOCK
 62
     0
  0
ENDBLK
  5
B6C
  8
0
  0
BLOCK
  8
0
  2
RIBB-36_TBARGE_RIB$0$_ARCH
 70
     0
 10
0.0
 20
0.0
 30
0.0
  3
RIBB-36_TBARGE_RIB$0$_ARCH
  1

  0
POLYLINE
  5
1DA1
  8
0
  6
BYBLOCK
 62
     0
 66
     1
 10
0.0
 20
0.0
 30
0.0
 40
0.15
 41
0.15
  0
VERTEX
  5
1EF6
  8
0
  6
BYBLOCK
 62
     0
 10
-0.5
 20
-0.5
 30
0.0
  0
VERTEX
  5
1EF7
  8
0
  6
BYBLOCK
 62
     0
 10
0.5
 20
0.5
 30
0.0
  0
SEQEND
  5
1EF8
  8
0
  6
BYBLOCK
 62
     0
  0
ENDBLK
  5
1DA2
  8
0
  0
BLOCK
  8
0
  2
*U11
 70
     1
 10
0.0
 20
0.0
 30
0.0
  3
*U11
  1

  0
SOLID
  5
1EA8
  8
0
 10
470.3104633319216
 20
63.470614788250302
 30
0.0
 11
455.69637797174943
 21
77.525493663456245
 31
0.0
 12
474.0788518665737
 22
68.970041330749723
 32
0.0
 13
474.0788518665737
 23
68.970041330749723
 33
0.0
  0
POLYLINE
  5
1EA9
  8
0
 66
     1
 10
0.0
 20
0.0
 30
0.0
  0
VERTEX
  5
1EAA
  8
0
 10
472.19465759924759
 20
66.220328059500019
 30
0.0
  0
VERTEX
  5
1EAB
  8
0
 10
610.70173056869476
 20
-28.689288736483832
 30
0.0
  0
VERTEX
  5
1EAC
  8
0
 10
630.70173056869476
 20
-28.689288736483832
 30
0.0
  0
SEQEND
  5
1EAD
  8
0
  0
ENDBLK
  5
1EAF
  8
0
  0
BLOCK
  8
0
  2
*U12
 70
     1
 10
0.0
 20
0.0
 30
0.0
  3
*U12
  1

  0
TEXT
  5
1EB1
  8
0
 10
639.44661460689395
 20
-35.91984808164073
 30
0.0
 40
20.0
  1
Steel & Tube Hi Rib profile roofing
  7
$0$ARIAL
  0
ENDBLK
  5
1EB3
  8
0
  0
BLOCK
  8
0
  2
*U13
 70
     1
 10
0.0
 20
0.0
 30
0.0
  3
*U13
  1

  0
TEXT
  5
1F7B
  8
0
 10
527.69791325347001
 20
-751.67985279162963
 30
0.0
 40
10.0
  1
Fascia
  7
RIBB-36_TBARGE_RIB$0$TEXT_
  0
ENDBLK
  5
1F7D
  8
0
  0
BLOCK
  8
0
  2
*U14
 70
     1
 10
0.0
 20
0.0
 30
0.0
  3
*U14
  1

  0
SOLID
  5
1F84
  8
0
 10
462.21320467452267
 20
-794.52317648088012
 30
0.0
 11
453.6111094362783
 21
-799.88803764310524
 31
0.0
 12
460.00827158200411
 22
-792.02330025021843
 32
0.0
 13
460.00827158200411
 23
-792.02330025021843
 33
0.0
  0
POLYLINE
  5
1F85
  8
0
 66
     1
 10
0.0
 20
0.0
 30
0.0
  0
VERTEX
  5
1F86
  8
0
 10
461.11073812826339
 20
-793.27323836554933
 30
0.0
  0
VERTEX
  5
1F87
  8
0
 10
513.84388869685336
 20
-746.76170818044261
 30
0.0
  0
VERTEX
  5
1F88
  8
0
 10
523.84388869685336
 20
-746.76170818044261
 30
0.0
  0
SEQEND
  5
1F89
  8
0
  0
ENDBLK
  5
1F8B
  8
0
  0
BLOCK
  8
0
  2
*U15
 70
     1
 10
0.0
 20
0.0
 30
0.0
  3
*U15
  1

  0
SOLID
  5
1F8D
  8
0
  6
CONTINUOUS
 10
843.37867500899335
 20
668.52346427713258
 30
0.0
 11
843.37867500899335
 21
658.52346427713246
 31
0.0
 12
873.37867500899347
 22
658.52346427713246
 32
0.0
 13
873.37867500899347
 23
658.52346427713246
 33
0.0
210
0.0
220
0.0
230
1.0
  0
SOLID
  5
1F8E
  8
0
  6
CONTINUOUS
 10
-843.37867500899335
 20
668.52346427713258
 30
0.0
 11
-873.37867500899347
 21
668.52346427713258
 31
0.0
 12
-873.37867500899347
 22
658.52346427713246
 32
0.0
 13
-873.37867500899347
 23
658.52346427713246
 33
0.0
210
0.0
220
0.0
230
-1.0
  0
LINE
  5
1F8F
  8
0
  6
CONTINUOUS
 10
843.37867500899335
 20
668.52346427713258
 30
0.0
 11
843.37867500899335
 21
658.52346427713246
 31
0.0
  0
LINE
  5
1F90
  8
0
  6
CONTINUOUS
 10
873.37867500899347
 20
668.52346427713258
 30
0.0
 11
873.37867500899347
 21
658.52346427713246
 31
0.0
  0
ENDBLK
  5
1F92
  8
0
  0
BLOCK
  8
0
  2
*U16
 70
     1
 10
0.0
 20
0.0
 30
0.0
  3
*U16
  1

  0
SOLID
  5
1F94
  8
0
  6
CONTINUOUS
 10
843.37867500899335
 20
251.56686204674591
 30
0.0
 11
843.37867500899335
 21
241.56686204674591
 31
0.0
 12
873.37867500899347
 22
241.56686204674591
 32
0.0
 13
873.37867500899347
 23
241.56686204674591
 33
0.0
210
0.0
220
0.0
230
1.0
  0
SOLID
  5
1F95
  8
0
  6
CONTINUOUS
 10
-843.37867500899335
 20
251.56686204674591
 30
0.0
 11
-873.37867500899347
 21
251.56686204674591
 31
0.0
 12
-873.37867500899347
 22
241.56686204674591
 32
0.0
 13
-873.37867500899347
 23
241.56686204674591
 33
0.0
210
0.0
220
0.0
230
-1.0
  0
LINE
  5
1F96
  8
0
  6
CONTINUOUS
 10
843.37867500899335
 20
251.56686204674591
 30
0.0
 11
843.37867500899335
 21
241.56686204674591
 31
0.0
  0
LINE
  5
1F97
  8
0
  6
CONTINUOUS
 10
873.37867500899347
 20
251.56686204674591
 30
0.0
 11
873.37867500899347
 21
241.56686204674591
 31
0.0
  0
ENDBLK
  5
1F99
  8
0
  0
BLOCK
  8
0
  2
*U17
 70
     1
 10
0.0
 20
0.0
 30
0.0
  3
*U17
  1

  0
TEXT
  5
1F9B
  8
0
 10
873.37867500899347
 20
680.62285812685695
 30
0.0
 40
30.0
  1
A
 50
90.0
  7
RIBB-36_TBARGE_RIB$0$ARIAL
  0
ENDBLK
  5
1F9D
  8
0
  0
BLOCK
  8
0
  2
*U18
 70
     1
 10
0.0
 20
0.0
 30
0.0
  3
*U18
  1

  0
TEXT
  5
1F9F
  8
0
 10
873.3786750089929
 20
207.3709536355608
 30
0.0
 40
30.0
  1
A
 50
90.0
  7
RIBB-36_TBARGE_RIB$0$ARIAL
  0
ENDBLK
  5
1FA1
  8
0
  0
BLOCK
  8
0
  2
*U19
 70
     1
 10
0.0
 20
0.0
 30
0.0
  3
*U19
  1

  0
TEXT
  5
1FA3
  8
0
 10
265.87725181313391
 20
-889.40089363571758
 30
0.0
 40
15.0
  1
Section AA
  7
RIBB-36_TBARGE_RIB$0$ARIAL
  0
TEXT
  5
1FA4
  8
0
 10
308.00714628789518
 20
-909.44187153476275
 30
0.0
 40
10.00005
  1
1:5
  7
RIBB-36_TBARGE_RIB$0$ARIAL
  0
ENDBLK
  5
1FA6
  8
0
  0
BLOCK
  8
0
  2
*U20
 70
     1
 10
0.0
 20
0.0
 30
0.0
  3
*U20
  1

  0
SOLID
  5
1FAB
  8
0
  6
CONTINUOUS
 10
214.39078161437209
 20
541.57853415035902
 30
0.0
 11
196.6150760700711
 21
531.82479622516234
 31
0.0
 12
210.26655820380549
 22
546.81639876336487
 32
0.0
 13
210.26655820380549
 23
546.81639876336487
 33
0.0
  0
POLYLINE
  5
1FAC
  8
0
  6
CONTINUOUS
 66
     1
 10
0.0
 20
0.0
 30
0.0
  0
VERTEX
  5
1FAD
  8
0
  6
CONTINUOUS
 10
212.3286699090888
 20
544.19746645686178
 30
0.0
  0
VERTEX
  5
1FAE
  8
0
  6
CONTINUOUS
 10
610.70173056869498
 20
857.87100029196336
 30
0.0
  0
VERTEX
  5
1FAF
  8
0
  6
CONTINUOUS
 10
630.70173056869487
 20
857.87100029196336
 30
0.0
  0
SEQEND
  5
1FB0
  8
0
  6
CONTINUOUS
  0
ENDBLK
  5
1FB2
  8
0
  0
BLOCK
  8
0
  2
*U21
 70
     1
 10
0.0
 20
0.0
 30
0.0
  3
*U21
  1

  0
TEXT
  5
1FB4
  8
0
 10
638.49163507074127
 20
884.48537046022147
 30
0.0
 40
20.0
  1
Extend barge up pitch of
  7
RIBB-36_TBARGE_RIB$0$ARIAL
  0
TEXT
  5
1FB5
  8
0
 10
638.88726945000462
 20
850.81097300683371
 30
0.0
 40
20.0
  1
roof to achieve sufficient
  7
RIBB-36_TBARGE_RIB$0$ARIAL
  0
TEXT
  5
1FB6
  8
0
 10
640.44252183745346
 20
817.13657555344571
 30
0.0
 40
20.0
  1
fall to avoid ponding
  7
RIBB-36_TBARGE_RIB$0$ARIAL
  0
ENDBLK
  5
1FB8
  8
0
  0
BLOCK
  8
0
  2
*U22
 70
     1
 10
0.0
 20
0.0
 30
0.0
  3
*U22
  1

  0
SOLID
  5
1FBA
  8
0
  6
CONTINUOUS
 10
573.16396088545753
 20
632.72041589963055
 30
0.0
 11
562.88405271430724
 21
615.24372859614436
 31
0.0
 12
566.94017537237266
 22
635.10975437116645
 32
0.0
 13
566.94017537237266
 23
635.10975437116645
 33
0.0
  0
POLYLINE
  5
1FBB
  8
0
  6
CONTINUOUS
 66
     1
 10
0.0
 20
0.0
 30
0.0
  0
VERTEX
  5
1FBC
  8
0
  6
CONTINUOUS
 10
570.05206812891515
 20
633.91508513539839
 30
0.0
  0
VERTEX
  5
1FBD
  8
0
  6
CONTINUOUS
 10
610.70173056869498
 20
739.79994959407361
 30
0.0
  0
VERTEX
  5
1FBE
  8
0
  6
CONTINUOUS
 10
630.70173056869487
 20
739.79994959407361
 30
0.0
  0
SEQEND
  5
1FBF
  8
0
  6
CONTINUOUS
  0
ENDBLK
  5
1FC1
  8
0
  0
BLOCK
  8
0
  2
*U23
 70
     1
 10
0.0
 20
0.0
 30
0.0
  3
*U23
  1

  0
TEXT
  5
1FC3
  8
0
 10
638.65534584836757
 20
732.73992230894396
 30
0.0
 40
20.0
  1
Barge
  7
RIBB-36_TBARGE_RIB$0$ARIAL
  0
ENDBLK
  5
1FC5
  8
0
  0
BLOCK
  8
0
  2
*U24
 70
     1
 10
0.0
 20
0.0
 30
0.0
  3
*U24
  1

  0
SOLID
  5
1FC7
  8
0
  6
CONTINUOUS
 10
99.593695553532143
 20
541.59805135336148
 30
0.0
 11
100.0387785659079
 21
521.32706192947785
 31
0.0
 12
93.043379146455024
 22
540.35797094805685
 32
0.0
 13
93.043379146455024
 23
540.35797094805685
 33
0.0
  0
POLYLINE
  5
1FC8
  8
0
  6
CONTINUOUS
 66
     1
 10
0.0
 20
0.0
 30
0.0
  0
VERTEX
  5
1FC9
  8
0
  6
CONTINUOUS
 10
96.318537349993605
 20
540.97801115070922
 30
0.0
  0
VERTEX
  5
1FCA
  8
0
  6
CONTINUOUS
 10
73.902530276781306
 20
659.38318736727331
 30
0.0
  0
VERTEX
  5
1FCB
  8
0
  6
CONTINUOUS
 10
53.902530276781313
 20
659.38318736727331
 30
0.0
  0
SEQEND
  5
1FCC
  8
0
  6
CONTINUOUS
  0
ENDBLK
  5
1FCE
  8
0
  0
BLOCK
  8
0
  2
*U25
 70
     1
 10
0.0
 20
0.0
 30
0.0
  3
*U25
  1

  0
TEXT
  5
1FD0
  8
0
 10
-131.18614639443291
 20
649.54689814489961
 30
0.0
 40
20.0
  1
Rivet and seal
  7
RIBB-36_TBARGE_RIB$0$ARIAL
  0
ENDBLK
  5
1FD2
  8
0
  0
BLOCK
  8
0
  2
*U26
 70
     1
 10
0.0
 20
0.0
 30
0.0
  3
*U26
  1

  0
TEXT
  5
1FF2
  8
0
 10
213.55631047616271
 20
-118.3467258431657
 30
0.0
 40
30.0
  1
Section AA
  7
RIBB-36_TBARGE_RIB$0$ARIAL
  0
TEXT
  5
1FF3
  8
0
 10
290.15576098775892
 20
-158.42868164125571
 30
0.0
 40
20.0001
  1
1:10
  7
RIBB-36_TBARGE_RIB$0$ARIAL
  0
ENDBLK
  5
1FF5
  8
0
  0
BLOCK
  8
0
  2
*U27
 70
     1
 10
0.0
 20
0.0
 30
0.0
  3
*U27
  1

  0
TEXT
  5
1FF7
  8
0
 10
527.69791325347001
 20
-600.54492817771052
 30
0.0
 40
10.0
  1
Folded section to
  7
RIBB-36_TBARGE_RIB$0$TEXT_
  0
TEXT
  5
1FF8
  8
0
 10
528.41414790558463
 20
-617.21159484437715
 30
0.0
 40
10.0
  1
suit rib height
  7
RIBB-36_TBARGE_RIB$0$TEXT_
  0
ENDBLK
  5
1FFA
  8
0
  0
BLOCK
  8
0
  2
*U28
 70
     1
 10
0.0
 20
0.0
 30
0.0
  3
*U28
  1

  0
SOLID
  5
1FFC
  8
0
 10
464.3189099039584
 20
-659.82613631172512
 30
0.0
 11
456.21888734071342
 21
-665.92264451336814
 31
0.0
 12
461.90382494325007
 22
-657.52864295076154
 32
0.0
 13
461.90382494325007
 23
-657.52864295076154
 33
0.0
  0
POLYLINE
  5
1FFD
  8
0
 66
     1
 10
0.0
 20
0.0
 30
0.0
  0
VERTEX
  5
1FFE
  8
0
 10
463.11136742360418
 20
-658.67738963124327
 30
0.0
  0
VERTEX
  5
1FFF
  8
0
 10
513.84388869685336
 20
-605.34824786847901
 30
0.0
  0
VERTEX
  5
2000
  8
0
 10
523.84388869685336
 20
-605.34824786847901
 30
0.0
  0
SEQEND
  5
2001
  8
0
  0
ENDBLK
  5
2003
  8
0
  0
ENDSEC
  0
SECTION
  2
ENTITIES
  0
LINE
  5
757
  8
0
 10
-460.80101678954952
 20
909.24372881798638
 30
0.0
 11
437.53231654378652
 21
909.24372881798638
 31
0.0
  0
INSERT
  5
778
  8
0
  2
*U11
 10
0.0
 20
0.0
 30
0.0
1001
ACAD
1000
DSTYLE
1002
{
1070
   147
1040
1.0
1070
    77
1070
     0
1002
}
  0
INSERT
  5
779
  8
0
  2
*U12
 10
0.0
 20
0.0
 30
0.0
  0
INSERT
  5
9C4
  8
0
  2
EW_25
 10
187.60268937544939
 20
-622.23297472085767
 30
0.0
  0
POLYLINE
  5
D2C
  8
0
 66
     1
 10
0.0
 20
0.0
 30
0.0
 70
   128
 40
0.5999999999999995
 41
0.5999999999999995
  0
VERTEX
  5
1ECE
  8
0
 10
144.09728608437501
 20
-668.22605098497661
 30
0.0
  0
VERTEX
  5
1ECF
  8
0
 10
158.77553546388671
 20
-623.6079754824483
 30
0.0
 42
-0.3239072821617754
  0
VERTEX
  5
1ED0
  8
0
 10
160.6753712336278
 20
-622.23297472085767
 30
0.0
  0
VERTEX
  5
1ED1
  8
0
 10
454.21888734071342
 20
-622.23297472085767
 30
0.0
 42
-0.4142135623730951
  0
VERTEX
  5
1ED2
  8
0
 10
456.21888734071342
 20
-624.23297472085778
 30
0.0
  0
VERTEX
  5
1ED3
  8
0
 10
456.21888734071342
 20
-740.96994494682508
 30
0.0
 42
0.1989123673796633
  0
VERTEX
  5
1ED4
  8
0
 10
456.80467377834032
 20
-742.3841585091983
 30
0.0
  0
VERTEX
  5
1ED5
  8
0
 10
461.8480187246559
 20
-747.4275034555136
 30
0.0
 42
-0.4142135623730886
  0
VERTEX
  5
1ED6
  8
0
 10
461.8480187246559
 20
-750.25593058025981
 30
0.0
  0
VERTEX
  5
1ED7
  8
0
 10
459.7266983810963
 20
-752.37725092381947
 30
0.0
  0
SEQEND
  5
1ED8
  8
0
  0
LINE
  5
F7B
  8
0
 10
-460.80101443841028
 20
613.68563759331573
 30
0.0
 11
306.86565222825573
 21
613.68563759331573
 31
0.0
  0
LINE
  5
F7D
  8
0
 10
-460.80101443841028
 20
600.55525432107106
 30
0.0
 11
306.86565222825578
 21
600.55525432107106
 31
0.0
  0
LINE
  5
F7E
  8
0
 10
-460.80101443841028
 20
590.65587693570023
 30
0.0
 11
306.86565222825578
 21
590.65587693570023
 31
0.0
  0
LINE
  5
F80
  8
0
 10
-460.80101443841028
 20
577.52549366345602
 30
0.0
 11
100.03877856590761
 21
577.52549366345602
 31
0.0
  0
LINE
  5
F81
  8
0
 10
-460.80101443841028
 20
363.6856375933159
 30
0.0
 11
100.03877856590761
 21
363.6856375933159
 31
0.0
  0
LINE
  5
F83
  8
0
 10
-460.80101443841028
 20
350.55525432107129
 30
0.0
 11
306.86565222825561
 21
350.55525432107129
 31
0.0
  0
LINE
  5
F84
  8
0
 10
-460.80101443841028
 20
340.65587693570029
 30
0.0
 11
306.86565222825561
 21
340.65587693570029
 31
0.0
  0
LINE
  5
F86
  8
0
 10
-460.80101443841028
 20
327.52549366345607
 30
0.0
 11
306.86565222825561
 21
327.52549366345607
 31
0.0
  0
LINE
  5
F87
  8
0
 10
-460.80101443841022
 20
113.6856375933159
 30
0.0
 11
1009.19898556159
 21
113.6856375933159
 31
0.0
  0
LINE
  5
F89
  8
0
 10
-460.80101443841028
 20
100.5552543210714
 30
0.0
 11
1009.19898556159
 21
100.5552543210714
 31
0.0
  0
LINE
  5
F8A
  8
0
 10
-460.80101443841028
 20
90.655876935700462
 30
0.0
 11
1009.198985561589
 21
90.655876935700462
 31
0.0
  0
LINE
  5
F8C
  8
0
 10
-460.80101443841028
 20
77.525493663456245
 30
0.0
 11
1009.19898556159
 21
77.525493663456245
 31
0.0
  0
LINE
  5
F8D
  8
0
 10
-460.80101443841028
 20
863.68563759331562
 30
0.0
 11
437.53231889492309
 21
863.68563759331562
 31
0.0
  0
LINE
  5
F8F
  8
0
 10
-460.80101443841028
 20
850.55525432107095
 30
0.0
 11
437.53231889492309
 21
850.55525432107095
 31
0.0
  0
LINE
  5
F90
  8
0
 10
-460.80101443841028
 20
840.65587693570012
 30
0.0
 11
437.53231889492309
 21
840.65587693570012
 31
0.0
  0
LINE
  5
F92
  8
0
 10
-460.80101443841028
 20
827.52549366345579
 30
0.0
 11
437.53231889492309
 21
827.52549366345579
 31
0.0
  0
POLYLINE
  5
108D
  8
0
 66
     1
 10
0.0
 20
0.0
 30
0.0
 70
   129
  0
VERTEX
  5
1ED9
  8
0
 10
1009.198985561589
 20
615.24372859614436
 30
0.0
  0
VERTEX
  5
1EDA
  8
0
 10
306.86565222825578
 20
615.24372859614459
 30
0.0
  0
VERTEX
  5
1EDB
  8
0
 10
306.86565222825573
 20
588.48923666339533
 30
0.0
  0
VERTEX
  5
1EDC
  8
0
 10
100.03877856590761
 20
577.52549366345602
 30
0.0
  0
VERTEX
  5
1EDD
  8
0
 10
100.03877856590761
 20
363.6856375933159
 30
0.0
  0
VERTEX
  5
1EDE
  8
0
 10
306.86565222825573
 20
349.72189459337631
 30
0.0
  0
VERTEX
  5
1EDF
  8
0
 10
306.86565222825578
 20
316.47715318126848
 30
0.0
  0
VERTEX
  5
1EE0
  8
0
 10
1009.198985561589
 20
316.47715318126848
 30
0.0
  0
SEQEND
  5
1EE1
  8
0
  0
CIRCLE
  5
112C
  8
0
 10
122.9033365462905
 20
472.36044088870659
 30
0.0
 40
3.2666666666666662
  0
CIRCLE
  5
112D
  8
0
 10
122.9033365462905
 20
509.02743125851072
 30
0.0
 40
3.2666666666666662
  0
CIRCLE
  5
112E
  8
0
 10
122.9033365462905
 20
435.69345051890269
 30
0.0
 40
3.2666666666666662
  0
CIRCLE
  5
112F
  8
0
 10
122.9033365462905
 20
545.69442162831456
 30
0.0
 40
3.2666666666666662
  0
CIRCLE
  5
1130
  8
0
 10
122.9033365462905
 20
399.0264601490988
 30
0.0
 40
3.2666666666666662
  0
LINE
  5
13D9
  8
0
 10
306.86565222825578
 20
600.55525432107106
 30
0.0
 11
1009.198985561589
 21
600.55525432107106
 31
0.0
  0
LINE
  5
13DA
  8
0
 10
306.86565222825578
 20
590.65587693570023
 30
0.0
 11
1009.198985561589
 21
590.65587693570023
 31
0.0
  0
LINE
  5
13DB
  8
0
 10
306.86565222825561
 20
350.55525432107129
 30
0.0
 11
1009.198985561589
 21
350.55525432107129
 31
0.0
  0
LINE
  5
13DC
  8
0
 10
306.86565222825561
 20
340.65587693570029
 30
0.0
 11
1009.198985561589
 21
340.65587693570029
 31
0.0
  0
LINE
  5
1447
  8
0
 10
306.86565222825578
 20
324.47715318126848
 30
0.0
 11
1009.198985561589
 21
324.47715318126842
 31
0.0
  0
LINE
  5
1650
  8
0
 10
100.03877856590761
 20
577.52549366345602
 30
0.0
 11
1009.198985561589
 21
577.52549366345602
 31
0.0
  0
LINE
  5
165B
  8
0
 10
100.03877856590761
 20
363.6856375933159
 30
0.0
 11
1009.198985561589
 21
363.6856375933159
 31
0.0
  0
LINE
  5
165C
  8
0
 10
306.86565222825561
 20
327.52549366345607
 30
0.0
 11
1009.198985561589
 21
327.52549366345607
 31
0.0
  0
POLYLINE
  5
1DEB
  8
0
 66
     1
 10
0.0
 20
0.0
 30
0.0
  0
VERTEX
  5
1EF9
  8
0
 10
128.5554465829116
 20
-672.29600187728715
 30
0.0
  0
VERTEX
  5
1EFA
  8
0
 10
129.43602270878259
 20
-672.29600187728727
 30
0.0
 42
-0.1622776601689863
  0
VERTEX
  5
1EFB
  8
0
 10
130.5760227087828
 20
-672.67600187728647
 30
0.0
  0
VERTEX
  5
1EFC
  8
0
 10
132.44268937544959
 20
-674.07600187728804
 30
0.0
 42
0.1622776601688787
  0
VERTEX
  5
1EFD
  8
0
 10
133.1026893754487
 20
-674.29600187728545
 30
0.0
  0
VERTEX
  5
1EFE
  8
0
 10
169.5226174105195
 20
-674.29600187728727
 30
0.0
 42
0.322564308466411
  0
VERTEX
  5
1EFF
  8
0
 10
170.5658428277647
 20
-673.54482952644037
 30
0.0
  0
VERTEX
  5
1F00
  8
0
 10
178.90802724303001
 20
-648.59617984672605
 30
0.0
 42
0.432161690869105
  0
VERTEX
  5
1F01
  8
0
 10
178.14950277539791
 20
-647.18483378865585
 30
0.0
  0
VERTEX
  5
1F02
  8
0
 10
175.45290156600629
 20
-646.46228167228855
 30
0.0
 42
-0.440010530891432
  0
VERTEX
  5
1F03
  8
0
 10
174.15924177220879
 20
-643.97718433001955
 30
0.0
  0
VERTEX
  5
1F04
  8
0
 10
180.86758470327101
 20
-625.54616360496857
 30
0.0
 42
-0.3152987888790217
  0
VERTEX
  5
1F05
  8
0
 10
182.65300068276409
 20
-624.29600187728727
 30
0.0
  0
VERTEX
  5
1F06
  8
0
 10
192.55237806813469
 20
-624.29600187728727
 30
0.0
 42
-0.3152987888790118
  0
VERTEX
  5
1F07
  8
0
 10
194.33779404762811
 20
-625.54616360496857
 30
0.0
  0
VERTEX
  5
1F08
  8
0
 10
201.04613697869041
 20
-643.97718433001955
 30
0.0
 42
-0.4400105308916768
  0
VERTEX
  5
1F09
  8
0
 10
199.75247718489271
 20
-646.46228167228855
 30
0.0
  0
VERTEX
  5
1F0A
  8
0
 10
197.05587597550121
 20
-647.18483378865403
 30
0.0
 42
0.4321616908690272
  0
VERTEX
  5
1F0B
  8
0
 10
196.297351507868
 20
-648.59617984672605
 30
0.0
  0
VERTEX
  5
1F0C
  8
0
 10
204.6395359231349
 20
-673.5448295264423
 30
0.0
 42
0.3225643084661139
  0
VERTEX
  5
1F0D
  8
0
 10
205.6827613403795
 20
-674.29600187728727
 30
0.0
  0
VERTEX
  5
1F0E
  8
0
 10
242.1026893754493
 20
-674.29600187728727
 30
0.0
 42
0.1622776601689972
  0
VERTEX
  5
1F0F
  8
0
 10
242.76268937544941
 20
-674.07600187728804
 30
0.0
  0
VERTEX
  5
1F10
  8
0
 10
244.629356042116
 20
-672.67600187728647
 30
0.0
 42
-0.1622776601690584
  0
VERTEX
  5
1F11
  8
0
 10
245.7693560421171
 20
-672.29600187728545
 30
0.0
  0
VERTEX
  5
1F12
  8
0
 10
267.43602270878279
 20
-672.29600187728727
 30
0.0
 42
-0.1622776601689863
  0
VERTEX
  5
1F13
  8
0
 10
268.57602270878311
 20
-672.67600187728647
 30
0.0
  0
VERTEX
  5
1F14
  8
0
 10
270.44268937544967
 20
-674.07600187728804
 30
0.0
 42
0.1622776601688787
  0
VERTEX
  5
1F15
  8
0
 10
271.10268937544868
 20
-674.29600187728545
 30
0.0
  0
VERTEX
  5
1F16
  8
0
 10
298.10268937544947
 20
-674.29600187728727
 30
0.0
 42
0.1622776601690104
  0
VERTEX
  5
1F17
  8
0
 10
298.76268937544972
 20
-674.07600187728804
 30
0.0
  0
VERTEX
  5
1F18
  8
0
 10
300.62935604211572
 20
-672.67600187728647
 30
0.0
 42
-0.1622776601690845
  0
VERTEX
  5
1F19
  8
0
 10
301.7693560421169
 20
-672.29600187728545
 30
0.0
  0
VERTEX
  5
1F1A
  8
0
 10
323.43602270878279
 20
-672.29600187728727
 30
0.0
 42
-0.1622776601689863
  0
VERTEX
  5
1F1B
  8
0
 10
324.57602270878311
 20
-672.67600187728647
 30
0.0
  0
VERTEX
  5
1F1C
  8
0
 10
326.44268937544967
 20
-674.07600187728804
 30
0.0
 42
0.1622776601688708
  0
VERTEX
  5
1F1D
  8
0
 10
327.10268937544868
 20
-674.29600187728545
 30
0.0
  0
VERTEX
  5
1F1E
  8
0
 10
354.10268937544947
 20
-674.29600187728727
 30
0.0
 42
0.1622776601690104
  0
VERTEX
  5
1F1F
  8
0
 10
354.76268937544961
 20
-674.07600187728804
 30
0.0
  0
VERTEX
  5
1F20
  8
0
 10
356.629356042116
 20
-672.67600187728647
 30
0.0
 42
-0.1622776601690845
  0
VERTEX
  5
1F21
  8
0
 10
357.76935604211718
 20
-672.29600187728545
 30
0.0
  0
VERTEX
  5
1F22
  8
0
 10
379.43602270878262
 20
-672.29600187728727
 30
0.0
 42
-0.1622776601689863
  0
VERTEX
  5
1F23
  8
0
 10
380.57602270878289
 20
-672.67600187728647
 30
0.0
  0
VERTEX
  5
1F24
  8
0
 10
382.44268937544962
 20
-674.07600187728804
 30
0.0
 42
0.1622776601688708
  0
VERTEX
  5
1F25
  8
0
 10
383.10268937544868
 20
-674.29600187728545
 30
0.0
  0
VERTEX
  5
1F26
  8
0
 10
419.52261741051922
 20
-674.29600187728727
 30
0.0
 42
0.3225643084664253
  0
VERTEX
  5
1F27
  8
0
 10
420.56584282776453
 20
-673.54482952644037
 30
0.0
  0
VERTEX
  5
1F28
  8
0
 10
428.90802724302989
 20
-648.59617984672605
 30
0.0
 42
0.4321616908691661
  0
VERTEX
  5
1F29
  8
0
 10
428.14950277539799
 20
-647.18483378865585
 30
0.0
  0
VERTEX
  5
1F2A
  8
0
 10
423.51367055395599
 20
-645.94266628867172
 30
0.0
 42
-0.6655663796070265
  0
VERTEX
  5
1F2B
  8
0
 10
423.0435508670472
 20
-642.46887287190555
 30
0.0
 42
0.1879832548429003
  0
VERTEX
  5
1F2C
  8
0
 10
427.3640721153439
 20
-636.99673085332415
 30
0.0
  0
VERTEX
  5
1F2D
  8
0
 10
430.83602164643457
 20
-625.64049563831304
 30
0.0
 42
-0.3297505471400818
  0
VERTEX
  5
1F2E
  8
0
 10
432.65300068276372
 20
-624.29600187728545
 30
0.0
  0
VERTEX
  5
1F2F
  8
0
 10
442.55237806813489
 20
-624.29600187728727
 30
0.0
 42
-0.3152987888789954
  0
VERTEX
  5
1F30
  8
0
 10
444.33779404762822
 20
-625.54616360496857
 30
0.0
  0
VERTEX
  5
1F31
  8
0
 10
451.60601121361287
 20
-645.51542614820482
 30
0.0
  0
VERTEX
  5
1F32
  8
0
 10
451.23013416529852
 20
-645.65223420553502
 30
0.0
  0
VERTEX
  5
1F33
  8
0
 10
443.9619169993137
 20
-625.68297166229877
 30
0.0
 42
0.3152987888789935
  0
VERTEX
  5
1F34
  8
0
 10
442.55237806813489
 20
-624.6960018772869
 30
0.0
  0
VERTEX
  5
1F35
  8
0
 10
432.65300068276412
 20
-624.6960018772869
 30
0.0
 42
0.3297505471401294
  0
VERTEX
  5
1F36
  8
0
 10
431.2185435488197
 20
-625.7574443202019
 30
0.0
  0
VERTEX
  5
1F37
  8
0
 10
427.74659401772942
 20
-637.11367953521312
 30
0.0
 42
-0.1879832548430393
  0
VERTEX
  5
1F38
  8
0
 10
423.24605105075318
 20
-642.81382747123553
 30
0.0
 42
0.6655663796069576
  0
VERTEX
  5
1F39
  8
0
 10
423.61719817199719
 20
-645.5562959581556
 30
0.0
  0
VERTEX
  5
1F3A
  8
0
 10
428.25303039343891
 20
-646.79846345813985
 30
0.0
 42
-0.4321616908691595
  0
VERTEX
  5
1F3B
  8
0
 10
429.2873819402098
 20
-648.72302626459975
 30
0.0
  0
VERTEX
  5
1F3C
  8
0
 10
420.94519752494398
 20
-673.67167594431612
 30
0.0
 42
-0.3225643084660736
  0
VERTEX
  5
1F3D
  8
0
 10
419.52261741051922
 20
-674.6960018772869
 30
0.0
  0
VERTEX
  5
1F3E
  8
0
 10
383.10268937544947
 20
-674.6960018772869
 30
0.0
 42
-0.162277660168352
  0
VERTEX
  5
1F3F
  8
0
 10
382.20268937544949
 20
-674.39600187728774
 30
0.0
  0
VERTEX
  5
1F40
  8
0
 10
380.33602270878259
 20
-672.99600187728629
 30
0.0
 42
0.1622776601683521
  0
VERTEX
  5
1F41
  8
0
 10
379.43602270878262
 20
-672.69600187728702
 30
0.0
  0
VERTEX
  5
1F42
  8
0
 10
357.76935604211633
 20
-672.69600187728702
 30
0.0
 42
0.1622776601683521
  0
VERTEX
  5
1F43
  8
0
 10
356.86935604211618
 20
-672.99600187728629
 30
0.0
  0
VERTEX
  5
1F44
  8
0
 10
355.00268937544962
 20
-674.39600187728774
 30
0.0
 42
-0.1622776601683522
  0
VERTEX
  5
1F45
  8
0
 10
354.10268937544947
 20
-674.6960018772869
 30
0.0
  0
VERTEX
  5
1F46
  8
0
 10
327.10268937544947
 20
-674.6960018772869
 30
0.0
 42
-0.162277660168352
  0
VERTEX
  5
1F47
  8
0
 10
326.20268937544938
 20
-674.39600187728774
 30
0.0
  0
VERTEX
  5
1F48
  8
0
 10
324.33602270878288
 20
-672.99600187728629
 30
0.0
 42
0.1622776601683521
  0
VERTEX
  5
1F49
  8
0
 10
323.43602270878279
 20
-672.69600187728702
 30
0.0
  0
VERTEX
  5
1F4A
  8
0
 10
301.76935604211599
 20
-672.69600187728702
 30
0.0
 42
0.1622776601683521
  0
VERTEX
  5
1F4B
  8
0
 10
300.86935604211601
 20
-672.99600187728629
 30
0.0
  0
VERTEX
  5
1F4C
  8
0
 10
299.00268937544968
 20
-674.39600187728774
 30
0.0
 42
-0.1622776601683618
  0
VERTEX
  5
1F4D
  8
0
 10
298.10268937544947
 20
-674.6960018772869
 30
0.0
  0
VERTEX
  5
1F4E
  8
0
 10
271.10268937544947
 20
-674.6960018772869
 30
0.0
 42
-0.1622776601683538
  0
VERTEX
  5
1F4F
  8
0
 10
270.20268937544938
 20
-674.39600187728774
 30
0.0
  0
VERTEX
  5
1F50
  8
0
 10
268.33602270878288
 20
-672.99600187728629
 30
0.0
 42
0.162277660168354
  0
VERTEX
  5
1F51
  8
0
 10
267.43602270878279
 20
-672.69600187728702
 30
0.0
  0
VERTEX
  5
1F52
  8
0
 10
245.7693560421163
 20
-672.69600187728702
 30
0.0
 42
0.162277660168354
  0
VERTEX
  5
1F53
  8
0
 10
244.86935604211621
 20
-672.99600187728629
 30
0.0
  0
VERTEX
  5
1F54
  8
0
 10
243.00268937544939
 20
-674.39600187728774
 30
0.0
 42
-0.1622776601683538
  0
VERTEX
  5
1F55
  8
0
 10
242.1026893754493
 20
-674.6960018772869
 30
0.0
  0
VERTEX
  5
1F56
  8
0
 10
205.68276134037961
 20
-674.6960018772869
 30
0.0
 42
-0.3225643084660389
  0
VERTEX
  5
1F57
  8
0
 10
204.26018122595499
 20
-673.67167594431612
 30
0.0
  0
VERTEX
  5
1F58
  8
0
 10
195.91799681068829
 20
-648.72302626459975
 30
0.0
 42
-0.432161690869113
  0
VERTEX
  5
1F59
  8
0
 10
196.95234835746041
 20
-646.79846345813803
 30
0.0
  0
VERTEX
  5
1F5A
  8
0
 10
199.6489495668516
 20
-646.07591134177437
 30
0.0
 42
0.4400105308919259
  0
VERTEX
  5
1F5B
  8
0
 10
200.67025993037609
 20
-644.11399238734975
 30
0.0
  0
VERTEX
  5
1F5C
  8
0
 10
193.9619169993135
 20
-625.68297166229877
 30
0.0
 42
0.3152987888789935
  0
VERTEX
  5
1F5D
  8
0
 10
192.55237806813469
 20
-624.6960018772869
 30
0.0
  0
VERTEX
  5
1F5E
  8
0
 10
182.65300068276409
 20
-624.6960018772869
 30
0.0
 42
0.3152987888789935
  0
VERTEX
  5
1F5F
  8
0
 10
181.2434617515853
 20
-625.68297166229877
 30
0.0
  0
VERTEX
  5
1F60
  8
0
 10
174.53511882052419
 20
-644.11399238734975
 30
0.0
 42
0.4400105308920201
  0
VERTEX
  5
1F61
  8
0
 10
175.5564291840476
 20
-646.07591134177255
 30
0.0
  0
VERTEX
  5
1F62
  8
0
 10
178.25303039343871
 20
-646.79846345813985
 30
0.0
 42
-0.4321616908691848
  0
VERTEX
  5
1F63
  8
0
 10
179.28738194020991
 20
-648.72302626459975
 30
0.0
  0
VERTEX
  5
1F64
  8
0
 10
170.94519752494429
 20
-673.67167594431612
 30
0.0
 42
-0.3225643084660663
  0
VERTEX
  5
1F65
  8
0
 10
169.5226174105195
 20
-674.6960018772869
 30
0.0
  0
VERTEX
  5
1F66
  8
0
 10
133.1026893754495
 20
-674.6960018772869
 30
0.0
 42
-0.1622776601683538
  0
VERTEX
  5
1F67
  8
0
 10
132.20268937544949
 20
-674.39600187728774
 30
0.0
  0
VERTEX
  5
1F68
  8
0
 10
130.33602270878271
 20
-672.99600187728629
 30
0.0
 42
0.162277660168354
  0
VERTEX
  5
1F69
  8
0
 10
129.43602270878259
 20
-672.69600187728702
 30
0.0
  0
VERTEX
  5
1F6A
  8
0
 10
128.55544658291171
 20
-672.69600187728702
 30
0.0
  0
SEQEND
  5
1F6B
  8
0
  0
LINE
  5
1DED
  8
0
  6
CONTINUOUS
 10
438.91110943627831
 20
-679.08736413198994
 30
0.0
 11
128.5554465829116
 21
-679.08736413198994
 31
0.0
  0
POLYLINE
  5
1DEE
  8
0
  6
CONTINUOUS
 66
     1
 10
0.0
 20
0.0
 30
0.0
 70
   128
  0
VERTEX
  5
1F6C
  8
0
  6
CONTINUOUS
 10
128.5554465829116
 20
-616.7261451171139
 30
0.0
  0
VERTEX
  5
1F6D
  8
0
  6
CONTINUOUS
 10
128.5554465829116
 20
-720.94165421648586
 30
0.0
  0
VERTEX
  5
1F6E
  8
0
  6
CONTINUOUS
 10
121.6867530342749
 20
-723.44165421648609
 30
0.0
  0
VERTEX
  5
1F6F
  8
0
  6
CONTINUOUS
 10
135.42414013154811
 20
-728.44165421648597
 30
0.0
  0
VERTEX
  5
1F70
  8
0
  6
CONTINUOUS
 10
128.5554465829116
 20
-730.94165421648597
 30
0.0
  0
VERTEX
  5
1F71
  8
0
  6
CONTINUOUS
 10
128.5554465829116
 20
-871.0821263779784
 30
0.0
  0
SEQEND
  5
1F72
  8
0
  6
CONTINUOUS
  0
POLYLINE
  5
1DEF
  8
0
  6
CONTINUOUS
 66
     1
 10
0.0
 20
0.0
 30
0.0
 70
   128
  0
VERTEX
  5
1F73
  8
0
  6
CONTINUOUS
 10
83.103316920350906
 20
-835.30593793029652
 30
0.0
  0
VERTEX
  5
1F74
  8
0
  6
CONTINUOUS
 10
308.21595060689782
 20
-835.30593793029652
 30
0.0
  0
VERTEX
  5
1F75
  8
0
  6
CONTINUOUS
 10
310.71595060689731
 20
-842.1746314789325
 30
0.0
  0
VERTEX
  5
1F76
  8
0
  6
CONTINUOUS
 10
315.7159506068972
 20
-828.43724438165975
 30
0.0
  0
VERTEX
  5
1F77
  8
0
  6
CONTINUOUS
 10
318.21595060689782
 20
-835.30593793029652
 30
0.0
  0
VERTEX
  5
1F78
  8
0
  6
CONTINUOUS
 10
543.32858429344469
 20
-835.30593793029652
 30
0.0
  0
SEQEND
  5
1F79
  8
0
  6
CONTINUOUS
  0
INSERT
  5
1DF1
  8
0
  2
*U13
 10
0.0
 20
0.0
 30
0.0
  0
POLYLINE
  5
1DF3
  8
0
  6
CONTINUOUS
 66
     1
 10
0.0
 20
0.0
 30
0.0
 70
   128
  0
VERTEX
  5
1F7E
  8
0
  6
CONTINUOUS
 10
128.5554465829116
 20
-807.30403079865675
 30
0.0
  0
VERTEX
  5
1F7F
  8
0
  6
CONTINUOUS
 10
441.15992691872441
 20
-807.30403079865675
 30
0.0
  0
VERTEX
  5
1F80
  8
0
  6
CONTINUOUS
 10
441.15992691872441
 20
-802.78445235433787
 30
0.0
  0
VERTEX
  5
1F81
  8
0
  6
CONTINUOUS
 10
128.5554465829116
 20
-802.78445235433787
 30
0.0
  0
SEQEND
  5
1F82
  8
0
  6
CONTINUOUS
  0
LINE
  5
1DF4
  8
0
  6
CONTINUOUS
 10
398.07777610294488
 20
-801.58736413199006
 30
0.0
 11
128.5554465829116
 21
-801.58736413199006
 31
0.0
  0
INSERT
  5
1DF5
  8
0
  2
*U14
 10
0.0
 20
0.0
 30
0.0
  0
INSERT
  5
1DF6
  8
0
  6
CONTINUOUS
  2
*U15
 10
0.0
 20
0.0
 30
0.0
1001
GRADIENTCOLOR1ACI
1070
     5
1001
GRADIENTCOLOR2ACI
1070
     2
1001
ACAD
1002
{
1000
R14_HATCH_DATA
1000
1DF6
1011
1.0
1021
0.0
1031
0.0
1021
0.0
1031
0.0
1011
0.0
1021
0.0
1031
0.0
1021
1.0
1031
0.0
1011
0.0
1021
0.0
1031
0.0
1021
0.0
1031
1.0
1040
0.0
1010
0.0
1020
0.0
1030
1.0
1000
SOLID
1070
     1
1070
     1
1071
        1
1071
        7
1070
     0
1070
     1
1071
        4
1040
843.37867500899335
1040
668.52346427713258
1040
843.37867500899335
1040
658.52346427713246
1040
873.37867500899347
1040
658.52346427713246
1040
873.37867500899347
1040
668.52346427713258
1071
        1
1005
1E07
1070
     1
1070
     1
1040
0.9756523687420154
1071
        1
1040
860.02192329000036
1040
664.73170435029715
1040
0.0
1002
}
  0
INSERT
  5
1DF7
  8
0
  6
CONTINUOUS
  2
*U16
 10
0.0
 20
0.0
 30
0.0
1001
GRADIENTCOLOR1ACI
1070
     5
1001
GRADIENTCOLOR2ACI
1070
     2
1001
ACAD
1002
{
1000
R14_HATCH_DATA
1000
1DF7
1011
1.0
1021
0.0
1031
0.0
1021
0.0
1031
0.0
1011
0.0
1021
0.0
1031
0.0
1021
1.0
1031
0.0
1011
0.0
1021
0.0
1031
0.0
1021
0.0
1031
1.0
1040
0.0
1010
0.0
1020
0.0
1030
1.0
1000
SOLID
1070
     1
1070
     1
1071
        1
1071
        7
1070
     0
1070
     1
1071
        4
1040
873.37867500899347
1040
241.56686204674591
1040
873.37867500899347
1040
251.56686204674591
1040
843.37867500899335
1040
251.56686204674591
1040
843.37867500899335
1040
241.56686204674591
1071
        1
1005
1E07
1070
     1
1070
     1
1040
0.9756523687420154
1071
        1
1040
860.02192329000036
1040
245.4672539650588
1040
0.0
1002
}
  0
INSERT
  5
1DF8
  8
0
  2
*U17
 10
0.0
 20
0.0
 30
0.0
  0
INSERT
  5
1DF9
  8
0
  2
*U18
 10
0.0
 20
0.0
 30
0.0
  0
INSERT
  5
1DFA
  8
0
  2
*U19
 10
0.0
 20
0.0
 30
0.0
  0
POLYLINE
  5
1DFB
  8
0
 66
     1
 10
0.0
 20
0.0
 30
0.0
 70
   128
  0
VERTEX
  5
1FA7
  8
0
 10
453.6111094362783
 20
-676.58736413198994
 30
0.0
  0
VERTEX
  5
1FA8
  8
0
 10
128.5554465829116
 20
-676.58736413198994
 30
0.0
  0
SEQEND
  5
1FA9
  8
0
  0
LINE
  5
1DFC
  8
0
 10
-460.80101443841028
 20
94.898625702572119
 30
0.0
 11
-460.80101443841022
 21
940.31321612404065
 31
0.0
  0
LINE
  5
1DFD
  8
0
 10
437.53231889492309
 20
909.24372859614448
 30
0.0
 11
437.53231889492309
 21
615.24372859614436
 31
0.0
  0
LINE
  5
1DFE
  8
0
 10
1009.19898556159
 20
48.812881625726583
 30
0.0
 11
1009.198985561589
 21
615.24372859614436
 31
0.0
  0
LINE
  5
1DFF
  8
0
 10
502.86565222825629
 20
909.24372859614448
 30
0.0
 11
502.86565222825629
 21
615.24372859614436
 31
0.0
  0
LINE
  5
1E00
  8
0
 10
1074.532318894923
 20
615.24372859614436
 30
0.0
 11
1074.532318894923
 21
48.812881625726547
 31
0.0
  0
INSERT
  5
1E01
  8
0
  2
*U20
 10
0.0
 20
0.0
 30
0.0
1001
ACAD
1000
DSTYLE
1002
{
1070
   147
1040
1.0
1070
    77
1070
     0
1002
}
  0
INSERT
  5
1E02
  8
0
  2
*U21
 10
0.0
 20
0.0
 30
0.0
  0
INSERT
  5
1E03
  8
0
  2
*U22
 10
0.0
 20
0.0
 30
0.0
1001
ACAD
1000
DSTYLE
1002
{
1070
   147
1040
1.0
1070
    77
1070
     0
1002
}
  0
INSERT
  5
1E04
  8
0
  2
*U23
 10
0.0
 20
0.0
 30
0.0
  0
INSERT
  5
1E05
  8
0
  2
*U24
 10
0.0
 20
0.0
 30
0.0
1001
ACAD
1000
DSTYLE
1002
{
1070
   147
1040
1.0
1070
    77
1070
     0
1002
}
  0
INSERT
  5
1E06
  8
0
  2
*U25
 10
0.0
 20
0.0
 30
0.0
  0
POLYLINE
  5
1E07
  8
0
  6
CONTINUOUS
 66
     1
 10
0.0
 20
0.0
 30
0.0
 70
   128
  0
VERTEX
  5
1FD3
  8
0
  6
CONTINUOUS
 10
843.37867500899335
 20
658.52346427713246
 30
0.0
  0
VERTEX
  5
1FD4
  8
0
  6
CONTINUOUS
 10
873.37867500899347
 20
658.52346427713246
 30
0.0
  0
VERTEX
  5
1FD5
  8
0
  6
CONTINUOUS
 10
873.37867500899347
 20
668.52346427713258
 30
0.0
  0
VERTEX
  5
1FD6
  8
0
  6
CONTINUOUS
 10
843.37867500899335
 20
668.52346427713258
 30
0.0
  0
VERTEX
  5
1FD7
  8
0
  6
CONTINUOUS
 10
843.37867500899335
 20
241.56686204674591
 30
0.0
  0
VERTEX
  5
1FD8
  8
0
  6
CONTINUOUS
 10
873.37867500899347
 20
241.56686204674591
 30
0.0
  0
VERTEX
  5
1FD9
  8
0
  6
CONTINUOUS
 10
873.37867500899347
 20
251.56686204674591
 30
0.0
  0
VERTEX
  5
1FDA
  8
0
  6
CONTINUOUS
 10
843.37867500899335
 20
251.56686204674591
 30
0.0
  0
SEQEND
  5
1FDB
  8
0
  6
CONTINUOUS
  0
LINE
  5
1E08
  8
0
 10
437.53231889492309
 20
909.24372859614448
 30
0.0
 11
502.86565222825629
 21
909.24372859614448
 31
0.0
  0
LINE
  5
1E09
  8
0
 10
1009.19898556159
 20
615.24372859614436
 30
0.0
 11
1074.532318894923
 21
615.24372859614436
 31
0.0
  0
LINE
  5
1E0A
  8
0
 10
1009.19898556159
 20
48.812881625726583
 30
0.0
 11
1074.532318894923
 21
48.812881625726561
 31
0.0
  0
POLYLINE
  5
1E0B
  8
0
  6
CONTINUOUS
 66
     1
 10
0.0
 20
0.0
 30
0.0
 70
   128
  0
VERTEX
  5
1FDC
  8
0
  6
CONTINUOUS
 10
1124.532318894923
 20
48.812881625726547
 30
0.0
  0
VERTEX
  5
1FDD
  8
0
  6
CONTINUOUS
 10
193.94797926854281
 20
48.812881625726767
 30
0.0
  0
VERTEX
  5
1FDE
  8
0
  6
CONTINUOUS
 10
188.94797926854241
 20
62.550268723000087
 30
0.0
  0
VERTEX
  5
1FDF
  8
0
  6
CONTINUOUS
 10
178.94797926854241
 20
35.075494528453461
 30
0.0
  0
VERTEX
  5
1FE0
  8
0
  6
CONTINUOUS
 10
173.94797926854281
 20
48.812881625726767
 30
0.0
  0
VERTEX
  5
1FE1
  8
0
  6
CONTINUOUS
 10
-505.58900031024308
 20
48.812881625726767
 30
0.0
  0
SEQEND
  5
1FE2
  8
0
  6
CONTINUOUS
  0
POLYLINE
  5
1E0C
  8
0
  6
CONTINUOUS
 66
     1
 10
0.0
 20
0.0
 30
0.0
 70
   128
  0
VERTEX
  5
1FE3
  8
0
  6
CONTINUOUS
 10
575.73300626734726
 20
909.24372859614448
 30
0.0
  0
VERTEX
  5
1FE4
  8
0
  6
CONTINUOUS
 10
-15.383790420040039
 20
909.24372859614459
 30
0.0
  0
VERTEX
  5
1FE5
  8
0
  6
CONTINUOUS
 10
-20.383790420040501
 20
922.98111569341791
 30
0.0
  0
VERTEX
  5
1FE6
  8
0
  6
CONTINUOUS
 10
-30.383790420040501
 20
895.50634149887117
 30
0.0
  0
VERTEX
  5
1FE7
  8
0
  6
CONTINUOUS
 10
-35.38379042004005
 20
909.24372859614459
 30
0.0
  0
VERTEX
  5
1FE8
  8
0
  6
CONTINUOUS
 10
-505.58900031024359
 20
909.24372859614459
 30
0.0
  0
SEQEND
  5
1FE9
  8
0
  6
CONTINUOUS
  0
POLYLINE
  5
1E0D
  8
0
  6
CONTINUOUS
 66
     1
 10
0.0
 20
0.0
 30
0.0
 70
   128
  0
VERTEX
  5
1FEA
  8
0
  6
CONTINUOUS
 10
-460.80101443841028
 20
954.03171446797785
 30
0.0
  0
VERTEX
  5
1FEB
  8
0
  6
CONTINUOUS
 10
-460.80101443841028
 20
489.02830511093617
 30
0.0
  0
VERTEX
  5
1FEC
  8
0
  6
CONTINUOUS
 10
-474.53840153568359
 20
484.02830511093572
 30
0.0
  0
VERTEX
  5
1FED
  8
0
  6
CONTINUOUS
 10
-447.06362734113691
 20
474.02830511093572
 30
0.0
  0
VERTEX
  5
1FEE
  8
0
  6
CONTINUOUS
 10
-460.80101443841028
 20
469.02830511093617
 30
0.0
  0
VERTEX
  5
1FEF
  8
0
  6
CONTINUOUS
 10
-460.80101443841028
 20
4.0248957538938583
 30
0.0
  0
SEQEND
  5
1FF0
  8
0
  6
CONTINUOUS
  0
INSERT
  5
1E0E
  8
0
  2
*U26
 10
0.0
 20
0.0
 30
0.0
  0
INSERT
  5
1E0F
  8
0
  2
*U27
 10
0.0
 20
0.0
 30
0.0
  0
INSERT
  5
1E10
  8
0
  2
*U28
 10
0.0
 20
0.0
 30
0.0
  0
POLYLINE
  5
1E11
  8
0
 66
     1
 10
0.0
 20
0.0
 30
0.0
 70
     1
  0
VERTEX
  5
2004
  8
0
 10
398.07777610294488
 20
-801.58736413199006
 30
0.0
  0
VERTEX
  5
2005
  8
0
 10
438.9111094362782
 20
-801.58736413199006
 30
0.0
  0
VERTEX
  5
2006
  8
0
 10
438.9111094362782
 20
-679.08736413198994
 30
0.0
  0
VERTEX
  5
2007
  8
0
 10
398.07777610294488
 20
-679.08736413198994
 30
0.0
  0
SEQEND
  5
2008
  8
0
  0
LINE
  5
1E12
  8
0
 10
438.9111094362782
 20
-679.08736413198994
 30
0.0
 11
398.07777610294488
 21
-801.58736413199006
 31
0.0
  0
LINE
  5
1E13
  8
0
 10
438.9111094362782
 20
-801.58736413199006
 30
0.0
 11
398.07777610294488
 21
-679.08736413198994
 31
0.0
  0
POLYLINE
  5
1E14
  8
0
 66
     1
 10
0.0
 20
0.0
 30
0.0
 70
     1
 40
0.2041666666666666
 41
0.2041666666666666
  0
VERTEX
  5
2009
  8
0
 10
398.17985943627832
 20
-801.48528079865673
 30
0.0
  0
VERTEX
  5
200A
  8
0
 10
438.80902610294493
 20
-801.48528079865673
 30
0.0
  0
VERTEX
  5
200B
  8
0
 10
438.80902610294493
 20
-679.18944746532338
 30
0.0
  0
VERTEX
  5
200C
  8
0
 10
398.17985943627832
 20
-679.18944746532338
 30
0.0
  0
SEQEND
  5
200D
  8
0
  0
POLYLINE
  5
1E15
  8
0
 66
     1
 10
0.0
 20
0.0
 30
0.0
 70
     1
  0
VERTEX
  5
200E
  8
0
 10
438.91110943627831
 20
-801.58736413198994
 30
0.0
  0
VERTEX
  5
200F
  8
0
 10
444.62777610294489
 20
-804.03736413198988
 30
0.0
  0
VERTEX
  5
2010
  8
0
 10
444.62777610294489
 20
-807.30403079865664
 30
0.0
  0
VERTEX
  5
2011
  8
0
 10
438.91110943627831
 20
-807.30403079865664
 30
0.0
  0
VERTEX
  5
2012
  8
0
 10
438.91110943627831
 20
-819.55403079865675
 30
0.0
  0
VERTEX
  5
2013
  8
0
 10
451.97777610294492
 20
-819.55403079865675
 30
0.0
 42
0.4142135623730951
  0
VERTEX
  5
2014
  8
0
 10
453.6111094362783
 20
-817.92069746532331
 30
0.0
  0
VERTEX
  5
2015
  8
0
 10
453.6111094362783
 20
-679.08736413198994
 30
0.0
  0
VERTEX
  5
2016
  8
0
 10
438.91110943627831
 20
-679.08736413198994
 30
0.0
  0
VERTEX
  5
2017
  8
0
 10
438.91110943627831
 20
-684.80403079865664
 30
0.0
  0
VERTEX
  5
2018
  8
0
 10
444.62777610294489
 20
-684.80403079865664
 30
0.0
  0
VERTEX
  5
2019
  8
0
 10
444.62777610294489
 20
-688.07069746532318
 30
0.0
  0
VERTEX
  5
201A
  8
0
 10
438.91110943627831
 20
-690.52069746532334
 30
0.0
  0
SEQEND
  5
201B
  8
0
  0
POLYLINE
  5
1E16
  8
0
 66
     1
 10
0.0
 20
0.0
 30
0.0
 70
     1
 40
0.5879999999999999
 41
0.5879999999999999
  0
VERTEX
  5
201C
  8
0
 10
439.20510943627818
 20
-801.39350166154361
 30
0.0
  0
VERTEX
  5
201D
  8
0
 10
444.92177610294488
 20
-803.84350166154354
 30
0.0
  0
VERTEX
  5
201E
  8
0
 10
444.92177610294488
 20
-807.59803079865651
 30
0.0
  0
VERTEX
  5
201F
  8
0
 10
439.20510943627818
 20
-807.59803079865651
 30
0.0
  0
VERTEX
  5
2020
  8
0
 10
439.20510943627818
 20
-819.26003079865654
 30
0.0
  0
VERTEX
  5
2021
  8
0
 10
451.97777610294492
 20
-819.26003079865654
 30
0.0
 42
0.4142135623731104
  0
VERTEX
  5
2022
  8
0
 10
453.31710943627832
 20
-817.92069746532331
 30
0.0
  0
VERTEX
  5
2023
  8
0
 10
453.31710943627832
 20
-679.38136413198993
 30
0.0
  0
VERTEX
  5
2024
  8
0
 10
439.20510943627818
 20
-679.38136413199004
 30
0.0
  0
VERTEX
  5
2025
  8
0
 10
439.20510943627818
 20
-684.51003079865654
 30
0.0
  0
VERTEX
  5
2026
  8
0
 10
444.92177610294488
 20
-684.51003079865654
 30
0.0
  0
VERTEX
  5
2027
  8
0
 10
444.92177610294488
 20
-688.26455993576963
 30
0.0
  0
VERTEX
  5
2028
  8
0
 10
439.20510943627818
 20
-690.71455993576956
 30
0.0
  0
SEQEND
  5
2029
  8
0
  0
ARC
  5
1E17
  8
0
  6
CONTINUOUS
 10
372.81701645535128
 20
-678.9179413019823
 30
0.0
 40
78.948568787464552
 50
326.84342909688581
 51
359.87704374236711
  0
ARC
  5
1E18
  8
0
  6
CONTINUOUS
 10
372.81701645535128
 20
-678.9179413019823
 30
0.0
 40
94.210846720942314
 50
314.55189744349218
 51
329.04683446660499
  0
ARC
  5
1E19
  8
0
  6
CONTINUOUS
 10
372.81701645535128
 20
-678.9179413019823
 30
0.0
 40
121.69526771093
 50
302.8957007971988
 51
311.59837237399557
  0
ARC
  5
1E1A
  8
0
  6
CONTINUOUS
 10
372.81701645535128
 20
-678.9179413019823
 30
0.0
 40
141.4708914581673
 50
298.99795254805781
 51
304.82700076221909
  0
POLYLINE
  5
1E1B
  8
0
  6
CONTINUOUS
 66
     1
 10
0.0
 20
0.0
 30
0.0
 70
   129
1001
GENIUS_GENREC_14
1002
{
1000
PYDIR
1011
457.7188873407132
1021
0.0
1031
0.0
1021
-710.26172996698335
1031
0.0
1002
}
1002
{
1000
PXDIR
1011
456.2188873407132
1021
0.0
1031
0.0
1021
-717.26172996698335
1031
0.0
1002
}
1002
{
1000
PORI
1011
456.2188873407132
1021
0.0
1031
0.0
1021
-710.26172996698335
1031
0.0
1002
}
1002
{
1000
PINS
1011
456.2188873407132
1021
0.0
1031
0.0
1021
-710.26172996698335
1031
0.0
1002
}
1002
{
1000
PINS2
1011
457.7188873407132
1021
0.0
1031
0.0
1021
-717.26172996698335
1031
0.0
1002
}
1002
{
1000
C
1070
     1
1002
}
1001
GENIUS_GENOBJ-N-REC_13
1002
{
1000
OWNER
1000
GEN
1002
}
1001
GENIUS_GENODEF_13
1002
{
1000
HIER
1070
     0
1002
}
1002
{
1000
MANEDIT
1070
     0
1002
}
1002
{
1000
NOSEL
1070
     0
1002
}
1002
{
1000
BEHIND
1070
     0
1002
}
1002
{
1000
OTHER
1070
     0
1002
}
1002
{
1000
REACTOR
1002
}
1001
ACDBBLOCKREPETAG
1070
     1
1071
        0
1005
1E1B
  0
VERTEX
  5
202A
  8
0
  6
CONTINUOUS
 10
456.2188873407132
 20
-710.26172996698335
 30
0.0
  0
VERTEX
  5
202B
  8
0
  6
CONTINUOUS
 10
456.2188873407132
 20
-717.26172996698335
 30
0.0
  0
VERTEX
  5
202C
  8
0
  6
CONTINUOUS
 10
457.7188873407132
 20
-717.26172996698335
 30
0.0
  0
VERTEX
  5
202D
  8
0
  6
CONTINUOUS
 10
457.7188873407132
 20
-710.26172996698335
 30
0.0
  0
SEQEND
  5
202E
  8
0
  6
CONTINUOUS
  0
LINE
  5
1E1C
  8
0
  6
CONTINUOUS
 10
430.38555400738022
 20
-712.76172996698335
 30
0.0
 11
427.71888734071331
 21
-713.76172996698335
 31
0.0
1001
GENIUS_GENREC_14
1002
{
1000
PYDIR
1011
456.2188873407132
1021
0.0
1031
0.0
1021
-713.01172996698335
1031
0.0
1002
}
1002
{
1000
PXDIR
1011
430.43088765282403
1021
0.0
1031
0.0
1021
-714.51172996698335
1031
0.0
1002
}
1002
{
1000
PORI
1011
430.43088765282403
1021
0.0
1031
0.0
1021
-713.01172996698335
1031
0.0
1002
}
1002
{
1000
PINS
1011
430.43088765282403
1021
0.0
1031
0.0
1021
-713.01172996698335
1031
0.0
1002
}
1002
{
1000
PINS2
1011
456.2188873407132
1021
0.0
1031
0.0
1021
-714.51172996698335
1031
0.0
1002
}
1002
{
1000
C
1070
     1
1002
}
1001
GENIUS_GENOBJ-N-REC_13
1002
{
1000
OWNER
1000
GEN
1002
}
1001
GENIUS_GENODEF_13
1002
{
1000
HIER
1070
     0
1002
}
1002
{
1000
MANEDIT
1070
     0
1002
}
1002
{
1000
NOSEL
1070
     0
1002
}
1002
{
1000
BEHIND
1070
     0
1002
}
1002
{
1000
OTHER
1070
     0
1002
}
1002
{
1000
REACTOR
1002
}
1001
ACDBBLOCKREPETAG
1070
     1
1071
        1
1005
1E1C
  0
LINE
  5
1E1D
  8
0
  6
CONTINUOUS
 10
427.71888734071331
 20
-713.76172996698335
 30
0.0
 11
430.38555400738022
 21
-714.76172996698335
 31
0.0
1001
GENIUS_GENREC_14
1002
{
1000
PYDIR
1011
456.2188873407132
1021
0.0
1031
0.0
1021
-713.01172996698335
1031
0.0
1002
}
1002
{
1000
PXDIR
1011
430.43088765282403
1021
0.0
1031
0.0
1021
-714.51172996698335
1031
0.0
1002
}
1002
{
1000
PORI
1011
430.43088765282403
1021
0.0
1031
0.0
1021
-713.01172996698335
1031
0.0
1002
}
1002
{
1000
PINS
1011
430.43088765282403
1021
0.0
1031
0.0
1021
-713.01172996698335
1031
0.0
1002
}
1002
{
1000
PINS2
1011
456.2188873407132
1021
0.0
1031
0.0
1021
-714.51172996698335
1031
0.0
1002
}
1002
{
1000
C
1070
     1
1002
}
1001
GENIUS_GENOBJ-N-REC_13
1002
{
1000
OWNER
1000
GEN
1002
}
1001
GENIUS_GENODEF_13
1002
{
1000
HIER
1070
     0
1002
}
1002
{
1000
MANEDIT
1070
     0
1002
}
1002
{
1000
NOSEL
1070
     0
1002
}
1002
{
1000
BEHIND
1070
     0
1002
}
1002
{
1000
OTHER
1070
     0
1002
}
1002
{
1000
REACTOR
1002
}
1001
ACDBBLOCKREPETAG
1070
     1
1071
        2
1005
1E1D
  0
LINE
  5
1E1E
  8
0
  6
CONTINUOUS
 10
430.38555400738022
 20
-714.76172996698335
 30
0.0
 11
456.2188873407132
 21
-714.76172996698335
 31
0.0
1001
GENIUS_GENREC_14
1002
{
1000
PYDIR
1011
456.2188873407132
1021
0.0
1031
0.0
1021
-713.01172996698335
1031
0.0
1002
}
1002
{
1000
PXDIR
1011
430.43088765282403
1021
0.0
1031
0.0
1021
-714.51172996698335
1031
0.0
1002
}
1002
{
1000
PORI
1011
430.43088765282403
1021
0.0
1031
0.0
1021
-713.01172996698335
1031
0.0
1002
}
1002
{
1000
PINS
1011
430.43088765282403
1021
0.0
1031
0.0
1021
-713.01172996698335
1031
0.0
1002
}
1002
{
1000
PINS2
1011
456.2188873407132
1021
0.0
1031
0.0
1021
-714.51172996698335
1031
0.0
1002
}
1002
{
1000
C
1070
     1
1002
}
1001
GENIUS_GENOBJ-N-REC_13
1002
{
1000
OWNER
1000
GEN
1002
}
1001
GENIUS_GENODEF_13
1002
{
1000
HIER
1070
     0
1002
}
1002
{
1000
MANEDIT
1070
     0
1002
}
1002
{
1000
NOSEL
1070
     0
1002
}
1002
{
1000
BEHIND
1070
     0
1002
}
1002
{
1000
OTHER
1070
     0
1002
}
1002
{
1000
REACTOR
1002
}
1001
ACDBBLOCKREPETAG
1070
     1
1071
        3
1005
1E1E
  0
LINE
  5
1E1F
  8
0
  6
CONTINUOUS
 10
456.2188873407132
 20
-714.76172996698335
 30
0.0
 11
456.2188873407132
 21
-712.76172996698335
 31
0.0
1001
GENIUS_GENREC_14
1002
{
1000
PYDIR
1011
456.2188873407132
1021
0.0
1031
0.0
1021
-713.01172996698335
1031
0.0
1002
}
1002
{
1000
PXDIR
1011
418.93088765282403
1021
0.0
1031
0.0
1021
-714.51172996698335
1031
0.0
1002
}
1002
{
1000
PORI
1011
418.93088765282403
1021
0.0
1031
0.0
1021
-713.01172996698335
1031
0.0
1002
}
1002
{
1000
PINS
1011
418.93088765282403
1021
0.0
1031
0.0
1021
-713.01172996698335
1031
0.0
1002
}
1002
{
1000
PINS2
1011
456.2188873407132
1021
0.0
1031
0.0
1021
-714.51172996698335
1031
0.0
1002
}
1002
{
1000
C
1070
     1
1002
}
1001
GENIUS_GENOBJ-N-REC_13
1002
{
1000
OWNER
1000
GEN
1002
}
1001
GENIUS_GENODEF_13
1002
{
1000
HIER
1070
     0
1002
}
1002
{
1000
MANEDIT
1070
     0
1002
}
1002
{
1000
NOSEL
1070
     0
1002
}
1002
{
1000
BEHIND
1070
     0
1002
}
1002
{
1000
OTHER
1070
     0
1002
}
1002
{
1000
REACTOR
1002
}
1001
ACDBBLOCKREPETAG
1070
     1
1071
        4
1005
1E1F
  0
LINE
  5
1E20
  8
0
  6
CONTINUOUS
 10
456.2188873407132
 20
-712.76172996698335
 30
0.0
 11
430.38555400738022
 21
-712.76172996698335
 31
0.0
1001
GENIUS_GENREC_14
1002
{
1000
PYDIR
1011
456.2188873407132
1021
0.0
1031
0.0
1021
-713.01172996698335
1031
0.0
1002
}
1002
{
1000
PXDIR
1011
430.43088765282403
1021
0.0
1031
0.0
1021
-714.51172996698335
1031
0.0
1002
}
1002
{
1000
PORI
1011
430.43088765282403
1021
0.0
1031
0.0
1021
-713.01172996698335
1031
0.0
1002
}
1002
{
1000
PINS
1011
430.43088765282403
1021
0.0
1031
0.0
1021
-713.01172996698335
1031
0.0
1002
}
1002
{
1000
PINS2
1011
456.2188873407132
1021
0.0
1031
0.0
1021
-714.51172996698335
1031
0.0
1002
}
1002
{
1000
C
1070
     1
1002
}
1001
GENIUS_GENOBJ-N-REC_13
1002
{
1000
OWNER
1000
GEN
1002
}
1001
GENIUS_GENODEF_13
1002
{
1000
HIER
1070
     0
1002
}
1002
{
1000
MANEDIT
1070
     0
1002
}
1002
{
1000
NOSEL
1070
     0
1002
}
1002
{
1000
BEHIND
1070
     0
1002
}
1002
{
1000
OTHER
1070
     0
1002
}
1002
{
1000
REACTOR
1002
}
1001
ACDBBLOCKREPETAG
1070
     1
1071
        5
1005
1E20
  0
ENDSEC
  0
EOF
